ISO-10303-21;
HEADER;
FILE_DESCRIPTION (( 'STEP AP214' ),
    '1' );
FILE_NAME ('Micro_SME-026-2X.STEP',
    '2021-09-02T11:17:27',
    ( '' ),
    ( '' ),
    'SwSTEP 2.0',
    'SolidWorks 2020',
    '' );
FILE_SCHEMA (( 'AUTOMOTIVE_DESIGN' ));
ENDSEC;

DATA;
#1 = CARTESIAN_POINT ( 'NONE',  ( 3.916447120985436976E-17, 0.0000000000000000000, 0.3198021767347302147 ) ) ;
#2 = ADVANCED_FACE ( 'NONE', ( #88 ), #238, .T. ) ;
#3 = CIRCLE ( 'NONE', #168, 0.06250000000000002776 ) ;
#4 =( LENGTH_UNIT ( ) NAMED_UNIT ( * ) SI_UNIT ( $, .METRE. ) );
#5 = DIRECTION ( 'NONE',  ( 1.000000000000000000, 0.0000000000000000000, 0.0000000000000000000 ) ) ;
#6 = DIRECTION ( 'NONE',  ( 0.0000000000000000000, 0.0000000000000000000, -1.000000000000000000 ) ) ;
#7 = DIRECTION ( 'NONE',  ( -0.0000000000000000000, -0.0000000000000000000, -1.000000000000000000 ) ) ;
#8 = ORIENTED_EDGE ( 'NONE', *, *, #219, .T. ) ;
#9 = AXIS2_PLACEMENT_3D ( 'NONE', #222, #284, #5 ) ;
#10 = CYLINDRICAL_SURFACE ( 'NONE', #186, 0.06250000000000002776 ) ;
#11 =( CONVERSION_BASED_UNIT ( 'INCH', #45 ) LENGTH_UNIT ( ) NAMED_UNIT ( #79 ) );
#12 = AXIS2_PLACEMENT_3D ( 'NONE', #151, #126, #24 ) ;
#13 = EDGE_CURVE ( 'NONE', #192, #175, #217, .T. ) ;
#14 =( GEOMETRIC_REPRESENTATION_CONTEXT ( 3 ) GLOBAL_UNCERTAINTY_ASSIGNED_CONTEXT ( ( #265 ) ) GLOBAL_UNIT_ASSIGNED_CONTEXT ( ( #11, #106, #290 ) ) REPRESENTATION_CONTEXT ( 'NONE', 'WORKASPACE' ) );
#15 = ORIENTED_EDGE ( 'NONE', *, *, #121, .T. ) ;
#16 = ORIENTED_EDGE ( 'NONE', *, *, #246, .T. ) ;
#17 = CARTESIAN_POINT ( 'NONE',  ( 0.0000000000000000000, 0.0000000000000000000, 0.0000000000000000000 ) ) ;
#18 = EDGE_CURVE ( 'NONE', #142, #26, #119, .T. ) ;
#19 = DIRECTION ( 'NONE',  ( -1.224646799147353700E-16, -0.0000000000000000000, -1.000000000000000000 ) ) ;
#20 = CIRCLE ( 'NONE', #226, 0.04750000000000064587 ) ;
#21 = STYLED_ITEM ( 'NONE', ( #104 ), #150 ) ;
#22 = PRODUCT_DEFINITION ( 'UNKNOWN', '', #200, #146 ) ;
#23 = LINE ( 'NONE', #149, #36 ) ;
#24 = DIRECTION ( 'NONE',  ( 1.000000000000000000, 0.0000000000000000000, -0.0000000000000000000 ) ) ;
#25 = AXIS2_PLACEMENT_3D ( 'NONE', #99, #254, #277 ) ;
#26 = VERTEX_POINT ( 'NONE', #220 ) ;
#27 = EDGE_CURVE ( 'NONE', #192, #77, #23, .T. ) ;
#28 = DIRECTION ( 'NONE',  ( -0.0000000000000000000, -0.0000000000000000000, -1.000000000000000000 ) ) ;
#29 = AXIS2_PLACEMENT_3D ( 'NONE', #124, #218, #111 ) ;
#30 =( GEOMETRIC_REPRESENTATION_CONTEXT ( 3 ) GLOBAL_UNCERTAINTY_ASSIGNED_CONTEXT ( ( #271 ) ) GLOBAL_UNIT_ASSIGNED_CONTEXT ( ( #115, #108, #292 ) ) REPRESENTATION_CONTEXT ( 'NONE', 'WORKASPACE' ) );
#31 = LENGTH_MEASURE_WITH_UNIT ( LENGTH_MEASURE( 0.02539999999999999897 ), #4 );
#32 = EDGE_LOOP ( 'NONE', ( #215, #16, #103, #102 ) ) ;
#33 = CARTESIAN_POINT ( 'NONE',  ( -0.06250000000000002776, 0.0000000000000000000, 1.500000000000000222 ) ) ;
#34 = DIRECTION ( 'NONE',  ( 1.000000000000000000, 0.0000000000000000000, 0.0000000000000000000 ) ) ;
#35 = FILL_AREA_STYLE_COLOUR ( '', #287 ) ;
#36 = VECTOR ( 'NONE', #147, 39.37007874015748143 ) ;
#37 = VECTOR ( 'NONE', #52, 39.37007874015748143 ) ;
#38 = VERTEX_POINT ( 'NONE', #178 ) ;
#39 = DIRECTION ( 'NONE',  ( -1.224646799147353700E-16, -0.0000000000000000000, -1.000000000000000000 ) ) ;
#40 = ORIENTED_EDGE ( 'NONE', *, *, #84, .T. ) ;
#41 = PRESENTATION_STYLE_ASSIGNMENT (( #243 ) ) ;
#42 =( GEOMETRIC_REPRESENTATION_CONTEXT ( 3 ) GLOBAL_UNCERTAINTY_ASSIGNED_CONTEXT ( ( #50 ) ) GLOBAL_UNIT_ASSIGNED_CONTEXT ( ( #53, #162, #209 ) ) REPRESENTATION_CONTEXT ( 'NONE', 'WORKASPACE' ) );
#43 = CIRCLE ( 'NONE', #94, 0.01298700000000000201 ) ;
#44 = ORIENTED_EDGE ( 'NONE', *, *, #207, .T. ) ;
#45 = LENGTH_MEASURE_WITH_UNIT ( LENGTH_MEASURE( 0.02539999999999999897 ), #86 );
#46 = ADVANCED_FACE ( 'NONE', ( #65 ), #48, .T. ) ;
#47 = CARTESIAN_POINT ( 'NONE',  ( -0.04750000000000064587, 0.0000000000000000000, 1.500000000000000222 ) ) ;
#48 = PLANE ( 'NONE',  #110 ) ;
#49 = EDGE_CURVE ( 'NONE', #201, #208, #125, .T. ) ;
#50 = UNCERTAINTY_MEASURE_WITH_UNIT (LENGTH_MEASURE( 1.000000000000000082E-05 ), #53, 'distance_accuracy_value', 'NONE');
#51 = FACE_OUTER_BOUND ( 'NONE', #156, .T. ) ;
#52 = DIRECTION ( 'NONE',  ( -1.224646799147353700E-16, -0.0000000000000000000, -1.000000000000000000 ) ) ;
#53 =( CONVERSION_BASED_UNIT ( 'INCH', #31 ) LENGTH_UNIT ( ) NAMED_UNIT ( #223 ) );
#54 = AXIS2_PLACEMENT_3D ( 'NONE', #256, #6, #166 ) ;
#55 = DIRECTION ( 'NONE',  ( -1.000000000000000000, 0.0000000000000000000, 1.224646799147353700E-16 ) ) ;
#56 = EDGE_LOOP ( 'NONE', ( #190, #85, #40, #82 ) ) ;
#57 = DIRECTION ( 'NONE',  ( -1.224646799147353700E-16, -0.0000000000000000000, -1.000000000000000000 ) ) ;
#58 = ORIENTED_EDGE ( 'NONE', *, *, #163, .F. ) ;
#59 = EDGE_CURVE ( 'NONE', #208, #201, #20, .T. ) ;
#60 = ORIENTED_EDGE ( 'NONE', *, *, #97, .F. ) ;
#61 = DIRECTION ( 'NONE',  ( -0.7071067811865462405, 0.0000000000000000000, -0.7071067811865486830 ) ) ;
#62 = ORIENTED_EDGE ( 'NONE', *, *, #202, .F. ) ;
#63 = DIRECTION ( 'NONE',  ( -1.224646799147353700E-16, -0.0000000000000000000, -1.000000000000000000 ) ) ;
#64 = FILL_AREA_STYLE_COLOUR ( '', #266 ) ;
#65 = FACE_OUTER_BOUND ( 'NONE', #161, .T. ) ;
#66 = PLANE ( 'NONE',  #12 ) ;
#67 = AXIS2_PLACEMENT_3D ( 'NONE', #1, #96, #249 ) ;
#68 = CYLINDRICAL_SURFACE ( 'NONE', #107, 0.01298700000000000201 ) ;
#69 = CARTESIAN_POINT ( 'NONE',  ( 0.0000000000000000000, 0.0000000000000000000, 1.500000000000000222 ) ) ;
#70 = PRODUCT_CONTEXT ( 'NONE', #158, 'mechanical' ) ;
#71 = ADVANCED_FACE ( 'NONE', ( #297 ), #66, .F. ) ;
#72 = AXIS2_PLACEMENT_3D ( 'NONE', #80, #63, #240 ) ;
#73 = MECHANICAL_DESIGN_GEOMETRIC_PRESENTATION_REPRESENTATION (  '', ( #127 ), #30 ) ;
#74 = CARTESIAN_POINT ( 'NONE',  ( 0.0000000000000000000, 0.0000000000000000000, 1.500000000000000222 ) ) ;
#75 = ADVANCED_FACE ( 'NONE', ( #245 ), #68, .T. ) ;
#76 = FACE_OUTER_BOUND ( 'NONE', #285, .T. ) ;
#77 = VERTEX_POINT ( 'NONE', #248 ) ;
#78 = FILL_AREA_STYLE ('',( #35 ) ) ;
#79 = DIMENSIONAL_EXPONENTS ( 1.000000000000000000, 0.0000000000000000000, 0.0000000000000000000, 0.0000000000000000000, 0.0000000000000000000, 0.0000000000000000000, 0.0000000000000000000 ) ;
#80 = CARTESIAN_POINT ( 'NONE',  ( 4.776122516674679258E-18, 0.0000000000000000000, 0.03899999999999999994 ) ) ;
#81 = CARTESIAN_POINT ( 'NONE',  ( -0.01298699999999999855, 1.590448798052667897E-18, 0.03899999999999999994 ) ) ;
#82 = ORIENTED_EDGE ( 'NONE', *, *, #207, .F. ) ;
#83 = DIRECTION ( 'NONE',  ( 0.7071067811865462405, 8.659560562354916834E-17, -0.7071067811865486830 ) ) ;
#84 = EDGE_CURVE ( 'NONE', #289, #26, #203, .T. ) ;
#85 = ORIENTED_EDGE ( 'NONE', *, *, #264, .T. ) ;
#86 =( LENGTH_UNIT ( ) NAMED_UNIT ( * ) SI_UNIT ( $, .METRE. ) );
#87 = CARTESIAN_POINT ( 'NONE',  ( 0.0000000000000000000, 0.0000000000000000000, 1.485000000000000764 ) ) ;
#88 = FACE_OUTER_BOUND ( 'NONE', #56, .T. ) ;
#89 = ADVANCED_FACE ( 'NONE', ( #51 ), #144, .T. ) ;
#90 = VECTOR ( 'NONE', #7, 39.37007874015748143 ) ;
#91 = PRODUCT ( 'Micro_SME-026-2X', 'Micro_SME-026-2X', '', ( #70 ) ) ;
#92 = SHAPE_DEFINITION_REPRESENTATION ( #153, #212 ) ;
#93 = DIRECTION ( 'NONE',  ( 0.0000000000000000000, 0.0000000000000000000, 1.000000000000000000 ) ) ;
#94 = AXIS2_PLACEMENT_3D ( 'NONE', #120, #39, #173 ) ;
#95 = EDGE_CURVE ( 'NONE', #291, #289, #134, .T. ) ;
#96 = DIRECTION ( 'NONE',  ( -1.224646799147353700E-16, -0.0000000000000000000, -1.000000000000000000 ) ) ;
#97 = EDGE_CURVE ( 'NONE', #77, #38, #251, .T. ) ;
#98 = ORIENTED_EDGE ( 'NONE', *, *, #97, .T. ) ;
#99 = CARTESIAN_POINT ( 'NONE',  ( 3.916447120985436976E-17, 0.0000000000000000000, 0.3198021767347302147 ) ) ;
#100 = CARTESIAN_POINT ( 'NONE',  ( 0.04750000000000064587, 6.735557395310483192E-18, 1.500000000000000222 ) ) ;
#101 = CARTESIAN_POINT ( 'NONE',  ( 1.947738029742956287E-34, 0.0000000000000000000, 1.590448798052668475E-18 ) ) ;
#102 = ORIENTED_EDGE ( 'NONE', *, *, #250, .F. ) ;
#103 = ORIENTED_EDGE ( 'NONE', *, *, #121, .F. ) ;
#104 = PRESENTATION_STYLE_ASSIGNMENT (( #135 ) ) ;
#105 = APPLICATION_PROTOCOL_DEFINITION ( 'draft international standard', 'automotive_design', 1998, #158 ) ;
#106 =( NAMED_UNIT ( * ) PLANE_ANGLE_UNIT ( ) SI_UNIT ( $, .RADIAN. ) );
#107 = AXIS2_PLACEMENT_3D ( 'NONE', #299, #155, #154 ) ;
#108 =( NAMED_UNIT ( * ) PLANE_ANGLE_UNIT ( ) SI_UNIT ( $, .RADIAN. ) );
#109 = CARTESIAN_POINT ( 'NONE',  ( 0.0000000000000000000, 0.0000000000000000000, 1.485000000000000764 ) ) ;
#110 = AXIS2_PLACEMENT_3D ( 'NONE', #69, #269, #296 ) ;
#111 = DIRECTION ( 'NONE',  ( 1.000000000000000000, 0.0000000000000000000, 0.0000000000000000000 ) ) ;
#112 = CARTESIAN_POINT ( 'NONE',  ( 0.06250000000000002776, 7.654042494670959086E-18, 1.500000000000000222 ) ) ;
#113 = AXIS2_PLACEMENT_3D ( 'NONE', #138, #57, #55 ) ;
#114 = CARTESIAN_POINT ( 'NONE',  ( 0.01298700000000000722, 0.0000000000000000000, 0.03899999999999999994 ) ) ;
#115 =( CONVERSION_BASED_UNIT ( 'INCH', #194 ) LENGTH_UNIT ( ) NAMED_UNIT ( #224 ) );
#116 = ORIENTED_EDGE ( 'NONE', *, *, #27, .F. ) ;
#117 = ORIENTED_EDGE ( 'NONE', *, *, #13, .T. ) ;
#118 = AXIS2_PLACEMENT_3D ( 'NONE', #282, #174, #34 ) ;
#119 = LINE ( 'NONE', #112, #278 ) ;
#120 = CARTESIAN_POINT ( 'NONE',  ( 4.776122516674679258E-18, 0.0000000000000000000, 0.03899999999999999994 ) ) ;
#121 = EDGE_CURVE ( 'NONE', #291, #142, #3, .T. ) ;
#122 = DIRECTION ( 'NONE',  ( 1.000000000000000000, 0.0000000000000000000, 0.0000000000000000000 ) ) ;
#123 = APPLICATION_CONTEXT ( 'automotive_design' ) ;
#124 = CARTESIAN_POINT ( 'NONE',  ( 0.0000000000000000000, 0.0000000000000000000, 1.500000000000000222 ) ) ;
#125 = CIRCLE ( 'NONE', #29, 0.04750000000000064587 ) ;
#126 = DIRECTION ( 'NONE',  ( 0.0000000000000000000, 0.0000000000000000000, 1.000000000000000000 ) ) ;
#127 = STYLED_ITEM ( 'NONE', ( #41 ), #212 ) ;
#128 = DIRECTION ( 'NONE',  ( 0.0000000000000000000, 0.0000000000000000000, 1.000000000000000000 ) ) ;
#129 = ORIENTED_EDGE ( 'NONE', *, *, #49, .T. ) ;
#130 = SURFACE_STYLE_FILL_AREA ( #78 ) ;
#131 = AXIS2_PLACEMENT_3D ( 'NONE', #253, #228, #206 ) ;
#132 = VECTOR ( 'NONE', #83, 39.37007874015748854 ) ;
#133 = LINE ( 'NONE', #252, #37 ) ;
#134 = LINE ( 'NONE', #33, #90 ) ;
#135 = SURFACE_STYLE_USAGE ( .BOTH. , #276 ) ;
#136 = ADVANCED_FACE ( 'NONE', ( #199 ), #273, .T. ) ;
#137 = ORIENTED_EDGE ( 'NONE', *, *, #84, .F. ) ;
#138 = CARTESIAN_POINT ( 'NONE',  ( 1.947738029742956287E-34, 0.0000000000000000000, 1.590448798052668475E-18 ) ) ;
#139 = EDGE_LOOP ( 'NONE', ( #193, #272, #258, #187 ) ) ;
#140 = EDGE_LOOP ( 'NONE', ( #230, #165, #185, #58 ) ) ;
#141 = CARTESIAN_POINT ( 'NONE',  ( -0.06249999999999997918, 0.0000000000000000000, 0.3198021767347302147 ) ) ;
#142 = VERTEX_POINT ( 'NONE', #274 ) ;
#143 = EDGE_LOOP ( 'NONE', ( #205, #267, #62, #263 ) ) ;
#144 = CONICAL_SURFACE ( 'NONE', #9, 0.01298700000000000201, 0.1745329251994338915 ) ;
#145 = ADVANCED_FACE ( 'NONE', ( #183 ), #188, .T. ) ;
#146 = PRODUCT_DEFINITION_CONTEXT ( 'detailed design', #123, 'design' ) ;
#147 = DIRECTION ( 'NONE',  ( -1.224646799147353700E-16, -0.0000000000000000000, -1.000000000000000000 ) ) ;
#148 = FILL_AREA_STYLE ('',( #64 ) ) ;
#149 = CARTESIAN_POINT ( 'NONE',  ( 0.01298700000000000201, 1.590448798052667897E-18, -1.590448798052668475E-18 ) ) ;
#150 = MANIFOLD_SOLID_BREP ( 'Cut-Revolve1', #196 ) ;
#151 = CARTESIAN_POINT ( 'NONE',  ( 0.0000000000000000000, 0.0000000000000000000, 0.0000000000000000000 ) ) ;
#152 = VECTOR ( 'NONE', #268, 39.37007874015747433 ) ;
#153 = PRODUCT_DEFINITION_SHAPE ( 'NONE', 'NONE',  #22 ) ;
#154 = DIRECTION ( 'NONE',  ( -1.000000000000000000, 0.0000000000000000000, 1.224646799147353700E-16 ) ) ;
#155 = DIRECTION ( 'NONE',  ( -1.224646799147353700E-16, -0.0000000000000000000, -1.000000000000000000 ) ) ;
#156 = EDGE_LOOP ( 'NONE', ( #169, #293, #44, #260 ) ) ;
#157 = CARTESIAN_POINT ( 'NONE',  ( -0.04750000000000064587, 0.0000000000000000000, 1.500000000000000222 ) ) ;
#158 = APPLICATION_CONTEXT ( 'automotive_design' ) ;
#159 = DIRECTION ( 'NONE',  ( -1.000000000000000000, 0.0000000000000000000, 0.0000000000000000000 ) ) ;
#160 = DIRECTION ( 'NONE',  ( -1.000000000000000000, 0.0000000000000000000, 0.0000000000000000000 ) ) ;
#161 = EDGE_LOOP ( 'NONE', ( #262, #129 ) ) ;
#162 =( NAMED_UNIT ( * ) PLANE_ANGLE_UNIT ( ) SI_UNIT ( $, .RADIAN. ) );
#163 = EDGE_CURVE ( 'NONE', #26, #289, #182, .T. ) ;
#164 = DIRECTION ( 'NONE',  ( -1.000000000000000000, 0.0000000000000000000, 1.224646799147353700E-16 ) ) ;
#165 = ORIENTED_EDGE ( 'NONE', *, *, #242, .T. ) ;
#166 = DIRECTION ( 'NONE',  ( -1.000000000000000000, 0.0000000000000000000, 0.0000000000000000000 ) ) ;
#167 = CARTESIAN_POINT ( 'NONE',  ( -0.06250000000000002776, 0.0000000000000000000, 1.485000000000000764 ) ) ;
#168 = AXIS2_PLACEMENT_3D ( 'NONE', #87, #211, #237 ) ;
#169 = ORIENTED_EDGE ( 'NONE', *, *, #264, .F. ) ;
#170 = FACE_OUTER_BOUND ( 'NONE', #235, .T. ) ;
#171 = ADVANCED_FACE ( 'NONE', ( #76 ), #10, .T. ) ;
#172 = ORIENTED_EDGE ( 'NONE', *, *, #18, .T. ) ;
#173 = DIRECTION ( 'NONE',  ( -1.000000000000000000, 0.0000000000000000000, 0.0000000000000000000 ) ) ;
#174 = DIRECTION ( 'NONE',  ( 1.224646799147353700E-16, 0.0000000000000000000, 1.000000000000000000 ) ) ;
#175 = VERTEX_POINT ( 'NONE', #281 ) ;
#176 = LINE ( 'NONE', #216, #132 ) ;
#177 = MECHANICAL_DESIGN_GEOMETRIC_PRESENTATION_REPRESENTATION (  '', ( #21 ), #42 ) ;
#178 = CARTESIAN_POINT ( 'NONE',  ( -0.01298700000000000201, 0.0000000000000000000, 3.180897596105336950E-18 ) ) ;
#179 = ADVANCED_FACE ( 'NONE', ( #184 ), #288, .T. ) ;
#180 = CARTESIAN_POINT ( 'NONE',  ( 0.0000000000000000000, 0.0000000000000000000, 0.0000000000000000000 ) ) ;
#181 = PRESENTATION_LAYER_ASSIGNMENT (  '', '', ( #21 ) ) ;
#182 = CIRCLE ( 'NONE', #25, 0.06250000000000002776 ) ;
#183 = FACE_OUTER_BOUND ( 'NONE', #140, .T. ) ;
#184 = FACE_OUTER_BOUND ( 'NONE', #32, .T. ) ;
#185 = ORIENTED_EDGE ( 'NONE', *, *, #95, .T. ) ;
#186 = AXIS2_PLACEMENT_3D ( 'NONE', #74, #28, #160 ) ;
#187 = ORIENTED_EDGE ( 'NONE', *, *, #242, .F. ) ;
#188 = CYLINDRICAL_SURFACE ( 'NONE', #131, 0.06250000000000002776 ) ;
#189 = DIRECTION ( 'NONE',  ( 0.1736481776669313859, 0.0000000000000000000, 0.9848077530122077983 ) ) ;
#190 = ORIENTED_EDGE ( 'NONE', *, *, #275, .F. ) ;
#191 = AXIS2_PLACEMENT_3D ( 'NONE', #180, #128, #195 ) ;
#192 = VERTEX_POINT ( 'NONE', #257 ) ;
#193 = ORIENTED_EDGE ( 'NONE', *, *, #246, .F. ) ;
#194 = LENGTH_MEASURE_WITH_UNIT ( LENGTH_MEASURE( 0.02539999999999999897 ), #214 );
#195 = DIRECTION ( 'NONE',  ( 1.000000000000000000, 0.0000000000000000000, 0.0000000000000000000 ) ) ;
#196 = CLOSED_SHELL ( 'NONE', ( #75, #2, #179, #171, #145, #46, #136, #89, #229, #71 ) ) ;
#197 = VECTOR ( 'NONE', #61, 39.37007874015748854 ) ;
#198 = DIRECTION ( 'NONE',  ( 1.000000000000000000, 0.0000000000000000000, 0.0000000000000000000 ) ) ;
#199 = FACE_OUTER_BOUND ( 'NONE', #139, .T. ) ;
#200 = PRODUCT_DEFINITION_FORMATION_WITH_SPECIFIED_SOURCE ( 'ANY', '', #91, .NOT_KNOWN. ) ;
#201 = VERTEX_POINT ( 'NONE', #100 ) ;
#202 = EDGE_CURVE ( 'NONE', #38, #77, #259, .T. ) ;
#203 = CIRCLE ( 'NONE', #67, 0.06250000000000002776 ) ;
#204 = DIRECTION ( 'NONE',  ( 0.0000000000000000000, 0.0000000000000000000, -1.000000000000000000 ) ) ;
#205 = ORIENTED_EDGE ( 'NONE', *, *, #275, .T. ) ;
#206 = DIRECTION ( 'NONE',  ( -1.000000000000000000, 0.0000000000000000000, 0.0000000000000000000 ) ) ;
#207 = EDGE_CURVE ( 'NONE', #192, #26, #231, .T. ) ;
#208 = VERTEX_POINT ( 'NONE', #157 ) ;
#209 =( NAMED_UNIT ( * ) SI_UNIT ( $, .STERADIAN. ) SOLID_ANGLE_UNIT ( ) );
#210 = DIRECTION ( 'NONE',  ( -0.0000000000000000000, -0.0000000000000000000, -1.000000000000000000 ) ) ;
#211 = DIRECTION ( 'NONE',  ( 0.0000000000000000000, 0.0000000000000000000, -1.000000000000000000 ) ) ;
#212 = ADVANCED_BREP_SHAPE_REPRESENTATION ( 'Micro_SME-026-2X', ( #150, #191 ), #14 ) ;
#213 = ORIENTED_EDGE ( 'NONE', *, *, #202, .T. ) ;
#214 =( LENGTH_UNIT ( ) NAMED_UNIT ( * ) SI_UNIT ( $, .METRE. ) );
#215 = ORIENTED_EDGE ( 'NONE', *, *, #49, .F. ) ;
#216 = CARTESIAN_POINT ( 'NONE',  ( 0.04750000000000064587, 5.817072295950006528E-18, 1.500000000000000222 ) ) ;
#217 = CIRCLE ( 'NONE', #72, 0.01298700000000000201 ) ;
#218 = DIRECTION ( 'NONE',  ( 0.0000000000000000000, 0.0000000000000000000, 1.000000000000000000 ) ) ;
#219 = EDGE_CURVE ( 'NONE', #175, #38, #133, .T. ) ;
#220 = CARTESIAN_POINT ( 'NONE',  ( 0.06250000000000006939, 7.654042494670963708E-18, 0.3198021767347302147 ) ) ;
#221 = PRODUCT_RELATED_PRODUCT_CATEGORY ( 'part', '', ( #91 ) ) ;
#222 = CARTESIAN_POINT ( 'NONE',  ( 4.776122516674679258E-18, 0.0000000000000000000, 0.03899999999999999994 ) ) ;
#223 = DIMENSIONAL_EXPONENTS ( 1.000000000000000000, 0.0000000000000000000, 0.0000000000000000000, 0.0000000000000000000, 0.0000000000000000000, 0.0000000000000000000, 0.0000000000000000000 ) ;
#224 = DIMENSIONAL_EXPONENTS ( 1.000000000000000000, 0.0000000000000000000, 0.0000000000000000000, 0.0000000000000000000, 0.0000000000000000000, 0.0000000000000000000, 0.0000000000000000000 ) ;
#225 = CARTESIAN_POINT ( 'NONE',  ( 0.0000000000000000000, 0.0000000000000000000, 1.500000000000000222 ) ) ;
#226 = AXIS2_PLACEMENT_3D ( 'NONE', #270, #93, #198 ) ;
#227 = EDGE_LOOP ( 'NONE', ( #213, #98 ) ) ;
#228 = DIRECTION ( 'NONE',  ( -0.0000000000000000000, -0.0000000000000000000, -1.000000000000000000 ) ) ;
#229 = ADVANCED_FACE ( 'NONE', ( #170 ), #233, .T. ) ;
#230 = ORIENTED_EDGE ( 'NONE', *, *, #18, .F. ) ;
#231 = LINE ( 'NONE', #114, #232 ) ;
#232 = VECTOR ( 'NONE', #189, 39.37007874015748143 ) ;
#233 = CYLINDRICAL_SURFACE ( 'NONE', #255, 0.01298700000000000201 ) ;
#234 = LINE ( 'NONE', #47, #197 ) ;
#235 = EDGE_LOOP ( 'NONE', ( #116, #117, #8, #60 ) ) ;
#236 = SURFACE_SIDE_STYLE ('',( #286 ) ) ;
#237 = DIRECTION ( 'NONE',  ( 1.000000000000000000, 0.0000000000000000000, 0.0000000000000000000 ) ) ;
#238 = CONICAL_SURFACE ( 'NONE', #118, 0.01298700000000000201, 0.1745329251994338915 ) ;
#239 = PRESENTATION_LAYER_ASSIGNMENT (  '', '', ( #127 ) ) ;
#240 = DIRECTION ( 'NONE',  ( -1.000000000000000000, 0.0000000000000000000, 0.0000000000000000000 ) ) ;
#241 = DIRECTION ( 'NONE',  ( -1.000000000000000000, 0.0000000000000000000, 1.224646799147353700E-16 ) ) ;
#242 = EDGE_CURVE ( 'NONE', #142, #291, #247, .T. ) ;
#243 = SURFACE_STYLE_USAGE ( .BOTH. , #236 ) ;
#244 = AXIS2_PLACEMENT_3D ( 'NONE', #225, #204, #159 ) ;
#245 = FACE_OUTER_BOUND ( 'NONE', #143, .T. ) ;
#246 = EDGE_CURVE ( 'NONE', #201, #142, #176, .T. ) ;
#247 = CIRCLE ( 'NONE', #295, 0.06250000000000002776 ) ;
#248 = CARTESIAN_POINT ( 'NONE',  ( 0.01298700000000000201, 1.590448798052667897E-18, 0.0000000000000000000 ) ) ;
#249 = DIRECTION ( 'NONE',  ( 1.000000000000000000, 0.0000000000000000000, 0.0000000000000000000 ) ) ;
#250 = EDGE_CURVE ( 'NONE', #208, #291, #234, .T. ) ;
#251 = CIRCLE ( 'NONE', #294, 0.01298700000000000201 ) ;
#252 = CARTESIAN_POINT ( 'NONE',  ( -0.01298700000000000201, 0.0000000000000000000, 1.590448798052668475E-18 ) ) ;
#253 = CARTESIAN_POINT ( 'NONE',  ( 0.0000000000000000000, 0.0000000000000000000, 1.500000000000000222 ) ) ;
#254 = DIRECTION ( 'NONE',  ( -1.224646799147353700E-16, -0.0000000000000000000, -1.000000000000000000 ) ) ;
#255 = AXIS2_PLACEMENT_3D ( 'NONE', #17, #19, #241 ) ;
#256 = CARTESIAN_POINT ( 'NONE',  ( 0.0000000000000000000, 0.0000000000000000000, 1.500000000000000222 ) ) ;
#257 = CARTESIAN_POINT ( 'NONE',  ( 0.01298700000000000722, 0.0000000000000000000, 0.03899999999999999994 ) ) ;
#258 = ORIENTED_EDGE ( 'NONE', *, *, #250, .T. ) ;
#259 = CIRCLE ( 'NONE', #113, 0.01298700000000000201 ) ;
#260 = ORIENTED_EDGE ( 'NONE', *, *, #163, .T. ) ;
#261 = DIRECTION ( 'NONE',  ( 0.0000000000000000000, 0.0000000000000000000, -1.000000000000000000 ) ) ;
#262 = ORIENTED_EDGE ( 'NONE', *, *, #59, .T. ) ;
#263 = ORIENTED_EDGE ( 'NONE', *, *, #219, .F. ) ;
#264 = EDGE_CURVE ( 'NONE', #175, #289, #283, .T. ) ;
#265 = UNCERTAINTY_MEASURE_WITH_UNIT (LENGTH_MEASURE( 1.000000000000000082E-05 ), #11, 'distance_accuracy_value', 'NONE');
#266 = COLOUR_RGB ( '',0.7921568627450980005, 0.8196078431372548767, 0.9333333333333333481 ) ;
#267 = ORIENTED_EDGE ( 'NONE', *, *, #27, .T. ) ;
#268 = DIRECTION ( 'NONE',  ( -0.1736481776669311916, 2.126576849575783316E-17, 0.9848077530122080203 ) ) ;
#269 = DIRECTION ( 'NONE',  ( 0.0000000000000000000, 0.0000000000000000000, 1.000000000000000000 ) ) ;
#270 = CARTESIAN_POINT ( 'NONE',  ( 0.0000000000000000000, 0.0000000000000000000, 1.500000000000000222 ) ) ;
#271 = UNCERTAINTY_MEASURE_WITH_UNIT (LENGTH_MEASURE( 1.000000000000000082E-05 ), #115, 'distance_accuracy_value', 'NONE');
#272 = ORIENTED_EDGE ( 'NONE', *, *, #59, .F. ) ;
#273 = CONICAL_SURFACE ( 'NONE', #244, 0.04750000000000064587, 0.7853981633974466137 ) ;
#274 = CARTESIAN_POINT ( 'NONE',  ( 0.06250000000000002776, 7.654042494670959086E-18, 1.485000000000000764 ) ) ;
#275 = EDGE_CURVE ( 'NONE', #175, #192, #43, .T. ) ;
#276 = SURFACE_SIDE_STYLE ('',( #130 ) ) ;
#277 = DIRECTION ( 'NONE',  ( 1.000000000000000000, 0.0000000000000000000, 0.0000000000000000000 ) ) ;
#278 = VECTOR ( 'NONE', #210, 39.37007874015748143 ) ;
#279 = DIRECTION ( 'NONE',  ( -1.224646799147353700E-16, -0.0000000000000000000, -1.000000000000000000 ) ) ;
#280 = ORIENTED_EDGE ( 'NONE', *, *, #95, .F. ) ;
#281 = CARTESIAN_POINT ( 'NONE',  ( -0.01298699999999999855, 4.622245646361813491E-18, 0.03899999999999999994 ) ) ;
#282 = CARTESIAN_POINT ( 'NONE',  ( 4.776122516674679258E-18, 0.0000000000000000000, 0.03899999999999999994 ) ) ;
#283 = LINE ( 'NONE', #81, #152 ) ;
#284 = DIRECTION ( 'NONE',  ( 1.224646799147353700E-16, 0.0000000000000000000, 1.000000000000000000 ) ) ;
#285 = EDGE_LOOP ( 'NONE', ( #15, #172, #137, #280 ) ) ;
#286 = SURFACE_STYLE_FILL_AREA ( #148 ) ;
#287 = COLOUR_RGB ( '',0.7921568627450980005, 0.8196078431372548767, 0.9333333333333333481 ) ;
#288 = CONICAL_SURFACE ( 'NONE', #54, 0.04750000000000064587, 0.7853981633974466137 ) ;
#289 = VERTEX_POINT ( 'NONE', #141 ) ;
#290 =( NAMED_UNIT ( * ) SI_UNIT ( $, .STERADIAN. ) SOLID_ANGLE_UNIT ( ) );
#291 = VERTEX_POINT ( 'NONE', #167 ) ;
#292 =( NAMED_UNIT ( * ) SI_UNIT ( $, .STERADIAN. ) SOLID_ANGLE_UNIT ( ) );
#293 = ORIENTED_EDGE ( 'NONE', *, *, #13, .F. ) ;
#294 = AXIS2_PLACEMENT_3D ( 'NONE', #101, #279, #164 ) ;
#295 = AXIS2_PLACEMENT_3D ( 'NONE', #109, #261, #122 ) ;
#296 = DIRECTION ( 'NONE',  ( 1.000000000000000000, 0.0000000000000000000, -0.0000000000000000000 ) ) ;
#297 = FACE_OUTER_BOUND ( 'NONE', #227, .T. ) ;
#298 = APPLICATION_PROTOCOL_DEFINITION ( 'draft international standard', 'automotive_design', 1998, #123 ) ;
#299 = CARTESIAN_POINT ( 'NONE',  ( 0.0000000000000000000, 0.0000000000000000000, 0.0000000000000000000 ) ) ;
ENDSEC;
END-ISO-10303-21;
