ISO-10303-21;
HEADER;
FILE_DESCRIPTION (( 'STEP AP214' ),
    '1' );
FILE_NAME ('Micro_BMR-027-2X.STEP',
    '2021-09-03T14:00:19',
    ( '' ),
    ( '' ),
    'SwSTEP 2.0',
    'SolidWorks 2020',
    '' );
FILE_SCHEMA (( 'AUTOMOTIVE_DESIGN' ));
ENDSEC;

DATA;
#1 = DIRECTION ( 'NONE',  ( 1.000000000000000000, 0.0000000000000000000, 0.0000000000000000000 ) ) ;
#2 = DIRECTION ( 'NONE',  ( -1.224646799147353454E-16, -0.0000000000000000000, -1.000000000000000000 ) ) ;
#3 = ORIENTED_EDGE ( 'NONE', *, *, #32, .T. ) ;
#4 = SPHERICAL_SURFACE ( 'NONE', #43, 0.01348650000000000022 ) ;
#5 = AXIS2_PLACEMENT_3D ( 'NONE', #214, #45, #321 ) ;
#6 = CARTESIAN_POINT ( 'NONE',  ( 0.01348650000000000890, 0.0000000000000000000, 0.08100000000000000255 ) ) ;
#7 = EDGE_LOOP ( 'NONE', ( #82, #272, #119 ) ) ;
#8 = DIRECTION ( 'NONE',  ( 0.0000000000000000000, 0.0000000000000000000, 1.000000000000000000 ) ) ;
#9 = LINE ( 'NONE', #315, #295 ) ;
#10 = UNCERTAINTY_MEASURE_WITH_UNIT (LENGTH_MEASURE( 1.000000000000000082E-05 ), #246, 'distance_accuracy_value', 'NONE');
#11 = DIRECTION ( 'NONE',  ( -1.224646799147353454E-16, -0.0000000000000000000, -1.000000000000000000 ) ) ;
#12 = SURFACE_SIDE_STYLE ('',( #202 ) ) ;
#13 = DIRECTION ( 'NONE',  ( 1.224646799147353454E-16, 0.0000000000000000000, 1.000000000000000000 ) ) ;
#14 = EDGE_CURVE ( 'NONE', #22, #316, #93, .T. ) ;
#15 = CARTESIAN_POINT ( 'NONE',  ( 9.919639073093563665E-18, 0.0000000000000000000, 0.08100000000000000255 ) ) ;
#16 = CARTESIAN_POINT ( 'NONE',  ( -0.04750000000000064587, 0.0000000000000000000, 1.500000000000000222 ) ) ;
#17 = AXIS2_PLACEMENT_3D ( 'NONE', #187, #304, #233 ) ;
#18 = LINE ( 'NONE', #16, #183 ) ;
#19 = EDGE_LOOP ( 'NONE', ( #207, #155, #38, #252 ) ) ;
#20 = DIRECTION ( 'NONE',  ( -1.224646799147353454E-16, -0.0000000000000000000, -1.000000000000000000 ) ) ;
#21 = DIRECTION ( 'NONE',  ( -0.0000000000000000000, -0.0000000000000000000, -1.000000000000000000 ) ) ;
#22 = VERTEX_POINT ( 'NONE', #273 ) ;
#23 = CARTESIAN_POINT ( 'NONE',  ( 0.0000000000000000000, 0.0000000000000000000, 1.500000000000000222 ) ) ;
#24 = DIRECTION ( 'NONE',  ( 0.1736481776669314137, 0.0000000000000000000, 0.9848077530122077983 ) ) ;
#25 = DIRECTION ( 'NONE',  ( -0.0000000000000000000, -0.0000000000000000000, -1.000000000000000000 ) ) ;
#26 = ADVANCED_FACE ( 'NONE', ( #95 ), #100, .T. ) ;
#27 =( LENGTH_UNIT ( ) NAMED_UNIT ( * ) SI_UNIT ( $, .METRE. ) );
#28 = ORIENTED_EDGE ( 'NONE', *, *, #299, .F. ) ;
#29 = PRESENTATION_LAYER_ASSIGNMENT (  '', '', ( #101 ) ) ;
#30 = DIRECTION ( 'NONE',  ( -0.0000000000000000000, -0.0000000000000000000, -1.000000000000000000 ) ) ;
#31 = ORIENTED_EDGE ( 'NONE', *, *, #299, .T. ) ;
#32 = EDGE_CURVE ( 'NONE', #316, #64, #297, .T. ) ;
#33 = EDGE_LOOP ( 'NONE', ( #153, #37, #134, #121 ) ) ;
#34 = MECHANICAL_DESIGN_GEOMETRIC_PRESENTATION_REPRESENTATION (  '', ( #163 ), #199 ) ;
#35 = CARTESIAN_POINT ( 'NONE',  ( 0.0000000000000000000, 0.0000000000000000000, 0.0000000000000000000 ) ) ;
#36 = ORIENTED_EDGE ( 'NONE', *, *, #14, .F. ) ;
#37 = ORIENTED_EDGE ( 'NONE', *, *, #306, .T. ) ;
#38 = ORIENTED_EDGE ( 'NONE', *, *, #253, .T. ) ;
#39 = PRODUCT_DEFINITION ( 'UNKNOWN', '', #219, #260 ) ;
#40 = APPLICATION_CONTEXT ( 'automotive_design' ) ;
#41 = CIRCLE ( 'NONE', #218, 0.06250000000000002776 ) ;
#42 =( LENGTH_UNIT ( ) NAMED_UNIT ( * ) SI_UNIT ( $, .METRE. ) );
#43 = AXIS2_PLACEMENT_3D ( 'NONE', #165, #142, #53 ) ;
#44 = DIRECTION ( 'NONE',  ( 1.000000000000000000, 0.0000000000000000000, 0.0000000000000000000 ) ) ;
#45 = DIRECTION ( 'NONE',  ( -1.224646799147353454E-16, -0.0000000000000000000, -1.000000000000000000 ) ) ;
#46 = EDGE_CURVE ( 'NONE', #22, #249, #204, .T. ) ;
#47 = DIRECTION ( 'NONE',  ( 0.0000000000000000000, 0.0000000000000000000, -1.000000000000000000 ) ) ;
#48 = CIRCLE ( 'NONE', #325, 0.01348650000000000022 ) ;
#49 = DIRECTION ( 'NONE',  ( 1.224646799147353454E-16, 0.0000000000000000000, 1.000000000000000000 ) ) ;
#50 = DIRECTION ( 'NONE',  ( 0.0000000000000000000, 0.0000000000000000000, -1.000000000000000000 ) ) ;
#51 = CARTESIAN_POINT ( 'NONE',  ( -0.01348650000000000022, 0.0000000000000000000, 1.651619905670078319E-18 ) ) ;
#52 = DIMENSIONAL_EXPONENTS ( 1.000000000000000000, 0.0000000000000000000, 0.0000000000000000000, 0.0000000000000000000, 0.0000000000000000000, 0.0000000000000000000, 0.0000000000000000000 ) ;
#53 = DIRECTION ( 'NONE',  ( 1.000000000000000000, 0.0000000000000000000, 0.0000000000000000000 ) ) ;
#54 = AXIS2_PLACEMENT_3D ( 'NONE', #255, #13, #230 ) ;
#55 = CIRCLE ( 'NONE', #185, 0.06250000000000002776 ) ;
#56 = CARTESIAN_POINT ( 'NONE',  ( 0.06250000000000002776, 7.654042494670959086E-18, 1.500000000000000222 ) ) ;
#57 = ORIENTED_EDGE ( 'NONE', *, *, #253, .F. ) ;
#58 = EDGE_CURVE ( 'NONE', #298, #64, #48, .T. ) ;
#59 = DIRECTION ( 'NONE',  ( 0.0000000000000000000, 0.0000000000000000000, 1.000000000000000000 ) ) ;
#60 = CIRCLE ( 'NONE', #137, 0.01348650000000000022 ) ;
#61 = MECHANICAL_DESIGN_GEOMETRIC_PRESENTATION_REPRESENTATION (  '', ( #101 ), #148 ) ;
#62 = CARTESIAN_POINT ( 'NONE',  ( 9.919639073093563665E-18, 0.0000000000000000000, 0.08100000000000000255 ) ) ;
#63 = ORIENTED_EDGE ( 'NONE', *, *, #322, .F. ) ;
#64 = VERTEX_POINT ( 'NONE', #250 ) ;
#65 = ORIENTED_EDGE ( 'NONE', *, *, #46, .T. ) ;
#66 = CIRCLE ( 'NONE', #269, 0.06250000000000002776 ) ;
#67 = PLANE ( 'NONE',  #159 ) ;
#68 = FILL_AREA_STYLE_COLOUR ( '', #271 ) ;
#69 = ORIENTED_EDGE ( 'NONE', *, *, #144, .T. ) ;
#70 = ORIENTED_EDGE ( 'NONE', *, *, #322, .T. ) ;
#71 = CIRCLE ( 'NONE', #17, 0.06250000000000002776 ) ;
#72 = DIRECTION ( 'NONE',  ( -1.224646799147353454E-16, -0.0000000000000000000, -1.000000000000000000 ) ) ;
#73 = DIRECTION ( 'NONE',  ( 0.0000000000000000000, 0.0000000000000000000, 1.000000000000000000 ) ) ;
#74 = ADVANCED_FACE ( 'NONE', ( #97 ), #84, .T. ) ;
#75 = CARTESIAN_POINT ( 'NONE',  ( 1.651619905670078319E-18, 0.0000000000000000000, 0.01348650000000000022 ) ) ;
#76 = ORIENTED_EDGE ( 'NONE', *, *, #312, .F. ) ;
#77 = AXIS2_PLACEMENT_3D ( 'NONE', #296, #294, #44 ) ;
#78 = CYLINDRICAL_SURFACE ( 'NONE', #89, 0.06250000000000002776 ) ;
#79 = EDGE_CURVE ( 'NONE', #171, #152, #9, .T. ) ;
#80 = CARTESIAN_POINT ( 'NONE',  ( -0.06249999999999997918, 0.0000000000000000000, 0.3589693714658311885 ) ) ;
#81 =( CONVERSION_BASED_UNIT ( 'INCH', #110 ) LENGTH_UNIT ( ) NAMED_UNIT ( #52 ) );
#82 = ORIENTED_EDGE ( 'NONE', *, *, #58, .F. ) ;
#83 =( LENGTH_UNIT ( ) NAMED_UNIT ( * ) SI_UNIT ( $, .METRE. ) );
#84 = CONICAL_SURFACE ( 'NONE', #77, 0.01348649999999999849, 0.1745329251994339192 ) ;
#85 = VECTOR ( 'NONE', #25, 39.37007874015748143 ) ;
#86 = ADVANCED_FACE ( 'NONE', ( #313 ), #67, .T. ) ;
#87 = EDGE_LOOP ( 'NONE', ( #63, #189, #99, #177 ) ) ;
#88 = SURFACE_SIDE_STYLE ('',( #138 ) ) ;
#89 = AXIS2_PLACEMENT_3D ( 'NONE', #23, #21, #106 ) ;
#90 = FILL_AREA_STYLE ('',( #68 ) ) ;
#91 = ORIENTED_EDGE ( 'NONE', *, *, #79, .T. ) ;
#92 = ORIENTED_EDGE ( 'NONE', *, *, #283, .F. ) ;
#93 = CIRCLE ( 'NONE', #197, 0.01348649999999999849 ) ;
#94 =( NAMED_UNIT ( * ) SI_UNIT ( $, .STERADIAN. ) SOLID_ANGLE_UNIT ( ) );
#95 = FACE_OUTER_BOUND ( 'NONE', #276, .T. ) ;
#96 = VECTOR ( 'NONE', #30, 39.37007874015748143 ) ;
#97 = FACE_OUTER_BOUND ( 'NONE', #181, .T. ) ;
#98 = DIRECTION ( 'NONE',  ( 0.0000000000000000000, 0.0000000000000000000, 1.000000000000000000 ) ) ;
#99 = ORIENTED_EDGE ( 'NONE', *, *, #283, .T. ) ;
#100 = CONICAL_SURFACE ( 'NONE', #287, 0.01348649999999999849, 0.1745329251994339192 ) ;
#101 = STYLED_ITEM ( 'NONE', ( #201 ), #123 ) ;
#102 = LINE ( 'NONE', #51, #320 ) ;
#103 = ORIENTED_EDGE ( 'NONE', *, *, #114, .T. ) ;
#104 = DIRECTION ( 'NONE',  ( 1.224646799147353207E-16, 1.000000000000000000, -0.0000000000000000000 ) ) ;
#105 = DIRECTION ( 'NONE',  ( -1.000000000000000000, 0.0000000000000000000, 1.582513064953995103E-16 ) ) ;
#106 = DIRECTION ( 'NONE',  ( -1.000000000000000000, 0.0000000000000000000, 0.0000000000000000000 ) ) ;
#107 = ORIENTED_EDGE ( 'NONE', *, *, #312, .T. ) ;
#108 = SPHERICAL_SURFACE ( 'NONE', #190, 0.01348650000000000022 ) ;
#109 = CARTESIAN_POINT ( 'NONE',  ( 0.01348650000000000890, 0.0000000000000000000, 0.08100000000000000255 ) ) ;
#110 = LENGTH_MEASURE_WITH_UNIT ( LENGTH_MEASURE( 0.02539999999999999897 ), #83 );
#111 = FILL_AREA_STYLE_COLOUR ( '', #223 ) ;
#112 = DIRECTION ( 'NONE',  ( -1.000000000000000000, 0.0000000000000000000, 0.0000000000000000000 ) ) ;
#113 = ORIENTED_EDGE ( 'NONE', *, *, #46, .F. ) ;
#114 = EDGE_CURVE ( 'NONE', #64, #196, #147, .T. ) ;
#115 = DIRECTION ( 'NONE',  ( 1.000000000000000000, 0.0000000000000000000, 0.0000000000000000000 ) ) ;
#116 = AXIS2_PLACEMENT_3D ( 'NONE', #179, #47, #131 ) ;
#117 = APPLICATION_PROTOCOL_DEFINITION ( 'draft international standard', 'automotive_design', 1998, #40 ) ;
#118 = VERTEX_POINT ( 'NONE', #258 ) ;
#119 = ORIENTED_EDGE ( 'NONE', *, *, #114, .F. ) ;
#120 = ADVANCED_FACE ( 'NONE', ( #186 ), #277, .T. ) ;
#121 = ORIENTED_EDGE ( 'NONE', *, *, #139, .T. ) ;
#122 = ADVANCED_FACE ( 'NONE', ( #284 ), #78, .T. ) ;
#123 = ADVANCED_BREP_SHAPE_REPRESENTATION ( 'Micro_BMR-027-2X', ( #279, #205 ), #282 ) ;
#124 = DIRECTION ( 'NONE',  ( 1.000000000000000000, 0.0000000000000000000, 0.0000000000000000000 ) ) ;
#125 = APPLICATION_PROTOCOL_DEFINITION ( 'draft international standard', 'automotive_design', 1998, #158 ) ;
#126 = DIRECTION ( 'NONE',  ( 0.0000000000000000000, 0.0000000000000000000, -1.000000000000000000 ) ) ;
#127 = DIRECTION ( 'NONE',  ( -1.224646799147353454E-16, -0.0000000000000000000, -1.000000000000000000 ) ) ;
#128 = CARTESIAN_POINT ( 'NONE',  ( 0.0000000000000000000, 0.0000000000000000000, 1.500000000000000222 ) ) ;
#129 = VECTOR ( 'NONE', #314, 39.37007874015747433 ) ;
#130 = CIRCLE ( 'NONE', #244, 0.04750000000000064587 ) ;
#131 = DIRECTION ( 'NONE',  ( -1.000000000000000000, 0.0000000000000000000, 0.0000000000000000000 ) ) ;
#132 = DIRECTION ( 'NONE',  ( -0.0000000000000000000, -0.0000000000000000000, -1.000000000000000000 ) ) ;
#133 = CARTESIAN_POINT ( 'NONE',  ( 0.0000000000000000000, 0.0000000000000000000, 1.485000000000000764 ) ) ;
#134 = ORIENTED_EDGE ( 'NONE', *, *, #188, .T. ) ;
#135 = DIRECTION ( 'NONE',  ( 1.000000000000000000, 0.0000000000000000000, 0.0000000000000000000 ) ) ;
#136 = AXIS2_PLACEMENT_3D ( 'NONE', #62, #195, #112 ) ;
#137 = AXIS2_PLACEMENT_3D ( 'NONE', #305, #104, #211 ) ;
#138 = SURFACE_STYLE_FILL_AREA ( #220 ) ;
#139 = EDGE_CURVE ( 'NONE', #196, #64, #308, .T. ) ;
#140 = EDGE_LOOP ( 'NONE', ( #143, #141, #285 ) ) ;
#141 = ORIENTED_EDGE ( 'NONE', *, *, #58, .T. ) ;
#142 = DIRECTION ( 'NONE',  ( 0.0000000000000000000, 1.000000000000000000, 0.0000000000000000000 ) ) ;
#143 = ORIENTED_EDGE ( 'NONE', *, *, #247, .F. ) ;
#144 = EDGE_CURVE ( 'NONE', #118, #249, #71, .T. ) ;
#145 = ORIENTED_EDGE ( 'NONE', *, *, #188, .F. ) ;
#146 = CONICAL_SURFACE ( 'NONE', #116, 0.04750000000000064587, 0.7853981633974466137 ) ;
#147 = CIRCLE ( 'NONE', #54, 0.01348650000000000022 ) ;
#148 =( GEOMETRIC_REPRESENTATION_CONTEXT ( 3 ) GLOBAL_UNCERTAINTY_ASSIGNED_CONTEXT ( ( #184 ) ) GLOBAL_UNIT_ASSIGNED_CONTEXT ( ( #170, #274, #94 ) ) REPRESENTATION_CONTEXT ( 'NONE', 'WORKASPACE' ) );
#149 = EDGE_CURVE ( 'NONE', #152, #319, #41, .T. ) ;
#150 = ORIENTED_EDGE ( 'NONE', *, *, #232, .T. ) ;
#151 = ORIENTED_EDGE ( 'NONE', *, *, #257, .T. ) ;
#152 = VERTEX_POINT ( 'NONE', #286 ) ;
#153 = ORIENTED_EDGE ( 'NONE', *, *, #32, .F. ) ;
#154 = CARTESIAN_POINT ( 'NONE',  ( 1.651619905670078319E-18, 0.0000000000000000000, 0.01348650000000000022 ) ) ;
#155 = ORIENTED_EDGE ( 'NONE', *, *, #257, .F. ) ;
#156 = FACE_OUTER_BOUND ( 'NONE', #19, .T. ) ;
#157 = CARTESIAN_POINT ( 'NONE',  ( 0.04750000000000064587, 6.735557395310483192E-18, 1.500000000000000222 ) ) ;
#158 = APPLICATION_CONTEXT ( 'automotive_design' ) ;
#159 = AXIS2_PLACEMENT_3D ( 'NONE', #175, #98, #206 ) ;
#160 = CARTESIAN_POINT ( 'NONE',  ( -0.01348649999999999849, 0.0000000000000000000, 0.01348650000000000196 ) ) ;
#161 = CARTESIAN_POINT ( 'NONE',  ( 0.0000000000000000000, 0.0000000000000000000, 1.500000000000000222 ) ) ;
#162 = ADVANCED_FACE ( 'NONE', ( #280 ), #108, .T. ) ;
#163 = STYLED_ITEM ( 'NONE', ( #217 ), #279 ) ;
#164 = LINE ( 'NONE', #56, #96 ) ;
#165 = CARTESIAN_POINT ( 'NONE',  ( 1.651619905670078319E-18, 0.0000000000000000000, 0.01348650000000000022 ) ) ;
#166 = DIRECTION ( 'NONE',  ( 1.000000000000000000, 0.0000000000000000000, 0.0000000000000000000 ) ) ;
#167 = AXIS2_PLACEMENT_3D ( 'NONE', #318, #50, #262 ) ;
#168 =( NAMED_UNIT ( * ) SI_UNIT ( $, .STERADIAN. ) SOLID_ANGLE_UNIT ( ) );
#169 = ADVANCED_FACE ( 'NONE', ( #156 ), #213, .T. ) ;
#170 =( CONVERSION_BASED_UNIT ( 'INCH', #176 ) LENGTH_UNIT ( ) NAMED_UNIT ( #317 ) );
#171 = VERTEX_POINT ( 'NONE', #157 ) ;
#172 = VERTEX_POINT ( 'NONE', #212 ) ;
#173 = SURFACE_STYLE_USAGE ( .BOTH. , #12 ) ;
#174 = ORIENTED_EDGE ( 'NONE', *, *, #307, .F. ) ;
#175 = CARTESIAN_POINT ( 'NONE',  ( 0.0000000000000000000, 0.0000000000000000000, 1.500000000000000222 ) ) ;
#176 = LENGTH_MEASURE_WITH_UNIT ( LENGTH_MEASURE( 0.02539999999999999897 ), #42 );
#177 = ORIENTED_EDGE ( 'NONE', *, *, #144, .F. ) ;
#178 = ORIENTED_EDGE ( 'NONE', *, *, #306, .F. ) ;
#179 = CARTESIAN_POINT ( 'NONE',  ( 0.0000000000000000000, 0.0000000000000000000, 1.500000000000000222 ) ) ;
#180 = DIRECTION ( 'NONE',  ( 0.0000000000000000000, 1.000000000000000000, 0.0000000000000000000 ) ) ;
#181 = EDGE_LOOP ( 'NONE', ( #113, #178, #31, #69 ) ) ;
#182 = DIRECTION ( 'NONE',  ( 0.0000000000000000000, 0.0000000000000000000, -1.000000000000000000 ) ) ;
#183 = VECTOR ( 'NONE', #209, 39.37007874015748854 ) ;
#184 = UNCERTAINTY_MEASURE_WITH_UNIT (LENGTH_MEASURE( 1.000000000000000082E-05 ), #170, 'distance_accuracy_value', 'NONE');
#185 = AXIS2_PLACEMENT_3D ( 'NONE', #241, #2, #245 ) ;
#186 = FACE_OUTER_BOUND ( 'NONE', #270, .T. ) ;
#187 = CARTESIAN_POINT ( 'NONE',  ( 4.396106917575674977E-17, 0.0000000000000000000, 0.3589693714658311885 ) ) ;
#188 = EDGE_CURVE ( 'NONE', #22, #196, #102, .T. ) ;
#189 = ORIENTED_EDGE ( 'NONE', *, *, #149, .T. ) ;
#190 = AXIS2_PLACEMENT_3D ( 'NONE', #238, #180, #235 ) ;
#191 = CARTESIAN_POINT ( 'NONE',  ( -0.06250000000000002776, 0.0000000000000000000, 1.500000000000000222 ) ) ;
#192 = PRODUCT_DEFINITION_SHAPE ( 'NONE', 'NONE',  #39 ) ;
#193 =( NAMED_UNIT ( * ) PLANE_ANGLE_UNIT ( ) SI_UNIT ( $, .RADIAN. ) );
#194 = PRODUCT_RELATED_PRODUCT_CATEGORY ( 'part', '', ( #216 ) ) ;
#195 = DIRECTION ( 'NONE',  ( -1.224646799147353454E-16, -0.0000000000000000000, -1.000000000000000000 ) ) ;
#196 = VERTEX_POINT ( 'NONE', #160 ) ;
#197 = AXIS2_PLACEMENT_3D ( 'NONE', #208, #127, #228 ) ;
#198 = VECTOR ( 'NONE', #11, 39.37007874015748143 ) ;
#199 =( GEOMETRIC_REPRESENTATION_CONTEXT ( 3 ) GLOBAL_UNCERTAINTY_ASSIGNED_CONTEXT ( ( #10 ) ) GLOBAL_UNIT_ASSIGNED_CONTEXT ( ( #246, #293, #267 ) ) REPRESENTATION_CONTEXT ( 'NONE', 'WORKASPACE' ) );
#200 = ADVANCED_FACE ( 'NONE', ( #263 ), #300, .T. ) ;
#201 = PRESENTATION_STYLE_ASSIGNMENT (( #173 ) ) ;
#202 = SURFACE_STYLE_FILL_AREA ( #90 ) ;
#203 = DIRECTION ( 'NONE',  ( 0.0000000000000000000, -1.000000000000000000, 0.0000000000000000000 ) ) ;
#204 = LINE ( 'NONE', #224, #129 ) ;
#205 = AXIS2_PLACEMENT_3D ( 'NONE', #35, #8, #115 ) ;
#206 = DIRECTION ( 'NONE',  ( 1.000000000000000000, 0.0000000000000000000, -0.0000000000000000000 ) ) ;
#207 = ORIENTED_EDGE ( 'NONE', *, *, #79, .F. ) ;
#208 = CARTESIAN_POINT ( 'NONE',  ( 9.919639073093563665E-18, 0.0000000000000000000, 0.08100000000000000255 ) ) ;
#209 = DIRECTION ( 'NONE',  ( -0.7071067811865462405, 0.0000000000000000000, -0.7071067811865486830 ) ) ;
#210 = ADVANCED_FACE ( 'NONE', ( #301 ), #323, .T. ) ;
#211 = DIRECTION ( 'NONE',  ( -1.000000000000000000, 1.224646799147352961E-16, 0.0000000000000000000 ) ) ;
#212 = CARTESIAN_POINT ( 'NONE',  ( -0.04750000000000064587, 0.0000000000000000000, 1.500000000000000222 ) ) ;
#213 = CONICAL_SURFACE ( 'NONE', #167, 0.04750000000000064587, 0.7853981633974466137 ) ;
#214 = CARTESIAN_POINT ( 'NONE',  ( 0.0000000000000000000, 0.0000000000000000000, 0.0000000000000000000 ) ) ;
#215 = CARTESIAN_POINT ( 'NONE',  ( -0.06250000000000002776, 0.0000000000000000000, 1.485000000000000764 ) ) ;
#216 = PRODUCT ( 'Micro_BMR-027-2X', 'Micro_BMR-027-2X', '', ( #227 ) ) ;
#217 = PRESENTATION_STYLE_ASSIGNMENT (( #289 ) ) ;
#218 = AXIS2_PLACEMENT_3D ( 'NONE', #133, #182, #1 ) ;
#219 = PRODUCT_DEFINITION_FORMATION_WITH_SPECIFIED_SOURCE ( 'ANY', '', #216, .NOT_KNOWN. ) ;
#220 = FILL_AREA_STYLE ('',( #111 ) ) ;
#221 = UNCERTAINTY_MEASURE_WITH_UNIT (LENGTH_MEASURE( 1.000000000000000082E-05 ), #81, 'distance_accuracy_value', 'NONE');
#222 = LINE ( 'NONE', #191, #85 ) ;
#223 = COLOUR_RGB ( '',0.7921568627450980005, 0.8196078431372548767, 0.9333333333333333481 ) ;
#224 = CARTESIAN_POINT ( 'NONE',  ( -0.01348649999999998635, 1.651619905670077549E-18, 0.08100000000000000255 ) ) ;
#225 = EDGE_LOOP ( 'NONE', ( #76, #91, #311, #57 ) ) ;
#226 = DIRECTION ( 'NONE',  ( 0.7071067811865462405, 8.659560562354916834E-17, -0.7071067811865486830 ) ) ;
#227 = PRODUCT_CONTEXT ( 'NONE', #40, 'mechanical' ) ;
#228 = DIRECTION ( 'NONE',  ( -1.000000000000000000, 0.0000000000000000000, 0.0000000000000000000 ) ) ;
#229 = CIRCLE ( 'NONE', #136, 0.01348649999999999849 ) ;
#230 = DIRECTION ( 'NONE',  ( -1.000000000000000000, 0.0000000000000000000, 1.582513064953995103E-16 ) ) ;
#231 = ORIENTED_EDGE ( 'NONE', *, *, #307, .T. ) ;
#232 = EDGE_CURVE ( 'NONE', #319, #152, #66, .T. ) ;
#233 = DIRECTION ( 'NONE',  ( 1.000000000000000000, 0.0000000000000000000, 0.0000000000000000000 ) ) ;
#234 = PRESENTATION_LAYER_ASSIGNMENT (  '', '', ( #163 ) ) ;
#235 = DIRECTION ( 'NONE',  ( 1.000000000000000000, 0.0000000000000000000, 0.0000000000000000000 ) ) ;
#236 = DIMENSIONAL_EXPONENTS ( 1.000000000000000000, 0.0000000000000000000, 0.0000000000000000000, 0.0000000000000000000, 0.0000000000000000000, 0.0000000000000000000, 0.0000000000000000000 ) ;
#237 = DIRECTION ( 'NONE',  ( -1.000000000000000000, 0.0000000000000000000, 0.0000000000000000000 ) ) ;
#238 = CARTESIAN_POINT ( 'NONE',  ( 1.651619905670078319E-18, 0.0000000000000000000, 0.01348650000000000022 ) ) ;
#239 = AXIS2_PLACEMENT_3D ( 'NONE', #161, #73, #264 ) ;
#240 = FACE_OUTER_BOUND ( 'NONE', #225, .T. ) ;
#241 = CARTESIAN_POINT ( 'NONE',  ( 4.396106917575674977E-17, 0.0000000000000000000, 0.3589693714658311885 ) ) ;
#242 = CLOSED_SHELL ( 'NONE', ( #162, #120, #26, #268, #200, #122, #86, #169, #74, #210, #302 ) ) ;
#243 = AXIS2_PLACEMENT_3D ( 'NONE', #75, #49, #105 ) ;
#244 = AXIS2_PLACEMENT_3D ( 'NONE', #291, #59, #166 ) ;
#245 = DIRECTION ( 'NONE',  ( 1.000000000000000000, 0.0000000000000000000, 0.0000000000000000000 ) ) ;
#246 =( CONVERSION_BASED_UNIT ( 'INCH', #288 ) LENGTH_UNIT ( ) NAMED_UNIT ( #236 ) );
#247 = EDGE_CURVE ( 'NONE', #298, #196, #60, .T. ) ;
#248 = FACE_OUTER_BOUND ( 'NONE', #140, .T. ) ;
#249 = VERTEX_POINT ( 'NONE', #80 ) ;
#250 = CARTESIAN_POINT ( 'NONE',  ( 0.01348650000000000196, 1.651619905670077742E-18, 0.01348649999999999849 ) ) ;
#251 = DIRECTION ( 'NONE',  ( 1.224646799147353454E-16, 0.0000000000000000000, 1.000000000000000000 ) ) ;
#252 = ORIENTED_EDGE ( 'NONE', *, *, #149, .F. ) ;
#253 = EDGE_CURVE ( 'NONE', #172, #319, #18, .T. ) ;
#254 = SHAPE_DEFINITION_REPRESENTATION ( #192, #123 ) ;
#255 = CARTESIAN_POINT ( 'NONE',  ( 1.651619905670078319E-18, 0.0000000000000000000, 0.01348650000000000022 ) ) ;
#256 = CIRCLE ( 'NONE', #239, 0.04750000000000064587 ) ;
#257 = EDGE_CURVE ( 'NONE', #172, #171, #256, .T. ) ;
#258 = CARTESIAN_POINT ( 'NONE',  ( 0.06250000000000006939, 7.654042494670963708E-18, 0.3589693714658311885 ) ) ;
#259 = CARTESIAN_POINT ( 'NONE',  ( 0.0000000000000000000, 0.0000000000000000000, 0.0000000000000000000 ) ) ;
#260 = PRODUCT_DEFINITION_CONTEXT ( 'detailed design', #158, 'design' ) ;
#261 = DIRECTION ( 'NONE',  ( -1.000000000000000000, 0.0000000000000000000, 1.224646799147353454E-16 ) ) ;
#262 = DIRECTION ( 'NONE',  ( -1.000000000000000000, 0.0000000000000000000, 0.0000000000000000000 ) ) ;
#263 = FACE_OUTER_BOUND ( 'NONE', #290, .T. ) ;
#264 = DIRECTION ( 'NONE',  ( 1.000000000000000000, 0.0000000000000000000, 0.0000000000000000000 ) ) ;
#265 = AXIS2_PLACEMENT_3D ( 'NONE', #259, #72, #261 ) ;
#266 = VECTOR ( 'NONE', #24, 39.37007874015748143 ) ;
#267 =( NAMED_UNIT ( * ) SI_UNIT ( $, .STERADIAN. ) SOLID_ANGLE_UNIT ( ) );
#268 = ADVANCED_FACE ( 'NONE', ( #240 ), #146, .T. ) ;
#269 = AXIS2_PLACEMENT_3D ( 'NONE', #324, #278, #135 ) ;
#270 = EDGE_LOOP ( 'NONE', ( #292, #3, #103, #145 ) ) ;
#271 = COLOUR_RGB ( '',0.7921568627450980005, 0.8196078431372548767, 0.9333333333333333481 ) ;
#272 = ORIENTED_EDGE ( 'NONE', *, *, #247, .T. ) ;
#273 = CARTESIAN_POINT ( 'NONE',  ( -0.01348649999999998635, 4.652831200170519473E-18, 0.08100000000000000255 ) ) ;
#274 =( NAMED_UNIT ( * ) PLANE_ANGLE_UNIT ( ) SI_UNIT ( $, .RADIAN. ) );
#275 = CARTESIAN_POINT ( 'NONE',  ( 0.01348650000000000022, 1.651619905670077742E-18, -1.651619905670078319E-18 ) ) ;
#276 = EDGE_LOOP ( 'NONE', ( #36, #65, #231, #28 ) ) ;
#277 = CYLINDRICAL_SURFACE ( 'NONE', #5, 0.01348650000000000022 ) ;
#278 = DIRECTION ( 'NONE',  ( 0.0000000000000000000, 0.0000000000000000000, -1.000000000000000000 ) ) ;
#279 = MANIFOLD_SOLID_BREP ( 'Fillet1', #242 ) ;
#280 = FACE_OUTER_BOUND ( 'NONE', #7, .T. ) ;
#281 = AXIS2_PLACEMENT_3D ( 'NONE', #128, #132, #237 ) ;
#282 =( GEOMETRIC_REPRESENTATION_CONTEXT ( 3 ) GLOBAL_UNCERTAINTY_ASSIGNED_CONTEXT ( ( #221 ) ) GLOBAL_UNIT_ASSIGNED_CONTEXT ( ( #81, #193, #168 ) ) REPRESENTATION_CONTEXT ( 'NONE', 'WORKASPACE' ) );
#283 = EDGE_CURVE ( 'NONE', #319, #249, #222, .T. ) ;
#284 = FACE_OUTER_BOUND ( 'NONE', #87, .T. ) ;
#285 = ORIENTED_EDGE ( 'NONE', *, *, #139, .F. ) ;
#286 = CARTESIAN_POINT ( 'NONE',  ( 0.06250000000000002776, 7.654042494670959086E-18, 1.485000000000000764 ) ) ;
#287 = AXIS2_PLACEMENT_3D ( 'NONE', #15, #251, #124 ) ;
#288 = LENGTH_MEASURE_WITH_UNIT ( LENGTH_MEASURE( 0.02539999999999999897 ), #27 );
#289 = SURFACE_STYLE_USAGE ( .BOTH. , #88 ) ;
#290 = EDGE_LOOP ( 'NONE', ( #150, #70, #174, #92 ) ) ;
#291 = CARTESIAN_POINT ( 'NONE',  ( 0.0000000000000000000, 0.0000000000000000000, 1.500000000000000222 ) ) ;
#292 = ORIENTED_EDGE ( 'NONE', *, *, #14, .T. ) ;
#293 =( NAMED_UNIT ( * ) PLANE_ANGLE_UNIT ( ) SI_UNIT ( $, .RADIAN. ) );
#294 = DIRECTION ( 'NONE',  ( 1.224646799147353454E-16, 0.0000000000000000000, 1.000000000000000000 ) ) ;
#295 = VECTOR ( 'NONE', #226, 39.37007874015748854 ) ;
#296 = CARTESIAN_POINT ( 'NONE',  ( 9.919639073093563665E-18, 0.0000000000000000000, 0.08100000000000000255 ) ) ;
#297 = LINE ( 'NONE', #275, #198 ) ;
#298 = VERTEX_POINT ( 'NONE', #303 ) ;
#299 = EDGE_CURVE ( 'NONE', #316, #118, #309, .T. ) ;
#300 = CYLINDRICAL_SURFACE ( 'NONE', #281, 0.06250000000000002776 ) ;
#301 = FACE_OUTER_BOUND ( 'NONE', #33, .T. ) ;
#302 = ADVANCED_FACE ( 'NONE', ( #248 ), #4, .T. ) ;
#303 = CARTESIAN_POINT ( 'NONE',  ( 2.477429858505117094E-18, 0.0000000000000000000, 0.0000000000000000000 ) ) ;
#304 = DIRECTION ( 'NONE',  ( -1.224646799147353454E-16, -0.0000000000000000000, -1.000000000000000000 ) ) ;
#305 = CARTESIAN_POINT ( 'NONE',  ( 1.651619905670078319E-18, 0.0000000000000000000, 0.01348650000000000022 ) ) ;
#306 = EDGE_CURVE ( 'NONE', #316, #22, #229, .T. ) ;
#307 = EDGE_CURVE ( 'NONE', #249, #118, #55, .T. ) ;
#308 = CIRCLE ( 'NONE', #243, 0.01348650000000000022 ) ;
#309 = LINE ( 'NONE', #6, #266 ) ;
#310 = EDGE_LOOP ( 'NONE', ( #151, #107 ) ) ;
#311 = ORIENTED_EDGE ( 'NONE', *, *, #232, .F. ) ;
#312 = EDGE_CURVE ( 'NONE', #171, #172, #130, .T. ) ;
#313 = FACE_OUTER_BOUND ( 'NONE', #310, .T. ) ;
#314 = DIRECTION ( 'NONE',  ( -0.1736481776669312194, 2.126576849575783625E-17, 0.9848077530122080203 ) ) ;
#315 = CARTESIAN_POINT ( 'NONE',  ( 0.04750000000000064587, 5.817072295950006528E-18, 1.500000000000000222 ) ) ;
#316 = VERTEX_POINT ( 'NONE', #109 ) ;
#317 = DIMENSIONAL_EXPONENTS ( 1.000000000000000000, 0.0000000000000000000, 0.0000000000000000000, 0.0000000000000000000, 0.0000000000000000000, 0.0000000000000000000, 0.0000000000000000000 ) ;
#318 = CARTESIAN_POINT ( 'NONE',  ( 0.0000000000000000000, 0.0000000000000000000, 1.500000000000000222 ) ) ;
#319 = VERTEX_POINT ( 'NONE', #215 ) ;
#320 = VECTOR ( 'NONE', #20, 39.37007874015748143 ) ;
#321 = DIRECTION ( 'NONE',  ( -1.000000000000000000, 0.0000000000000000000, 1.224646799147353454E-16 ) ) ;
#322 = EDGE_CURVE ( 'NONE', #152, #118, #164, .T. ) ;
#323 = CYLINDRICAL_SURFACE ( 'NONE', #265, 0.01348650000000000022 ) ;
#324 = CARTESIAN_POINT ( 'NONE',  ( 0.0000000000000000000, 0.0000000000000000000, 1.485000000000000764 ) ) ;
#325 = AXIS2_PLACEMENT_3D ( 'NONE', #154, #203, #126 ) ;
ENDSEC;
END-ISO-10303-21;
