ISO-10303-21;
HEADER;
FILE_DESCRIPTION (( 'STEP AP214' ),
    '1' );
FILE_NAME ('01572.STEP',
    '2023-06-22T14:37:35',
    ( '' ),
    ( '' ),
    'SwSTEP 2.0',
    'SolidWorks 2023',
    '' );
FILE_SCHEMA (( 'AUTOMOTIVE_DESIGN' ));
ENDSEC;

DATA;
#1 = FACE_OUTER_BOUND ( 'NONE', #36, .T. ) ;
#2 = PRESENTATION_LAYER_ASSIGNMENT (  '', '', ( #127 ) ) ;
#3 = DIRECTION ( 'NONE',  ( 0.000000000000000000, 0.000000000000000000, -1.000000000000000000 ) ) ;
#4 =( CONVERSION_BASED_UNIT ( 'INCH', #140 ) LENGTH_UNIT ( ) NAMED_UNIT ( #207 ) );
#5 = ORIENTED_EDGE ( 'NONE', *, *, #295, .T. ) ;
#6 = EDGE_CURVE ( 'NONE', #33, #270, #177, .T. ) ;
#7 = FILL_AREA_STYLE ('',( #222 ) ) ;
#8 = VECTOR ( 'NONE', #136, 39.37007874015748143 ) ;
#9 = ORIENTED_EDGE ( 'NONE', *, *, #185, .F. ) ;
#10 = PRESENTATION_STYLE_ASSIGNMENT (( #221 ) ) ;
#11 = DIRECTION ( 'NONE',  ( -3.265724797726272713E-17, 1.000000000000000000, -0.000000000000000000 ) ) ;
#12 = DIRECTION ( 'NONE',  ( -0.000000000000000000, -1.000000000000000000, -0.000000000000000000 ) ) ;
#13 = EDGE_CURVE ( 'NONE', #74, #79, #129, .T. ) ;
#14 = ORIENTED_EDGE ( 'NONE', *, *, #209, .F. ) ;
#15 = CARTESIAN_POINT ( 'NONE',  ( 0.000000000000000000, 1.625000000000000000, 0.000000000000000000 ) ) ;
#16 = VERTEX_POINT ( 'NONE', #148 ) ;
#17 =( LENGTH_UNIT ( ) NAMED_UNIT ( * ) SI_UNIT ( $, .METRE. ) );
#18 = DIRECTION ( 'NONE',  ( 3.265724797726272713E-17, -1.000000000000000000, 0.000000000000000000 ) ) ;
#19 = FILL_AREA_STYLE ('',( #260 ) ) ;
#20 = DIRECTION ( 'NONE',  ( -1.000000000000000000, -3.265724797726272713E-17, 0.000000000000000000 ) ) ;
#21 = DIRECTION ( 'NONE',  ( 0.000000000000000000, 0.000000000000000000, -1.000000000000000000 ) ) ;
#22 = AXIS2_PLACEMENT_3D ( 'NONE', #204, #113, #20 ) ;
#23 = DIRECTION ( 'NONE',  ( -1.000000000000000000, 0.000000000000000000, 0.000000000000000000 ) ) ;
#24 = EDGE_CURVE ( 'NONE', #16, #270, #71, .T. ) ;
#25 = AXIS2_PLACEMENT_3D ( 'NONE', #293, #106, #162 ) ;
#26 = CARTESIAN_POINT ( 'NONE',  ( 7.582401355855259480E-33, 1.625000000000000000, 0.000000000000000000 ) ) ;
#27 =( GEOMETRIC_REPRESENTATION_CONTEXT ( 3 ) GLOBAL_UNCERTAINTY_ASSIGNED_CONTEXT ( ( #121 ) ) GLOBAL_UNIT_ASSIGNED_CONTEXT ( ( #149, #232, #110 ) ) REPRESENTATION_CONTEXT ( 'NONE', 'WORKASPACE' ) );
#28 = CIRCLE ( 'NONE', #132, 0.3125000000000000000 ) ;
#29 = SURFACE_SIDE_STYLE ('',( #169 ) ) ;
#30 = VERTEX_POINT ( 'NONE', #251 ) ;
#31 = SURFACE_STYLE_FILL_AREA ( #146 ) ;
#32 = CARTESIAN_POINT ( 'NONE',  ( -0.3125000000000000555, 3.500000000000000000, 0.000000000000000000 ) ) ;
#33 = VERTEX_POINT ( 'NONE', #206 ) ;
#34 = SURFACE_SIDE_STYLE ('',( #144 ) ) ;
#35 = CIRCLE ( 'NONE', #195, 0.3125000000000000000 ) ;
#36 = EDGE_LOOP ( 'NONE', ( #231, #198 ) ) ;
#37 = LINE ( 'NONE', #181, #96 ) ;
#38 = AXIS2_PLACEMENT_3D ( 'NONE', #61, #130, #258 ) ;
#39 =( CONVERSION_BASED_UNIT ( 'INCH', #183 ) LENGTH_UNIT ( ) NAMED_UNIT ( #60 ) );
#40 = CARTESIAN_POINT ( 'NONE',  ( 0.3125000000000000000, 3.500000000000000000, 3.827021247335478926E-17 ) ) ;
#41 = PRESENTATION_STYLE_ASSIGNMENT (( #303 ) ) ;
#42 = AXIS2_PLACEMENT_3D ( 'NONE', #53, #123, #193 ) ;
#43 =( NAMED_UNIT ( * ) PLANE_ANGLE_UNIT ( ) SI_UNIT ( $, .RADIAN. ) );
#44 = APPLICATION_PROTOCOL_DEFINITION ( 'draft international standard', 'automotive_design', 1998, #114 ) ;
#45 = AXIS2_PLACEMENT_3D ( 'NONE', #179, #18, #54 ) ;
#46 = MECHANICAL_DESIGN_GEOMETRIC_PRESENTATION_REPRESENTATION (  '', ( #116 ), #227 ) ;
#47 =( NAMED_UNIT ( * ) SI_UNIT ( $, .STERADIAN. ) SOLID_ANGLE_UNIT ( ) );
#48 = CARTESIAN_POINT ( 'NONE',  ( -6.123233995736759873E-17, 3.500000000000000000, 0.000000000000000000 ) ) ;
#49 = ADVANCED_FACE ( 'NONE', ( #109 ), #117, .T. ) ;
#50 = CARTESIAN_POINT ( 'NONE',  ( 0.3124999999999999445, 3.500000000000000000, 3.827021247335478926E-17 ) ) ;
#51 = CYLINDRICAL_SURFACE ( 'NONE', #291, 0.3125000000000000000 ) ;
#52 = ORIENTED_EDGE ( 'NONE', *, *, #13, .F. ) ;
#53 = CARTESIAN_POINT ( 'NONE',  ( 0.000000000000000000, 0.000000000000000000, 0.000000000000000000 ) ) ;
#54 = DIRECTION ( 'NONE',  ( 1.000000000000000000, 3.265724797726272713E-17, 0.000000000000000000 ) ) ;
#55 = ORIENTED_EDGE ( 'NONE', *, *, #24, .F. ) ;
#56 = MECHANICAL_DESIGN_GEOMETRIC_PRESENTATION_REPRESENTATION (  '', ( #233 ), #153 ) ;
#57 = SURFACE_STYLE_USAGE ( .BOTH. , #134 ) ;
#58 = MECHANICAL_DESIGN_GEOMETRIC_PRESENTATION_REPRESENTATION (  '', ( #273 ), #238 ) ;
#59 =( LENGTH_UNIT ( ) NAMED_UNIT ( * ) SI_UNIT ( $, .METRE. ) );
#60 = DIMENSIONAL_EXPONENTS ( 1.000000000000000000, 0.000000000000000000, 0.000000000000000000, 0.000000000000000000, 0.000000000000000000, 0.000000000000000000, 0.000000000000000000 ) ;
#61 = CARTESIAN_POINT ( 'NONE',  ( 0.000000000000000000, 0.000000000000000000, 0.000000000000000000 ) ) ;
#62 = SURFACE_STYLE_FILL_AREA ( #184 ) ;
#63 = EDGE_CURVE ( 'NONE', #287, #33, #28, .T. ) ;
#64 = SHAPE_DEFINITION_REPRESENTATION ( #224, #220 ) ;
#65 = APPLICATION_CONTEXT ( 'automotive_design' ) ;
#66 = UNCERTAINTY_MEASURE_WITH_UNIT (LENGTH_MEASURE( 1.000000000000000082E-05 ), #39, 'distance_accuracy_value', 'NONE');
#67 = DIRECTION ( 'NONE',  ( 0.000000000000000000, 1.000000000000000000, 0.000000000000000000 ) ) ;
#68 = CYLINDRICAL_SURFACE ( 'NONE', #226, 0.3125000000000000000 ) ;
#69 = FILL_AREA_STYLE_COLOUR ( '', #76 ) ;
#70 = EDGE_LOOP ( 'NONE', ( #151, #5, #223, #199 ) ) ;
#71 = CIRCLE ( 'NONE', #309, 0.3125000000000000555 ) ;
#72 = LINE ( 'NONE', #306, #8 ) ;
#73 =( CONVERSION_BASED_UNIT ( 'INCH', #216 ) LENGTH_UNIT ( ) NAMED_UNIT ( #257 ) );
#74 = VERTEX_POINT ( 'NONE', #160 ) ;
#75 = ORIENTED_EDGE ( 'NONE', *, *, #253, .T. ) ;
#76 = COLOUR_RGB ( '',0.7921568627450980005, 0.8196078431372548767, 0.9333333333333333481 ) ;
#77 = DIRECTION ( 'NONE',  ( -3.265724797726272713E-17, 1.000000000000000000, -0.000000000000000000 ) ) ;
#78 = FILL_AREA_STYLE_COLOUR ( '', #147 ) ;
#79 = VERTEX_POINT ( 'NONE', #255 ) ;
#80 = DIRECTION ( 'NONE',  ( -1.000000000000000000, 0.000000000000000000, 0.000000000000000000 ) ) ;
#81 = SURFACE_STYLE_USAGE ( .BOTH. , #294 ) ;
#82 = DIRECTION ( 'NONE',  ( -1.000000000000000000, 0.000000000000000000, 0.000000000000000000 ) ) ;
#83 =( GEOMETRIC_REPRESENTATION_CONTEXT ( 3 ) GLOBAL_UNCERTAINTY_ASSIGNED_CONTEXT ( ( #245 ) ) GLOBAL_UNIT_ASSIGNED_CONTEXT ( ( #267, #288, #157 ) ) REPRESENTATION_CONTEXT ( 'NONE', 'WORKASPACE' ) );
#84 = CIRCLE ( 'NONE', #279, 0.3125000000000000000 ) ;
#85 = ADVANCED_FACE ( 'NONE', ( #1 ), #240, .T. ) ;
#86 =( LENGTH_UNIT ( ) NAMED_UNIT ( * ) SI_UNIT ( $, .METRE. ) );
#87 = CARTESIAN_POINT ( 'NONE',  ( 0.000000000000000000, 0.000000000000000000, 0.000000000000000000 ) ) ;
#88 = FILL_AREA_STYLE_COLOUR ( '', #161 ) ;
#89 = CLOSED_SHELL ( 'NONE', ( #187, #85, #49, #214 ) ) ;
#90 = PRODUCT_CONTEXT ( 'NONE', #65, 'mechanical' ) ;
#91 = STYLED_ITEM ( 'NONE', ( #122 ), #167 ) ;
#92 = CARTESIAN_POINT ( 'NONE',  ( 0.000000000000000000, 0.000000000000000000, 0.000000000000000000 ) ) ;
#93 = CARTESIAN_POINT ( 'NONE',  ( -6.123233995736759873E-17, 3.500000000000000000, 0.000000000000000000 ) ) ;
#94 = EDGE_CURVE ( 'NONE', #30, #79, #37, .T. ) ;
#95 = SURFACE_STYLE_USAGE ( .BOTH. , #34 ) ;
#96 = VECTOR ( 'NONE', #234, 39.37007874015748143 ) ;
#97 = EDGE_LOOP ( 'NONE', ( #145, #252 ) ) ;
#98 =( NAMED_UNIT ( * ) PLANE_ANGLE_UNIT ( ) SI_UNIT ( $, .RADIAN. ) );
#99 = LENGTH_MEASURE_WITH_UNIT ( LENGTH_MEASURE( 0.02539999999999999897 ), #197 );
#100 = VERTEX_POINT ( 'NONE', #168 ) ;
#101 = EDGE_CURVE ( 'NONE', #287, #16, #283, .T. ) ;
#102 = ORIENTED_EDGE ( 'NONE', *, *, #307, .F. ) ;
#103 = PLANE ( 'NONE',  #22 ) ;
#104 = DIRECTION ( 'NONE',  ( 0.000000000000000000, -0.000000000000000000, 1.000000000000000000 ) ) ;
#105 = DIMENSIONAL_EXPONENTS ( 1.000000000000000000, 0.000000000000000000, 0.000000000000000000, 0.000000000000000000, 0.000000000000000000, 0.000000000000000000, 0.000000000000000000 ) ;
#106 = DIRECTION ( 'NONE',  ( 0.000000000000000000, -1.000000000000000000, -0.000000000000000000 ) ) ;
#107 = DIRECTION ( 'NONE',  ( -3.265724797726272713E-17, 1.000000000000000000, -0.000000000000000000 ) ) ;
#108 =( CONVERSION_BASED_UNIT ( 'INCH', #154 ) LENGTH_UNIT ( ) NAMED_UNIT ( #278 ) );
#109 = FACE_OUTER_BOUND ( 'NONE', #70, .T. ) ;
#110 =( NAMED_UNIT ( * ) SI_UNIT ( $, .STERADIAN. ) SOLID_ANGLE_UNIT ( ) );
#111 = PRESENTATION_LAYER_ASSIGNMENT (  '', '', ( #116 ) ) ;
#112 = FILL_AREA_STYLE_COLOUR ( '', #298 ) ;
#113 = DIRECTION ( 'NONE',  ( -3.265724797726272713E-17, 1.000000000000000000, 0.000000000000000000 ) ) ;
#114 = APPLICATION_CONTEXT ( 'automotive_design' ) ;
#115 = CIRCLE ( 'NONE', #285, 0.3125000000000000000 ) ;
#116 = STYLED_ITEM ( 'NONE', ( #271 ), #49 ) ;
#117 = CYLINDRICAL_SURFACE ( 'NONE', #38, 0.3125000000000000000 ) ;
#118 = EDGE_CURVE ( 'NONE', #79, #74, #178, .T. ) ;
#119 =( LENGTH_UNIT ( ) NAMED_UNIT ( * ) SI_UNIT ( $, .METRE. ) );
#120 = CARTESIAN_POINT ( 'NONE',  ( 0.000000000000000000, 0.000000000000000000, 0.000000000000000000 ) ) ;
#121 = UNCERTAINTY_MEASURE_WITH_UNIT (LENGTH_MEASURE( 1.000000000000000082E-05 ), #149, 'distance_accuracy_value', 'NONE');
#122 = PRESENTATION_STYLE_ASSIGNMENT (( #219 ) ) ;
#123 = DIRECTION ( 'NONE',  ( -0.000000000000000000, -1.000000000000000000, -0.000000000000000000 ) ) ;
#124 = FACE_OUTER_BOUND ( 'NONE', #142, .T. ) ;
#125 = UNCERTAINTY_MEASURE_WITH_UNIT (LENGTH_MEASURE( 1.000000000000000082E-05 ), #73, 'distance_accuracy_value', 'NONE');
#126 = ORIENTED_EDGE ( 'NONE', *, *, #63, .T. ) ;
#127 = STYLED_ITEM ( 'NONE', ( #166 ), #187 ) ;
#128 = FILL_AREA_STYLE ('',( #112 ) ) ;
#129 = CIRCLE ( 'NONE', #42, 0.3125000000000000000 ) ;
#130 = DIRECTION ( 'NONE',  ( -0.000000000000000000, -1.000000000000000000, -0.000000000000000000 ) ) ;
#131 = DIMENSIONAL_EXPONENTS ( 1.000000000000000000, 0.000000000000000000, 0.000000000000000000, 0.000000000000000000, 0.000000000000000000, 0.000000000000000000, 0.000000000000000000 ) ;
#132 = AXIS2_PLACEMENT_3D ( 'NONE', #215, #276, #23 ) ;
#133 = CLOSED_SHELL ( 'NONE', ( #191, #242, #246, #280 ) ) ;
#134 = SURFACE_SIDE_STYLE ('',( #210 ) ) ;
#135 = PRODUCT_DEFINITION ( 'UNKNOWN', '', #218, #138 ) ;
#136 = DIRECTION ( 'NONE',  ( -0.000000000000000000, -1.000000000000000000, -0.000000000000000000 ) ) ;
#137 = UNCERTAINTY_MEASURE_WITH_UNIT (LENGTH_MEASURE( 1.000000000000000082E-05 ), #4, 'distance_accuracy_value', 'NONE');
#138 = PRODUCT_DEFINITION_CONTEXT ( 'detailed design', #114, 'design' ) ;
#139 = AXIS2_PLACEMENT_3D ( 'NONE', #202, #107, #82 ) ;
#140 = LENGTH_MEASURE_WITH_UNIT ( LENGTH_MEASURE( 0.02539999999999999897 ), #171 );
#141 =( NAMED_UNIT ( * ) SI_UNIT ( $, .STERADIAN. ) SOLID_ANGLE_UNIT ( ) );
#142 = EDGE_LOOP ( 'NONE', ( #75, #286, #52, #14 ) ) ;
#143 = SURFACE_SIDE_STYLE ('',( #31 ) ) ;
#144 = SURFACE_STYLE_FILL_AREA ( #7 ) ;
#145 = ORIENTED_EDGE ( 'NONE', *, *, #24, .T. ) ;
#146 = FILL_AREA_STYLE ('',( #78 ) ) ;
#147 = COLOUR_RGB ( '',1.000000000000000000, 0.000000000000000000, 0.000000000000000000 ) ;
#148 = CARTESIAN_POINT ( 'NONE',  ( -0.3125000000000001665, 3.500000000000000000, 0.000000000000000000 ) ) ;
#149 =( CONVERSION_BASED_UNIT ( 'INCH', #99 ) LENGTH_UNIT ( ) NAMED_UNIT ( #275 ) );
#150 = ORIENTED_EDGE ( 'NONE', *, *, #63, .F. ) ;
#151 = ORIENTED_EDGE ( 'NONE', *, *, #94, .F. ) ;
#152 = CARTESIAN_POINT ( 'NONE',  ( -0.3125000000000000000, 1.625000000000000000, 0.000000000000000000 ) ) ;
#153 =( GEOMETRIC_REPRESENTATION_CONTEXT ( 3 ) GLOBAL_UNCERTAINTY_ASSIGNED_CONTEXT ( ( #66 ) ) GLOBAL_UNIT_ASSIGNED_CONTEXT ( ( #39, #304, #236 ) ) REPRESENTATION_CONTEXT ( 'NONE', 'WORKASPACE' ) );
#154 = LENGTH_MEASURE_WITH_UNIT ( LENGTH_MEASURE( 0.02539999999999999897 ), #17 );
#155 = FACE_OUTER_BOUND ( 'NONE', #230, .T. ) ;
#156 = LENGTH_MEASURE_WITH_UNIT ( LENGTH_MEASURE( 0.02539999999999999897 ), #272 );
#157 =( NAMED_UNIT ( * ) SI_UNIT ( $, .STERADIAN. ) SOLID_ANGLE_UNIT ( ) );
#158 = SURFACE_STYLE_FILL_AREA ( #128 ) ;
#159 = PRESENTATION_STYLE_ASSIGNMENT (( #81 ) ) ;
#160 = CARTESIAN_POINT ( 'NONE',  ( 0.000000000000000000, 0.000000000000000000, -0.3125000000000000000 ) ) ;
#161 = COLOUR_RGB ( '',0.7921568627450980005, 0.8196078431372548767, 0.9333333333333333481 ) ;
#162 = DIRECTION ( 'NONE',  ( 0.000000000000000000, 0.000000000000000000, -1.000000000000000000 ) ) ;
#163 = UNCERTAINTY_MEASURE_WITH_UNIT (LENGTH_MEASURE( 1.000000000000000082E-05 ), #108, 'distance_accuracy_value', 'NONE');
#164 = DIRECTION ( 'NONE',  ( 1.000000000000000000, 0.000000000000000000, 0.000000000000000000 ) ) ;
#165 = MECHANICAL_DESIGN_GEOMETRIC_PRESENTATION_REPRESENTATION (  '', ( #281 ), #27 ) ;
#166 = PRESENTATION_STYLE_ASSIGNMENT (( #95 ) ) ;
#167 = MANIFOLD_SOLID_BREP ( 'Revolve - Tool Body (Straight Shanked)', #133 ) ;
#168 = CARTESIAN_POINT ( 'NONE',  ( 0.000000000000000000, 1.625000000000000000, -0.3125000000000000000 ) ) ;
#169 = SURFACE_STYLE_FILL_AREA ( #265 ) ;
#170 = AXIS2_PLACEMENT_3D ( 'NONE', #120, #247, #3 ) ;
#171 =( LENGTH_UNIT ( ) NAMED_UNIT ( * ) SI_UNIT ( $, .METRE. ) );
#172 = DIRECTION ( 'NONE',  ( -3.265724797726272713E-17, 1.000000000000000000, -0.000000000000000000 ) ) ;
#173 = PLANE ( 'NONE',  #25 ) ;
#174 = EDGE_LOOP ( 'NONE', ( #290, #269 ) ) ;
#175 = DIRECTION ( 'NONE',  ( -3.265724797726272713E-17, 1.000000000000000000, -0.000000000000000000 ) ) ;
#176 = FACE_OUTER_BOUND ( 'NONE', #97, .T. ) ;
#177 = LINE ( 'NONE', #50, #302 ) ;
#178 = CIRCLE ( 'NONE', #170, 0.3125000000000000000 ) ;
#179 = CARTESIAN_POINT ( 'NONE',  ( 0.3125000000000000000, 3.500000000000000000, 0.000000000000000000 ) ) ;
#180 = DIRECTION ( 'NONE',  ( -0.000000000000000000, -1.000000000000000000, -0.000000000000000000 ) ) ;
#181 = CARTESIAN_POINT ( 'NONE',  ( 3.827021247335478926E-17, 0.000000000000000000, 0.3125000000000000000 ) ) ;
#182 = CARTESIAN_POINT ( 'NONE',  ( 0.000000000000000000, 1.625000000000000000, 0.000000000000000000 ) ) ;
#183 = LENGTH_MEASURE_WITH_UNIT ( LENGTH_MEASURE( 0.02539999999999999897 ), #86 );
#184 = FILL_AREA_STYLE ('',( #88 ) ) ;
#185 = EDGE_CURVE ( 'NONE', #33, #287, #115, .T. ) ;
#186 =( GEOMETRIC_REPRESENTATION_CONTEXT ( 3 ) GLOBAL_UNCERTAINTY_ASSIGNED_CONTEXT ( ( #137 ) ) GLOBAL_UNIT_ASSIGNED_CONTEXT ( ( #4, #190, #141 ) ) REPRESENTATION_CONTEXT ( 'NONE', 'WORKASPACE' ) );
#187 = ADVANCED_FACE ( 'NONE', ( #124 ), #51, .T. ) ;
#188 = PRESENTATION_LAYER_ASSIGNMENT (  '', '', ( #273 ) ) ;
#189 = DIRECTION ( 'NONE',  ( 0.000000000000000000, 0.000000000000000000, -1.000000000000000000 ) ) ;
#190 =( NAMED_UNIT ( * ) PLANE_ANGLE_UNIT ( ) SI_UNIT ( $, .RADIAN. ) );
#191 = ADVANCED_FACE ( 'NONE', ( #282 ), #68, .T. ) ;
#192 = DIRECTION ( 'NONE',  ( -3.265724797726272713E-17, 1.000000000000000000, -0.000000000000000000 ) ) ;
#193 = DIRECTION ( 'NONE',  ( 0.000000000000000000, 0.000000000000000000, -1.000000000000000000 ) ) ;
#194 = PRESENTATION_LAYER_ASSIGNMENT (  '', '', ( #233 ) ) ;
#195 = AXIS2_PLACEMENT_3D ( 'NONE', #205, #180, #21 ) ;
#196 = EDGE_LOOP ( 'NONE', ( #228, #266, #292, #102 ) ) ;
#197 =( LENGTH_UNIT ( ) NAMED_UNIT ( * ) SI_UNIT ( $, .METRE. ) );
#198 = ORIENTED_EDGE ( 'NONE', *, *, #295, .F. ) ;
#199 = ORIENTED_EDGE ( 'NONE', *, *, #118, .F. ) ;
#200 = FACE_OUTER_BOUND ( 'NONE', #174, .T. ) ;
#201 = AXIS2_PLACEMENT_3D ( 'NONE', #211, #305, #80 ) ;
#202 = CARTESIAN_POINT ( 'NONE',  ( -6.123233995736759873E-17, 3.500000000000000000, 0.000000000000000000 ) ) ;
#203 = EDGE_LOOP ( 'NONE', ( #126, #289, #55, #249 ) ) ;
#204 = CARTESIAN_POINT ( 'NONE',  ( 1.666399758513172697E-34, 1.625000000000000000, 0.000000000000000000 ) ) ;
#205 = CARTESIAN_POINT ( 'NONE',  ( 0.000000000000000000, 1.625000000000000000, 0.000000000000000000 ) ) ;
#206 = CARTESIAN_POINT ( 'NONE',  ( 0.3125000000000000000, 1.625000000000000000, 3.827021247335478926E-17 ) ) ;
#207 = DIMENSIONAL_EXPONENTS ( 1.000000000000000000, 0.000000000000000000, 0.000000000000000000, 0.000000000000000000, 0.000000000000000000, 0.000000000000000000, 0.000000000000000000 ) ;
#208 =( NAMED_UNIT ( * ) PLANE_ANGLE_UNIT ( ) SI_UNIT ( $, .RADIAN. ) );
#209 = EDGE_CURVE ( 'NONE', #100, #74, #72, .T. ) ;
#210 = SURFACE_STYLE_FILL_AREA ( #19 ) ;
#211 = CARTESIAN_POINT ( 'NONE',  ( -6.123233995736759873E-17, 3.500000000000000000, 0.000000000000000000 ) ) ;
#212 = APPLICATION_PROTOCOL_DEFINITION ( 'draft international standard', 'automotive_design', 1998, #65 ) ;
#213 = COLOUR_RGB ( '',1.000000000000000000, 0.000000000000000000, 0.000000000000000000 ) ;
#214 = ADVANCED_FACE ( 'NONE', ( #200 ), #173, .T. ) ;
#215 = CARTESIAN_POINT ( 'NONE',  ( 7.582401355855259480E-33, 1.625000000000000000, 0.000000000000000000 ) ) ;
#216 = LENGTH_MEASURE_WITH_UNIT ( LENGTH_MEASURE( 0.02539999999999999897 ), #119 );
#217 =( GEOMETRIC_REPRESENTATION_CONTEXT ( 3 ) GLOBAL_UNCERTAINTY_ASSIGNED_CONTEXT ( ( #125 ) ) GLOBAL_UNIT_ASSIGNED_CONTEXT ( ( #73, #98, #47 ) ) REPRESENTATION_CONTEXT ( 'NONE', 'WORKASPACE' ) );
#218 = PRODUCT_DEFINITION_FORMATION_WITH_SPECIFIED_SOURCE ( 'ANY', '', #264, .NOT_KNOWN. ) ;
#219 = SURFACE_STYLE_USAGE ( .BOTH. , #29 ) ;
#220 = ADVANCED_BREP_SHAPE_REPRESENTATION ( '01572', ( #274, #167, #300 ), #83 ) ;
#221 = SURFACE_STYLE_USAGE ( .BOTH. , #143 ) ;
#222 = FILL_AREA_STYLE_COLOUR ( '', #213 ) ;
#223 = ORIENTED_EDGE ( 'NONE', *, *, #209, .T. ) ;
#224 = PRODUCT_DEFINITION_SHAPE ( 'NONE', 'NONE',  #135 ) ;
#225 = CIRCLE ( 'NONE', #139, 0.3125000000000000555 ) ;
#226 = AXIS2_PLACEMENT_3D ( 'NONE', #48, #175, #301 ) ;
#227 =( GEOMETRIC_REPRESENTATION_CONTEXT ( 3 ) GLOBAL_UNCERTAINTY_ASSIGNED_CONTEXT ( ( #163 ) ) GLOBAL_UNIT_ASSIGNED_CONTEXT ( ( #108, #208, #296 ) ) REPRESENTATION_CONTEXT ( 'NONE', 'WORKASPACE' ) );
#228 = ORIENTED_EDGE ( 'NONE', *, *, #6, .F. ) ;
#229 = DIRECTION ( 'NONE',  ( 0.000000000000000000, 0.000000000000000000, -1.000000000000000000 ) ) ;
#230 = EDGE_LOOP ( 'NONE', ( #150, #9 ) ) ;
#231 = ORIENTED_EDGE ( 'NONE', *, *, #253, .F. ) ;
#232 =( NAMED_UNIT ( * ) PLANE_ANGLE_UNIT ( ) SI_UNIT ( $, .RADIAN. ) );
#233 = STYLED_ITEM ( 'NONE', ( #41 ), #85 ) ;
#234 = DIRECTION ( 'NONE',  ( -0.000000000000000000, -1.000000000000000000, -0.000000000000000000 ) ) ;
#235 = PLANE ( 'NONE',  #45 ) ;
#236 =( NAMED_UNIT ( * ) SI_UNIT ( $, .STERADIAN. ) SOLID_ANGLE_UNIT ( ) );
#237 = SURFACE_SIDE_STYLE ('',( #158 ) ) ;
#238 =( GEOMETRIC_REPRESENTATION_CONTEXT ( 3 ) GLOBAL_UNCERTAINTY_ASSIGNED_CONTEXT ( ( #261 ) ) GLOBAL_UNIT_ASSIGNED_CONTEXT ( ( #256, #43, #284 ) ) REPRESENTATION_CONTEXT ( 'NONE', 'WORKASPACE' ) );
#239 = FACE_OUTER_BOUND ( 'NONE', #196, .T. ) ;
#240 = PLANE ( 'NONE',  #250 ) ;
#241 = PRODUCT_RELATED_PRODUCT_CATEGORY ( 'part', '', ( #264 ) ) ;
#242 = ADVANCED_FACE ( 'NONE', ( #155 ), #103, .F. ) ;
#243 = DIRECTION ( 'NONE',  ( -0.000000000000000000, -1.000000000000000000, -0.000000000000000000 ) ) ;
#244 = DIRECTION ( 'NONE',  ( -1.000000000000000000, 0.000000000000000000, 0.000000000000000000 ) ) ;
#245 = UNCERTAINTY_MEASURE_WITH_UNIT (LENGTH_MEASURE( 1.000000000000000082E-05 ), #267, 'distance_accuracy_value', 'NONE');
#246 = ADVANCED_FACE ( 'NONE', ( #239 ), #297, .T. ) ;
#247 = DIRECTION ( 'NONE',  ( -0.000000000000000000, -1.000000000000000000, -0.000000000000000000 ) ) ;
#248 = LENGTH_MEASURE_WITH_UNIT ( LENGTH_MEASURE( 0.02539999999999999897 ), #59 );
#249 = ORIENTED_EDGE ( 'NONE', *, *, #101, .F. ) ;
#250 = AXIS2_PLACEMENT_3D ( 'NONE', #182, #67, #104 ) ;
#251 = CARTESIAN_POINT ( 'NONE',  ( 3.827021247335478926E-17, 1.625000000000000000, 0.3125000000000000000 ) ) ;
#252 = ORIENTED_EDGE ( 'NONE', *, *, #307, .T. ) ;
#253 = EDGE_CURVE ( 'NONE', #100, #30, #35, .T. ) ;
#254 = COLOUR_RGB ( '',1.000000000000000000, 0.000000000000000000, 0.000000000000000000 ) ;
#255 = CARTESIAN_POINT ( 'NONE',  ( 3.827021247335478926E-17, 0.000000000000000000, 0.3125000000000000000 ) ) ;
#256 =( CONVERSION_BASED_UNIT ( 'INCH', #156 ) LENGTH_UNIT ( ) NAMED_UNIT ( #131 ) );
#257 = DIMENSIONAL_EXPONENTS ( 1.000000000000000000, 0.000000000000000000, 0.000000000000000000, 0.000000000000000000, 0.000000000000000000, 0.000000000000000000, 0.000000000000000000 ) ;
#258 = DIRECTION ( 'NONE',  ( 0.000000000000000000, 0.000000000000000000, -1.000000000000000000 ) ) ;
#259 = PRESENTATION_LAYER_ASSIGNMENT (  '', '', ( #91 ) ) ;
#260 = FILL_AREA_STYLE_COLOUR ( '', #254 ) ;
#261 = UNCERTAINTY_MEASURE_WITH_UNIT (LENGTH_MEASURE( 1.000000000000000082E-05 ), #256, 'distance_accuracy_value', 'NONE');
#262 = MECHANICAL_DESIGN_GEOMETRIC_PRESENTATION_REPRESENTATION (  '', ( #91 ), #186 ) ;
#263 = DIRECTION ( 'NONE',  ( -1.000000000000000000, 0.000000000000000000, 0.000000000000000000 ) ) ;
#264 = PRODUCT ( '01572', '01572', '', ( #90 ) ) ;
#265 = FILL_AREA_STYLE ('',( #69 ) ) ;
#266 = ORIENTED_EDGE ( 'NONE', *, *, #185, .T. ) ;
#267 =( CONVERSION_BASED_UNIT ( 'INCH', #248 ) LENGTH_UNIT ( ) NAMED_UNIT ( #105 ) );
#268 = MECHANICAL_DESIGN_GEOMETRIC_PRESENTATION_REPRESENTATION (  '', ( #127 ), #217 ) ;
#269 = ORIENTED_EDGE ( 'NONE', *, *, #118, .T. ) ;
#270 = VERTEX_POINT ( 'NONE', #40 ) ;
#271 = PRESENTATION_STYLE_ASSIGNMENT (( #57 ) ) ;
#272 =( LENGTH_UNIT ( ) NAMED_UNIT ( * ) SI_UNIT ( $, .METRE. ) );
#273 = STYLED_ITEM ( 'NONE', ( #159 ), #274 ) ;
#274 = MANIFOLD_SOLID_BREP ( 'Revolve - Cutting Edge', #89 ) ;
#275 = DIMENSIONAL_EXPONENTS ( 1.000000000000000000, 0.000000000000000000, 0.000000000000000000, 0.000000000000000000, 0.000000000000000000, 0.000000000000000000, 0.000000000000000000 ) ;
#276 = DIRECTION ( 'NONE',  ( -3.265724797726272713E-17, 1.000000000000000000, -0.000000000000000000 ) ) ;
#277 = DIRECTION ( 'NONE',  ( 0.000000000000000000, 0.000000000000000000, 1.000000000000000000 ) ) ;
#278 = DIMENSIONAL_EXPONENTS ( 1.000000000000000000, 0.000000000000000000, 0.000000000000000000, 0.000000000000000000, 0.000000000000000000, 0.000000000000000000, 0.000000000000000000 ) ;
#279 = AXIS2_PLACEMENT_3D ( 'NONE', #15, #12, #229 ) ;
#280 = ADVANCED_FACE ( 'NONE', ( #176 ), #235, .F. ) ;
#281 = STYLED_ITEM ( 'NONE', ( #10 ), #214 ) ;
#282 = FACE_OUTER_BOUND ( 'NONE', #203, .T. ) ;
#283 = LINE ( 'NONE', #32, #308 ) ;
#284 =( NAMED_UNIT ( * ) SI_UNIT ( $, .STERADIAN. ) SOLID_ANGLE_UNIT ( ) );
#285 = AXIS2_PLACEMENT_3D ( 'NONE', #26, #11, #244 ) ;
#286 = ORIENTED_EDGE ( 'NONE', *, *, #94, .T. ) ;
#287 = VERTEX_POINT ( 'NONE', #152 ) ;
#288 =( NAMED_UNIT ( * ) PLANE_ANGLE_UNIT ( ) SI_UNIT ( $, .RADIAN. ) );
#289 = ORIENTED_EDGE ( 'NONE', *, *, #6, .T. ) ;
#290 = ORIENTED_EDGE ( 'NONE', *, *, #13, .T. ) ;
#291 = AXIS2_PLACEMENT_3D ( 'NONE', #92, #243, #189 ) ;
#292 = ORIENTED_EDGE ( 'NONE', *, *, #101, .T. ) ;
#293 = CARTESIAN_POINT ( 'NONE',  ( 0.000000000000000000, 0.000000000000000000, 0.000000000000000000 ) ) ;
#294 = SURFACE_SIDE_STYLE ('',( #62 ) ) ;
#295 = EDGE_CURVE ( 'NONE', #30, #100, #84, .T. ) ;
#296 =( NAMED_UNIT ( * ) SI_UNIT ( $, .STERADIAN. ) SOLID_ANGLE_UNIT ( ) );
#297 = CYLINDRICAL_SURFACE ( 'NONE', #201, 0.3125000000000000000 ) ;
#298 = COLOUR_RGB ( '',1.000000000000000000, 0.000000000000000000, 0.000000000000000000 ) ;
#299 = PRESENTATION_LAYER_ASSIGNMENT (  '', '', ( #281 ) ) ;
#300 = AXIS2_PLACEMENT_3D ( 'NONE', #87, #277, #164 ) ;
#301 = DIRECTION ( 'NONE',  ( -1.000000000000000000, 0.000000000000000000, 0.000000000000000000 ) ) ;
#302 = VECTOR ( 'NONE', #77, 39.37007874015748143 ) ;
#303 = SURFACE_STYLE_USAGE ( .BOTH. , #237 ) ;
#304 =( NAMED_UNIT ( * ) PLANE_ANGLE_UNIT ( ) SI_UNIT ( $, .RADIAN. ) );
#305 = DIRECTION ( 'NONE',  ( -3.265724797726272713E-17, 1.000000000000000000, -0.000000000000000000 ) ) ;
#306 = CARTESIAN_POINT ( 'NONE',  ( 0.000000000000000000, 0.000000000000000000, -0.3125000000000000000 ) ) ;
#307 = EDGE_CURVE ( 'NONE', #270, #16, #225, .T. ) ;
#308 = VECTOR ( 'NONE', #192, 39.37007874015748143 ) ;
#309 = AXIS2_PLACEMENT_3D ( 'NONE', #93, #172, #263 ) ;
ENDSEC;
END-ISO-10303-21;
