ISO-10303-21;
HEADER;
FILE_DESCRIPTION (( 'STEP AP214' ),
    '1' );
FILE_NAME ('Micro_AEMM-010-4.STEP',
    '2022-03-15T14:22:32',
    ( '' ),
    ( '' ),
    'SwSTEP 2.0',
    'SolidWorks 2022',
    '' );
FILE_SCHEMA (( 'AUTOMOTIVE_DESIGN' ));
ENDSEC;

DATA;
#1 = CYLINDRICAL_SURFACE ( 'NONE', #142, 0.01966531500000000959 ) ;
#2 = AXIS2_PLACEMENT_3D ( 'NONE', #245, #97, #179 ) ;
#3 = ORIENTED_EDGE ( 'NONE', *, *, #19, .F. ) ;
#4 = FILL_AREA_STYLE ('',( #278 ) ) ;
#5 = EDGE_CURVE ( 'NONE', #275, #182, #154, .T. ) ;
#6 = CARTESIAN_POINT ( 'NONE',  ( 0.000000000000000000, 0.000000000000000000, 1.968503999999999809 ) ) ;
#7 = DIRECTION ( 'NONE',  ( 0.000000000000000000, 0.000000000000000000, -1.000000000000000000 ) ) ;
#8 =( NAMED_UNIT ( * ) PLANE_ANGLE_UNIT ( ) SI_UNIT ( $, .RADIAN. ) );
#9 = AXIS2_PLACEMENT_3D ( 'NONE', #223, #54, #79 ) ;
#10 = SURFACE_SIDE_STYLE ('',( #232 ) ) ;
#11 = DIRECTION ( 'NONE',  ( 0.000000000000000000, 0.000000000000000000, 1.000000000000000000 ) ) ;
#12 =( NAMED_UNIT ( * ) PLANE_ANGLE_UNIT ( ) SI_UNIT ( $, .RADIAN. ) );
#13 = DIRECTION ( 'NONE',  ( -1.000000000000000000, 0.000000000000000000, 0.000000000000000000 ) ) ;
#14 = EDGE_CURVE ( 'NONE', #102, #276, #180, .T. ) ;
#15 = DIRECTION ( 'NONE',  ( 1.000000000000000000, 0.000000000000000000, -0.000000000000000000 ) ) ;
#16 = ORIENTED_EDGE ( 'NONE', *, *, #66, .F. ) ;
#17 = DIRECTION ( 'NONE',  ( 1.000000000000000000, 0.000000000000000000, 0.000000000000000000 ) ) ;
#18 = CARTESIAN_POINT ( 'NONE',  ( -0.01966531499999999225, 6.025587701691850612E-18, 0.1574800000000000366 ) ) ;
#19 = EDGE_CURVE ( 'NONE', #70, #48, #130, .T. ) ;
#20 = ORIENTED_EDGE ( 'NONE', *, *, #31, .T. ) ;
#21 = ADVANCED_FACE ( 'NONE', ( #294 ), #286, .T. ) ;
#22 = PRODUCT_DEFINITION_FORMATION_WITH_SPECIFIED_SOURCE ( 'ANY', '', #160, .NOT_KNOWN. ) ;
#23 = EDGE_LOOP ( 'NONE', ( #297, #240, #150, #196 ) ) ;
#24 = ORIENTED_EDGE ( 'NONE', *, *, #103, .F. ) ;
#25 = CARTESIAN_POINT ( 'NONE',  ( 0.000000000000000000, 0.000000000000000000, 0.000000000000000000 ) ) ;
#26 = CARTESIAN_POINT ( 'NONE',  ( -0.01966531500000000959, 0.000000000000000000, 2.408306506897444257E-18 ) ) ;
#27 = AXIS2_PLACEMENT_3D ( 'NONE', #295, #53, #123 ) ;
#28 = VECTOR ( 'NONE', #46, 39.37007874015748143 ) ;
#29 = ADVANCED_FACE ( 'NONE', ( #109 ), #281, .T. ) ;
#30 = DIRECTION ( 'NONE',  ( -1.000000000000000000, 0.000000000000000000, 0.000000000000000000 ) ) ;
#31 = EDGE_CURVE ( 'NONE', #47, #48, #231, .T. ) ;
#32 = CARTESIAN_POINT ( 'NONE',  ( 0.01966531500000003735, 0.000000000000000000, 0.1574800000000000366 ) ) ;
#33 = PRESENTATION_STYLE_ASSIGNMENT (( #192 ) ) ;
#34 = EDGE_CURVE ( 'NONE', #148, #182, #255, .T. ) ;
#35 = CARTESIAN_POINT ( 'NONE',  ( -0.07873999999999993504, 0.000000000000000000, 0.4925091870401411831 ) ) ;
#36 = DIRECTION ( 'NONE',  ( 0.000000000000000000, 0.000000000000000000, 1.000000000000000000 ) ) ;
#37 = PLANE ( 'NONE',  #98 ) ;
#38 = UNCERTAINTY_MEASURE_WITH_UNIT (LENGTH_MEASURE( 1.000000000000000082E-05 ), #140, 'distance_accuracy_value', 'NONE');
#39 = COLOUR_RGB ( '',0.7921568627450980005, 0.8196078431372548767, 0.9333333333333333481 ) ;
#40 = DIRECTION ( 'NONE',  ( -1.000000000000000000, 0.000000000000000000, 0.000000000000000000 ) ) ;
#41 = EDGE_CURVE ( 'NONE', #258, #276, #233, .T. ) ;
#42 = ORIENTED_EDGE ( 'NONE', *, *, #94, .F. ) ;
#43 = CONICAL_SURFACE ( 'NONE', #277, 0.01966531500000001306, 0.1745329251994338360 ) ;
#44 = AXIS2_PLACEMENT_3D ( 'NONE', #210, #217, #136 ) ;
#45 = DIRECTION ( 'NONE',  ( 0.000000000000000000, 0.000000000000000000, -1.000000000000000000 ) ) ;
#46 = DIRECTION ( 'NONE',  ( -0.000000000000000000, -0.000000000000000000, -1.000000000000000000 ) ) ;
#47 = VERTEX_POINT ( 'NONE', #32 ) ;
#48 = VERTEX_POINT ( 'NONE', #87 ) ;
#49 = DIRECTION ( 'NONE',  ( -1.224646799147353207E-16, -0.000000000000000000, -1.000000000000000000 ) ) ;
#50 = VECTOR ( 'NONE', #265, 39.37007874015748854 ) ;
#51 = ORIENTED_EDGE ( 'NONE', *, *, #104, .T. ) ;
#52 = CARTESIAN_POINT ( 'NONE',  ( 6.031497994593740586E-17, 0.000000000000000000, 0.4925091870401411831 ) ) ;
#53 = DIRECTION ( 'NONE',  ( 0.000000000000000000, 0.000000000000000000, -1.000000000000000000 ) ) ;
#54 = DIRECTION ( 'NONE',  ( 0.000000000000000000, 0.000000000000000000, 1.000000000000000000 ) ) ;
#55 = ORIENTED_EDGE ( 'NONE', *, *, #251, .T. ) ;
#56 =( GEOMETRIC_REPRESENTATION_CONTEXT ( 3 ) GLOBAL_UNCERTAINTY_ASSIGNED_CONTEXT ( ( #38 ) ) GLOBAL_UNIT_ASSIGNED_CONTEXT ( ( #140, #12, #115 ) ) REPRESENTATION_CONTEXT ( 'NONE', 'WORKASPACE' ) );
#57 =( GEOMETRIC_REPRESENTATION_CONTEXT ( 3 ) GLOBAL_UNCERTAINTY_ASSIGNED_CONTEXT ( ( #137 ) ) GLOBAL_UNIT_ASSIGNED_CONTEXT ( ( #162, #82, #141 ) ) REPRESENTATION_CONTEXT ( 'NONE', 'WORKASPACE' ) );
#58 = VECTOR ( 'NONE', #62, 39.37007874015748854 ) ;
#59 = CYLINDRICAL_SURFACE ( 'NONE', #152, 0.01966531500000000959 ) ;
#60 = SURFACE_STYLE_FILL_AREA ( #4 ) ;
#61 = EDGE_CURVE ( 'NONE', #126, #258, #132, .T. ) ;
#62 = DIRECTION ( 'NONE',  ( 0.7071067811865502373, 8.659560562354966138E-17, -0.7071067811865446862 ) ) ;
#63 = DIRECTION ( 'NONE',  ( -1.000000000000000000, 0.000000000000000000, 1.224646799147353207E-16 ) ) ;
#64 = PRESENTATION_LAYER_ASSIGNMENT (  '', '', ( #241 ) ) ;
#65 = CARTESIAN_POINT ( 'NONE',  ( 0.07874000000000000443, 9.642868896486258509E-18, 1.968503999999999809 ) ) ;
#66 = EDGE_CURVE ( 'NONE', #126, #102, #280, .T. ) ;
#67 = CARTESIAN_POINT ( 'NONE',  ( 0.000000000000000000, 0.000000000000000000, 1.968503999999999809 ) ) ;
#68 = CLOSED_SHELL ( 'NONE', ( #73, #172, #108, #29, #111, #147, #133, #21, #236, #119 ) ) ;
#69 = ORIENTED_EDGE ( 'NONE', *, *, #14, .F. ) ;
#70 = VERTEX_POINT ( 'NONE', #35 ) ;
#71 = AXIS2_PLACEMENT_3D ( 'NONE', #52, #296, #239 ) ;
#72 = PLANE ( 'NONE',  #284 ) ;
#73 = ADVANCED_FACE ( 'NONE', ( #164 ), #59, .T. ) ;
#74 = EDGE_LOOP ( 'NONE', ( #16, #299, #83, #69 ) ) ;
#75 = DIRECTION ( 'NONE',  ( 1.000000000000000000, 0.000000000000000000, 0.000000000000000000 ) ) ;
#76 = APPLICATION_PROTOCOL_DEFINITION ( 'draft international standard', 'automotive_design', 1998, #242 ) ;
#77 = COLOUR_RGB ( '',0.7921568627450980005, 0.8196078431372548767, 0.9333333333333333481 ) ;
#78 = DIMENSIONAL_EXPONENTS ( 1.000000000000000000, 0.000000000000000000, 0.000000000000000000, 0.000000000000000000, 0.000000000000000000, 0.000000000000000000, 0.000000000000000000 ) ;
#79 = DIRECTION ( 'NONE',  ( 1.000000000000000000, 0.000000000000000000, 0.000000000000000000 ) ) ;
#80 = MECHANICAL_DESIGN_GEOMETRIC_PRESENTATION_REPRESENTATION (  '', ( #145 ), #56 ) ;
#81 = MANIFOLD_SOLID_BREP ( 'Cut-Revolve1', #68 ) ;
#82 =( NAMED_UNIT ( * ) PLANE_ANGLE_UNIT ( ) SI_UNIT ( $, .RADIAN. ) );
#83 = ORIENTED_EDGE ( 'NONE', *, *, #238, .F. ) ;
#84 = DIRECTION ( 'NONE',  ( -1.224646799147353207E-16, -0.000000000000000000, -1.000000000000000000 ) ) ;
#85 = LENGTH_MEASURE_WITH_UNIT ( LENGTH_MEASURE( 0.02539999999999999897 ), #209 );
#86 = ORIENTED_EDGE ( 'NONE', *, *, #246, .T. ) ;
#87 = CARTESIAN_POINT ( 'NONE',  ( 0.07874000000000007382, 9.642868896486267753E-18, 0.4925091870401411831 ) ) ;
#88 = DIRECTION ( 'NONE',  ( -1.000000000000000000, 0.000000000000000000, 0.000000000000000000 ) ) ;
#89 = CIRCLE ( 'NONE', #129, 0.07874000000000000443 ) ;
#90 = PRODUCT_DEFINITION ( 'UNKNOWN', '', #22, #110 ) ;
#91 = CARTESIAN_POINT ( 'NONE',  ( 0.000000000000000000, 0.000000000000000000, 1.968503999999999809 ) ) ;
#92 = CYLINDRICAL_SURFACE ( 'NONE', #268, 0.07874000000000000443 ) ;
#93 = EDGE_CURVE ( 'NONE', #258, #48, #114, .T. ) ;
#94 = EDGE_CURVE ( 'NONE', #47, #148, #235, .T. ) ;
#95 = ORIENTED_EDGE ( 'NONE', *, *, #104, .F. ) ;
#96 = FACE_OUTER_BOUND ( 'NONE', #120, .T. ) ;
#97 = DIRECTION ( 'NONE',  ( -1.224646799147353207E-16, -0.000000000000000000, -1.000000000000000000 ) ) ;
#98 = AXIS2_PLACEMENT_3D ( 'NONE', #287, #36, #15 ) ;
#99 = DIRECTION ( 'NONE',  ( 1.224646799147353207E-16, 0.000000000000000000, 1.000000000000000000 ) ) ;
#100 =( LENGTH_UNIT ( ) NAMED_UNIT ( * ) SI_UNIT ( $, .METRE. ) );
#101 = ORIENTED_EDGE ( 'NONE', *, *, #34, .F. ) ;
#102 = VERTEX_POINT ( 'NONE', #190 ) ;
#103 = EDGE_CURVE ( 'NONE', #102, #126, #289, .T. ) ;
#104 = EDGE_CURVE ( 'NONE', #275, #47, #254, .T. ) ;
#105 = DIRECTION ( 'NONE',  ( -0.1736481776669311639, 2.126576849575782392E-17, 0.9848077530122080203 ) ) ;
#106 = SURFACE_STYLE_USAGE ( .BOTH. , #155 ) ;
#107 = DIMENSIONAL_EXPONENTS ( 1.000000000000000000, 0.000000000000000000, 0.000000000000000000, 0.000000000000000000, 0.000000000000000000, 0.000000000000000000, 0.000000000000000000 ) ;
#108 = ADVANCED_FACE ( 'NONE', ( #253 ), #168, .T. ) ;
#109 = FACE_OUTER_BOUND ( 'NONE', #226, .T. ) ;
#110 = PRODUCT_DEFINITION_CONTEXT ( 'detailed design', #242, 'design' ) ;
#111 = ADVANCED_FACE ( 'NONE', ( #252 ), #92, .T. ) ;
#112 = DIRECTION ( 'NONE',  ( 1.000000000000000000, 0.000000000000000000, 0.000000000000000000 ) ) ;
#113 = CIRCLE ( 'NONE', #2, 0.01966531500000000265 ) ;
#114 = LINE ( 'NONE', #65, #183 ) ;
#115 =( NAMED_UNIT ( * ) SI_UNIT ( $, .STERADIAN. ) SOLID_ANGLE_UNIT ( ) );
#116 = CIRCLE ( 'NONE', #27, 0.07874000000000000443 ) ;
#117 = AXIS2_PLACEMENT_3D ( 'NONE', #274, #99, #229 ) ;
#118 = ORIENTED_EDGE ( 'NONE', *, *, #19, .T. ) ;
#119 = ADVANCED_FACE ( 'NONE', ( #143 ), #37, .F. ) ;
#120 = EDGE_LOOP ( 'NONE', ( #243, #221 ) ) ;
#121 = CARTESIAN_POINT ( 'NONE',  ( -0.07874000000000000443, 0.000000000000000000, 1.953504000000000129 ) ) ;
#122 = AXIS2_PLACEMENT_3D ( 'NONE', #249, #7, #112 ) ;
#123 = DIRECTION ( 'NONE',  ( 1.000000000000000000, 0.000000000000000000, 0.000000000000000000 ) ) ;
#124 = ORIENTED_EDGE ( 'NONE', *, *, #41, .F. ) ;
#125 = PRESENTATION_LAYER_ASSIGNMENT (  '', '', ( #145 ) ) ;
#126 = VERTEX_POINT ( 'NONE', #237 ) ;
#127 = DIRECTION ( 'NONE',  ( -1.224646799147353207E-16, -0.000000000000000000, -1.000000000000000000 ) ) ;
#128 = APPLICATION_CONTEXT ( 'automotive_design' ) ;
#129 = AXIS2_PLACEMENT_3D ( 'NONE', #261, #219, #75 ) ;
#130 = CIRCLE ( 'NONE', #71, 0.07874000000000000443 ) ;
#131 = DIMENSIONAL_EXPONENTS ( 1.000000000000000000, 0.000000000000000000, 0.000000000000000000, 0.000000000000000000, 0.000000000000000000, 0.000000000000000000, 0.000000000000000000 ) ;
#132 = LINE ( 'NONE', #285, #58 ) ;
#133 = ADVANCED_FACE ( 'NONE', ( #193 ), #173, .T. ) ;
#134 = ORIENTED_EDGE ( 'NONE', *, *, #5, .T. ) ;
#135 = PRODUCT_RELATED_PRODUCT_CATEGORY ( 'part', '', ( #160 ) ) ;
#136 = DIRECTION ( 'NONE',  ( -1.000000000000000000, 0.000000000000000000, 1.224646799147353207E-16 ) ) ;
#137 = UNCERTAINTY_MEASURE_WITH_UNIT (LENGTH_MEASURE( 1.000000000000000082E-05 ), #162, 'distance_accuracy_value', 'NONE');
#138 = FILL_AREA_STYLE ('',( #161 ) ) ;
#139 = DIRECTION ( 'NONE',  ( 0.000000000000000000, 0.000000000000000000, 1.000000000000000000 ) ) ;
#140 =( CONVERSION_BASED_UNIT ( 'INCH', #188 ) LENGTH_UNIT ( ) NAMED_UNIT ( #107 ) );
#141 =( NAMED_UNIT ( * ) SI_UNIT ( $, .STERADIAN. ) SOLID_ANGLE_UNIT ( ) );
#142 = AXIS2_PLACEMENT_3D ( 'NONE', #25, #49, #177 ) ;
#143 = FACE_OUTER_BOUND ( 'NONE', #195, .T. ) ;
#144 = AXIS2_PLACEMENT_3D ( 'NONE', #283, #166, #88 ) ;
#145 = STYLED_ITEM ( 'NONE', ( #33 ), #81 ) ;
#146 = CARTESIAN_POINT ( 'NONE',  ( 0.07874000000000000443, 9.642868896486258509E-18, 1.953504000000000129 ) ) ;
#147 = ADVANCED_FACE ( 'NONE', ( #96 ), #72, .T. ) ;
#148 = VERTEX_POINT ( 'NONE', #199 ) ;
#149 = VECTOR ( 'NONE', #207, 39.37007874015748143 ) ;
#150 = ORIENTED_EDGE ( 'NONE', *, *, #256, .T. ) ;
#151 = ORIENTED_EDGE ( 'NONE', *, *, #94, .T. ) ;
#152 = AXIS2_PLACEMENT_3D ( 'NONE', #163, #84, #63 ) ;
#153 = CARTESIAN_POINT ( 'NONE',  ( 1.928573779297252010E-17, 0.000000000000000000, 0.1574800000000000366 ) ) ;
#154 = LINE ( 'NONE', #26, #149 ) ;
#155 = SURFACE_SIDE_STYLE ('',( #60 ) ) ;
#156 = AXIS2_PLACEMENT_3D ( 'NONE', #153, #127, #222 ) ;
#157 = DIRECTION ( 'NONE',  ( -0.000000000000000000, -0.000000000000000000, -1.000000000000000000 ) ) ;
#158 = VECTOR ( 'NONE', #279, 39.37007874015748143 ) ;
#159 = APPLICATION_PROTOCOL_DEFINITION ( 'draft international standard', 'automotive_design', 1998, #128 ) ;
#160 = PRODUCT ( 'Micro_AEMM-010-4', 'Micro_AEMM-010-4', '', ( #216 ) ) ;
#161 = FILL_AREA_STYLE_COLOUR ( '', #39 ) ;
#162 =( CONVERSION_BASED_UNIT ( 'INCH', #85 ) LENGTH_UNIT ( ) NAMED_UNIT ( #78 ) );
#163 = CARTESIAN_POINT ( 'NONE',  ( 0.000000000000000000, 0.000000000000000000, 0.000000000000000000 ) ) ;
#164 = FACE_OUTER_BOUND ( 'NONE', #176, .T. ) ;
#165 = AXIS2_PLACEMENT_3D ( 'NONE', #267, #11, #215 ) ;
#166 = DIRECTION ( 'NONE',  ( -1.224646799147353207E-16, -0.000000000000000000, -1.000000000000000000 ) ) ;
#167 = CARTESIAN_POINT ( 'NONE',  ( 0.000000000000000000, 0.000000000000000000, 1.968503999999999809 ) ) ;
#168 = CONICAL_SURFACE ( 'NONE', #259, 0.06374000000000018540, 0.7853981633974522758 ) ;
#169 = AXIS2_PLACEMENT_3D ( 'NONE', #91, #139, #214 ) ;
#170 = CARTESIAN_POINT ( 'NONE',  ( 0.000000000000000000, 0.000000000000000000, 1.968503999999999809 ) ) ;
#171 = EDGE_LOOP ( 'NONE', ( #181, #203, #20, #206 ) ) ;
#172 = ADVANCED_FACE ( 'NONE', ( #264 ), #43, .T. ) ;
#173 = CONICAL_SURFACE ( 'NONE', #187, 0.06374000000000018540, 0.7853981633974522758 ) ;
#174 = CARTESIAN_POINT ( 'NONE',  ( 0.000000000000000000, 0.000000000000000000, 1.968503999999999809 ) ) ;
#175 = LINE ( 'NONE', #224, #202 ) ;
#176 = EDGE_LOOP ( 'NONE', ( #51, #151, #270, #212 ) ) ;
#177 = DIRECTION ( 'NONE',  ( -1.000000000000000000, 0.000000000000000000, 1.224646799147353207E-16 ) ) ;
#178 = ORIENTED_EDGE ( 'NONE', *, *, #61, .F. ) ;
#179 = DIRECTION ( 'NONE',  ( -1.000000000000000000, 0.000000000000000000, 1.224646799147353207E-16 ) ) ;
#180 = LINE ( 'NONE', #184, #50 ) ;
#181 = ORIENTED_EDGE ( 'NONE', *, *, #251, .F. ) ;
#182 = VERTEX_POINT ( 'NONE', #197 ) ;
#183 = VECTOR ( 'NONE', #282, 39.37007874015748143 ) ;
#184 = CARTESIAN_POINT ( 'NONE',  ( -0.06374000000000018540, 0.000000000000000000, 1.968503999999999809 ) ) ;
#185 = EDGE_CURVE ( 'NONE', #48, #70, #89, .T. ) ;
#186 = LENGTH_MEASURE_WITH_UNIT ( LENGTH_MEASURE( 0.02539999999999999897 ), #100 );
#187 = AXIS2_PLACEMENT_3D ( 'NONE', #67, #45, #291 ) ;
#188 = LENGTH_MEASURE_WITH_UNIT ( LENGTH_MEASURE( 0.02539999999999999897 ), #234 );
#189 = ORIENTED_EDGE ( 'NONE', *, *, #238, .T. ) ;
#190 = CARTESIAN_POINT ( 'NONE',  ( -0.06374000000000018540, 0.000000000000000000, 1.968503999999999809 ) ) ;
#191 = DIRECTION ( 'NONE',  ( -1.224646799147353207E-16, -0.000000000000000000, -1.000000000000000000 ) ) ;
#192 = SURFACE_STYLE_USAGE ( .BOTH. , #10 ) ;
#193 = FACE_OUTER_BOUND ( 'NONE', #292, .T. ) ;
#194 = DIRECTION ( 'NONE',  ( 1.000000000000000000, 0.000000000000000000, -0.000000000000000000 ) ) ;
#195 = EDGE_LOOP ( 'NONE', ( #273, #220 ) ) ;
#196 = ORIENTED_EDGE ( 'NONE', *, *, #185, .F. ) ;
#197 = CARTESIAN_POINT ( 'NONE',  ( -0.01966531500000000265, 0.000000000000000000, 4.816613013794886973E-18 ) ) ;
#198 = ORIENTED_EDGE ( 'NONE', *, *, #256, .F. ) ;
#199 = CARTESIAN_POINT ( 'NONE',  ( 0.01966531500000000265, 2.408306506897443871E-18, 4.739000847409537175E-34 ) ) ;
#200 = PRODUCT_DEFINITION_SHAPE ( 'NONE', 'NONE',  #90 ) ;
#201 = ORIENTED_EDGE ( 'NONE', *, *, #14, .T. ) ;
#202 = VECTOR ( 'NONE', #105, 39.37007874015747433 ) ;
#203 = ORIENTED_EDGE ( 'NONE', *, *, #246, .F. ) ;
#204 = CARTESIAN_POINT ( 'NONE',  ( -0.07874000000000000443, 0.000000000000000000, 1.968503999999999809 ) ) ;
#205 = EDGE_CURVE ( 'NONE', #182, #148, #113, .T. ) ;
#206 = ORIENTED_EDGE ( 'NONE', *, *, #185, .T. ) ;
#207 = DIRECTION ( 'NONE',  ( -1.224646799147353207E-16, -0.000000000000000000, -1.000000000000000000 ) ) ;
#208 = ADVANCED_BREP_SHAPE_REPRESENTATION ( 'Micro_AEMM-010-4', ( #81, #9 ), #266 ) ;
#209 =( LENGTH_UNIT ( ) NAMED_UNIT ( * ) SI_UNIT ( $, .METRE. ) );
#210 = CARTESIAN_POINT ( 'NONE',  ( 2.949324855037697299E-34, 0.000000000000000000, 2.408306506897443486E-18 ) ) ;
#211 = PRESENTATION_STYLE_ASSIGNMENT (( #106 ) ) ;
#212 = ORIENTED_EDGE ( 'NONE', *, *, #5, .F. ) ;
#213 = CARTESIAN_POINT ( 'NONE',  ( 0.01966531500000003735, 0.000000000000000000, 0.1574800000000000366 ) ) ;
#214 = DIRECTION ( 'NONE',  ( 1.000000000000000000, 0.000000000000000000, 0.000000000000000000 ) ) ;
#215 = DIRECTION ( 'NONE',  ( 1.000000000000000000, 0.000000000000000000, 0.000000000000000000 ) ) ;
#216 = PRODUCT_CONTEXT ( 'NONE', #128, 'mechanical' ) ;
#217 = DIRECTION ( 'NONE',  ( -1.224646799147353207E-16, -0.000000000000000000, -1.000000000000000000 ) ) ;
#218 = DIRECTION ( 'NONE',  ( 0.000000000000000000, 0.000000000000000000, 1.000000000000000000 ) ) ;
#219 = DIRECTION ( 'NONE',  ( -1.224646799147353207E-16, -0.000000000000000000, -1.000000000000000000 ) ) ;
#220 = ORIENTED_EDGE ( 'NONE', *, *, #34, .T. ) ;
#221 = ORIENTED_EDGE ( 'NONE', *, *, #66, .T. ) ;
#222 = DIRECTION ( 'NONE',  ( -1.000000000000000000, 0.000000000000000000, 0.000000000000000000 ) ) ;
#223 = CARTESIAN_POINT ( 'NONE',  ( 0.000000000000000000, 0.000000000000000000, 0.000000000000000000 ) ) ;
#224 = CARTESIAN_POINT ( 'NONE',  ( -0.01966531499999999225, 2.408306506897445027E-18, 0.1574800000000000366 ) ) ;
#225 = VECTOR ( 'NONE', #191, 39.37007874015748143 ) ;
#226 = EDGE_LOOP ( 'NONE', ( #189, #290, #3, #198 ) ) ;
#227 =( NAMED_UNIT ( * ) SI_UNIT ( $, .STERADIAN. ) SOLID_ANGLE_UNIT ( ) );
#228 = EDGE_LOOP ( 'NONE', ( #95, #55, #118, #262 ) ) ;
#229 = DIRECTION ( 'NONE',  ( 1.000000000000000000, 0.000000000000000000, 0.000000000000000000 ) ) ;
#230 = UNCERTAINTY_MEASURE_WITH_UNIT (LENGTH_MEASURE( 1.000000000000000082E-05 ), #248, 'distance_accuracy_value', 'NONE');
#231 = LINE ( 'NONE', #213, #158 ) ;
#232 = SURFACE_STYLE_FILL_AREA ( #138 ) ;
#233 = CIRCLE ( 'NONE', #122, 0.07874000000000000443 ) ;
#234 =( LENGTH_UNIT ( ) NAMED_UNIT ( * ) SI_UNIT ( $, .METRE. ) );
#235 = LINE ( 'NONE', #250, #225 ) ;
#236 = ADVANCED_FACE ( 'NONE', ( #247 ), #1, .T. ) ;
#237 = CARTESIAN_POINT ( 'NONE',  ( 0.06374000000000018540, 8.724383797125754882E-18, 1.968503999999999809 ) ) ;
#238 = EDGE_CURVE ( 'NONE', #276, #258, #116, .T. ) ;
#239 = DIRECTION ( 'NONE',  ( 1.000000000000000000, 0.000000000000000000, 0.000000000000000000 ) ) ;
#240 = ORIENTED_EDGE ( 'NONE', *, *, #41, .T. ) ;
#241 = STYLED_ITEM ( 'NONE', ( #211 ), #208 ) ;
#242 = APPLICATION_CONTEXT ( 'automotive_design' ) ;
#243 = ORIENTED_EDGE ( 'NONE', *, *, #103, .T. ) ;
#244 = EDGE_LOOP ( 'NONE', ( #42, #86, #134, #101 ) ) ;
#245 = CARTESIAN_POINT ( 'NONE',  ( 2.949324855037697299E-34, 0.000000000000000000, 2.408306506897443486E-18 ) ) ;
#246 = EDGE_CURVE ( 'NONE', #47, #275, #269, .T. ) ;
#247 = FACE_OUTER_BOUND ( 'NONE', #244, .T. ) ;
#248 =( CONVERSION_BASED_UNIT ( 'INCH', #186 ) LENGTH_UNIT ( ) NAMED_UNIT ( #131 ) );
#249 = CARTESIAN_POINT ( 'NONE',  ( 0.000000000000000000, 0.000000000000000000, 1.953504000000000129 ) ) ;
#250 = CARTESIAN_POINT ( 'NONE',  ( 0.01966531500000000959, 2.408306506897444257E-18, -2.408306506897444257E-18 ) ) ;
#251 = EDGE_CURVE ( 'NONE', #275, #70, #175, .T. ) ;
#252 = FACE_OUTER_BOUND ( 'NONE', #23, .T. ) ;
#253 = FACE_OUTER_BOUND ( 'NONE', #74, .T. ) ;
#254 = CIRCLE ( 'NONE', #144, 0.01966531500000001306 ) ;
#255 = CIRCLE ( 'NONE', #44, 0.01966531500000000265 ) ;
#256 = EDGE_CURVE ( 'NONE', #276, #70, #260, .T. ) ;
#257 = DIRECTION ( 'NONE',  ( -0.000000000000000000, -0.000000000000000000, -1.000000000000000000 ) ) ;
#258 = VERTEX_POINT ( 'NONE', #146 ) ;
#259 = AXIS2_PLACEMENT_3D ( 'NONE', #167, #288, #13 ) ;
#260 = LINE ( 'NONE', #204, #28 ) ;
#261 = CARTESIAN_POINT ( 'NONE',  ( 6.031497994593740586E-17, 0.000000000000000000, 0.4925091870401411831 ) ) ;
#262 = ORIENTED_EDGE ( 'NONE', *, *, #31, .F. ) ;
#263 = SHAPE_DEFINITION_REPRESENTATION ( #200, #208 ) ;
#264 = FACE_OUTER_BOUND ( 'NONE', #228, .T. ) ;
#265 = DIRECTION ( 'NONE',  ( -0.7071067811865502373, 0.000000000000000000, -0.7071067811865446862 ) ) ;
#266 =( GEOMETRIC_REPRESENTATION_CONTEXT ( 3 ) GLOBAL_UNCERTAINTY_ASSIGNED_CONTEXT ( ( #230 ) ) GLOBAL_UNIT_ASSIGNED_CONTEXT ( ( #248, #8, #227 ) ) REPRESENTATION_CONTEXT ( 'NONE', 'WORKASPACE' ) );
#267 = CARTESIAN_POINT ( 'NONE',  ( 0.000000000000000000, 0.000000000000000000, 1.968503999999999809 ) ) ;
#268 = AXIS2_PLACEMENT_3D ( 'NONE', #170, #257, #40 ) ;
#269 = CIRCLE ( 'NONE', #156, 0.01966531500000001306 ) ;
#270 = ORIENTED_EDGE ( 'NONE', *, *, #205, .F. ) ;
#271 = CARTESIAN_POINT ( 'NONE',  ( 1.928573779297252010E-17, 0.000000000000000000, 0.1574800000000000366 ) ) ;
#272 = AXIS2_PLACEMENT_3D ( 'NONE', #6, #157, #30 ) ;
#273 = ORIENTED_EDGE ( 'NONE', *, *, #205, .T. ) ;
#274 = CARTESIAN_POINT ( 'NONE',  ( 1.928573779297252010E-17, 0.000000000000000000, 0.1574800000000000366 ) ) ;
#275 = VERTEX_POINT ( 'NONE', #18 ) ;
#276 = VERTEX_POINT ( 'NONE', #121 ) ;
#277 = AXIS2_PLACEMENT_3D ( 'NONE', #271, #298, #17 ) ;
#278 = FILL_AREA_STYLE_COLOUR ( '', #77 ) ;
#279 = DIRECTION ( 'NONE',  ( 0.1736481776669313304, 0.000000000000000000, 0.9848077530122077983 ) ) ;
#280 = CIRCLE ( 'NONE', #169, 0.06374000000000018540 ) ;
#281 = CYLINDRICAL_SURFACE ( 'NONE', #272, 0.07874000000000000443 ) ;
#282 = DIRECTION ( 'NONE',  ( -0.000000000000000000, -0.000000000000000000, -1.000000000000000000 ) ) ;
#283 = CARTESIAN_POINT ( 'NONE',  ( 1.928573779297252010E-17, 0.000000000000000000, 0.1574800000000000366 ) ) ;
#284 = AXIS2_PLACEMENT_3D ( 'NONE', #174, #218, #194 ) ;
#285 = CARTESIAN_POINT ( 'NONE',  ( 0.06374000000000018540, 7.805898697765251255E-18, 1.968503999999999809 ) ) ;
#286 = CONICAL_SURFACE ( 'NONE', #117, 0.01966531500000001306, 0.1745329251994338360 ) ;
#287 = CARTESIAN_POINT ( 'NONE',  ( 0.000000000000000000, 0.000000000000000000, 0.000000000000000000 ) ) ;
#288 = DIRECTION ( 'NONE',  ( 0.000000000000000000, 0.000000000000000000, -1.000000000000000000 ) ) ;
#289 = CIRCLE ( 'NONE', #165, 0.06374000000000018540 ) ;
#290 = ORIENTED_EDGE ( 'NONE', *, *, #93, .T. ) ;
#291 = DIRECTION ( 'NONE',  ( -1.000000000000000000, 0.000000000000000000, 0.000000000000000000 ) ) ;
#292 = EDGE_LOOP ( 'NONE', ( #178, #24, #201, #124 ) ) ;
#293 = MECHANICAL_DESIGN_GEOMETRIC_PRESENTATION_REPRESENTATION (  '', ( #241 ), #57 ) ;
#294 = FACE_OUTER_BOUND ( 'NONE', #171, .T. ) ;
#295 = CARTESIAN_POINT ( 'NONE',  ( 0.000000000000000000, 0.000000000000000000, 1.953504000000000129 ) ) ;
#296 = DIRECTION ( 'NONE',  ( -1.224646799147353207E-16, -0.000000000000000000, -1.000000000000000000 ) ) ;
#297 = ORIENTED_EDGE ( 'NONE', *, *, #93, .F. ) ;
#298 = DIRECTION ( 'NONE',  ( 1.224646799147353207E-16, 0.000000000000000000, 1.000000000000000000 ) ) ;
#299 = ORIENTED_EDGE ( 'NONE', *, *, #61, .T. ) ;
ENDSEC;
END-ISO-10303-21;
