ISO-10303-21;
HEADER;
FILE_DESCRIPTION (( 'STEP AP214' ),
    '1' );
FILE_NAME ('Micro_RDD-20.STEP',
    '2021-08-31T15:20:30',
    ( '' ),
    ( '' ),
    'SwSTEP 2.0',
    'SolidWorks 2020',
    '' );
FILE_SCHEMA (( 'AUTOMOTIVE_DESIGN' ));
ENDSEC;

DATA;
#1 = SURFACE_SIDE_STYLE ('',( #47 ) ) ;
#2 = CARTESIAN_POINT ( 'NONE',  ( 0.0000000000000000000, 0.0000000000000000000, 0.0000000000000000000 ) ) ;
#3 = CARTESIAN_POINT ( 'NONE',  ( 0.04685310000000002945, 0.0000000000000000000, 0.01940718945922267555 ) ) ;
#4 = EDGE_LOOP ( 'NONE', ( #281, #214, #309, #153 ) ) ;
#5 = PRESENTATION_LAYER_ASSIGNMENT (  '', '', ( #41 ) ) ;
#6 = DIRECTION ( 'NONE',  ( -1.000000000000000000, 0.0000000000000000000, 1.224646799147353454E-16 ) ) ;
#7 = SHAPE_DEFINITION_REPRESENTATION ( #300, #69 ) ;
#8 = CARTESIAN_POINT ( 'NONE',  ( -0.04685310000000001557, 0.0000000000000000000, 5.737849894513088209E-18 ) ) ;
#9 = DIRECTION ( 'NONE',  ( -0.9238795325112879597, 1.131426112287701740E-16, 0.3826834323650865621 ) ) ;
#10 = AXIS2_PLACEMENT_3D ( 'NONE', #54, #218, #33 ) ;
#11 = FACE_OUTER_BOUND ( 'NONE', #203, .T. ) ;
#12 = DIRECTION ( 'NONE',  ( 0.0000000000000000000, 0.0000000000000000000, 1.000000000000000000 ) ) ;
#13 = EDGE_CURVE ( 'NONE', #286, #242, #52, .T. ) ;
#14 = CARTESIAN_POINT ( 'NONE',  ( 4.821444091131313077E-15, 0.0000000000000000000, 39.37007874015748143 ) ) ;
#15 = ORIENTED_EDGE ( 'NONE', *, *, #83, .F. ) ;
#16 = ORIENTED_EDGE ( 'NONE', *, *, #262, .T. ) ;
#17 = AXIS2_PLACEMENT_3D ( 'NONE', #14, #118, #139 ) ;
#18 = CYLINDRICAL_SURFACE ( 'NONE', #147, 0.06250000000000002776 ) ;
#19 = DIRECTION ( 'NONE',  ( 1.000000000000000000, 0.0000000000000000000, 0.0000000000000000000 ) ) ;
#20 = EDGE_CURVE ( 'NONE', #151, #55, #216, .T. ) ;
#21 = CARTESIAN_POINT ( 'NONE',  ( 0.04750000000000064587, 6.735557395310483192E-18, 1.500000000000000222 ) ) ;
#22 = AXIS2_PLACEMENT_3D ( 'NONE', #167, #208, #237 ) ;
#23 = APPLICATION_CONTEXT ( 'automotive_design' ) ;
#24 =( NAMED_UNIT ( * ) PLANE_ANGLE_UNIT ( ) SI_UNIT ( $, .RADIAN. ) );
#25 = EDGE_CURVE ( 'NONE', #260, #79, #110, .T. ) ;
#26 = CARTESIAN_POINT ( 'NONE',  ( 0.04685310000000005026, 0.0000000000000000000, 0.3749999999999999445 ) ) ;
#27 = PRODUCT_DEFINITION ( 'UNKNOWN', '', #98, #111 ) ;
#28 = CARTESIAN_POINT ( 'NONE',  ( -0.06250000000000002776, 0.0000000000000000000, 1.485000000000000764 ) ) ;
#29 = AXIS2_PLACEMENT_3D ( 'NONE', #272, #302, #136 ) ;
#30 = ORIENTED_EDGE ( 'NONE', *, *, #87, .F. ) ;
#31 = UNCERTAINTY_MEASURE_WITH_UNIT (LENGTH_MEASURE( 1.000000000000000082E-05 ), #125, 'distance_accuracy_value', 'NONE');
#32 =( NAMED_UNIT ( * ) PLANE_ANGLE_UNIT ( ) SI_UNIT ( $, .RADIAN. ) );
#33 = DIRECTION ( 'NONE',  ( -1.000000000000000000, 0.0000000000000000000, 0.0000000000000000000 ) ) ;
#34 = ORIENTED_EDGE ( 'NONE', *, *, #232, .T. ) ;
#35 = DIRECTION ( 'NONE',  ( 0.0000000000000000000, 0.0000000000000000000, 1.000000000000000000 ) ) ;
#36 = CONICAL_SURFACE ( 'NONE', #236, 0.04750000000000064587, 0.7853981633974466137 ) ;
#37 = CYLINDRICAL_SURFACE ( 'NONE', #22, 0.06250000000000002776 ) ;
#38 = EDGE_LOOP ( 'NONE', ( #60, #234, #95 ) ) ;
#39 = DIRECTION ( 'NONE',  ( 1.000000000000000000, 0.0000000000000000000, 0.0000000000000000000 ) ) ;
#40 = DIRECTION ( 'NONE',  ( -1.224646799147353454E-16, -0.0000000000000000000, -1.000000000000000000 ) ) ;
#41 = STYLED_ITEM ( 'NONE', ( #43 ), #313 ) ;
#42 = DIRECTION ( 'NONE',  ( -1.224646799147353454E-16, -0.0000000000000000000, -1.000000000000000000 ) ) ;
#43 = PRESENTATION_STYLE_ASSIGNMENT (( #271 ) ) ;
#44 = CARTESIAN_POINT ( 'NONE',  ( 0.0000000000000000000, 0.0000000000000000000, 0.0000000000000000000 ) ) ;
#45 = CONICAL_SURFACE ( 'NONE', #17, 95.04777804618578330, 1.178097245096175971 ) ;
#46 =( NAMED_UNIT ( * ) PLANE_ANGLE_UNIT ( ) SI_UNIT ( $, .RADIAN. ) );
#47 = SURFACE_STYLE_FILL_AREA ( #323 ) ;
#48 = ORIENTED_EDGE ( 'NONE', *, *, #73, .T. ) ;
#49 = CIRCLE ( 'NONE', #85, 0.06250000000000002776 ) ;
#50 = EDGE_CURVE ( 'NONE', #299, #286, #276, .T. ) ;
#51 = AXIS2_PLACEMENT_3D ( 'NONE', #187, #66, #19 ) ;
#52 = LINE ( 'NONE', #179, #311 ) ;
#53 = DIRECTION ( 'NONE',  ( 0.0000000000000000000, 0.0000000000000000000, 1.000000000000000000 ) ) ;
#54 = CARTESIAN_POINT ( 'NONE',  ( 0.0000000000000000000, 0.0000000000000000000, 1.500000000000000222 ) ) ;
#55 = VERTEX_POINT ( 'NONE', #26 ) ;
#56 = ORIENTED_EDGE ( 'NONE', *, *, #321, .T. ) ;
#57 = ORIENTED_EDGE ( 'NONE', *, *, #13, .F. ) ;
#58 = AXIS2_PLACEMENT_3D ( 'NONE', #67, #63, #261 ) ;
#59 = ADVANCED_FACE ( 'NONE', ( #255 ), #177, .T. ) ;
#60 = ORIENTED_EDGE ( 'NONE', *, *, #149, .F. ) ;
#61 = LINE ( 'NONE', #312, #209 ) ;
#62 = ADVANCED_FACE ( 'NONE', ( #82 ), #290, .T. ) ;
#63 = DIRECTION ( 'NONE',  ( 0.0000000000000000000, 0.0000000000000000000, 1.000000000000000000 ) ) ;
#64 = AXIS2_PLACEMENT_3D ( 'NONE', #280, #35, #39 ) ;
#65 = ORIENTED_EDGE ( 'NONE', *, *, #149, .T. ) ;
#66 = DIRECTION ( 'NONE',  ( 1.224646799147353454E-16, 0.0000000000000000000, 1.000000000000000000 ) ) ;
#67 = CARTESIAN_POINT ( 'NONE',  ( 0.0000000000000000000, 0.0000000000000000000, 1.500000000000000222 ) ) ;
#68 = VERTEX_POINT ( 'NONE', #3 ) ;
#69 = ADVANCED_BREP_SHAPE_REPRESENTATION ( 'Micro_RDD-20', ( #313, #93 ), #263 ) ;
#70 = CARTESIAN_POINT ( 'NONE',  ( -0.04685310000000002945, 5.737849894513088979E-18, 0.01940718945922268249 ) ) ;
#71 = CIRCLE ( 'NONE', #269, 0.06250000000000002776 ) ;
#72 = CARTESIAN_POINT ( 'NONE',  ( 4.592425496802575451E-17, 0.0000000000000000000, 0.3749999999999999445 ) ) ;
#73 = EDGE_CURVE ( 'NONE', #55, #151, #146, .T. ) ;
#74 = CONICAL_SURFACE ( 'NONE', #156, 0.04685310000000000863, 0.1745329251994338082 ) ;
#75 = LINE ( 'NONE', #190, #244 ) ;
#76 = ORIENTED_EDGE ( 'NONE', *, *, #20, .T. ) ;
#77 = VECTOR ( 'NONE', #188, 39.37007874015748854 ) ;
#78 = DIMENSIONAL_EXPONENTS ( 1.000000000000000000, 0.0000000000000000000, 0.0000000000000000000, 0.0000000000000000000, 0.0000000000000000000, 0.0000000000000000000, 0.0000000000000000000 ) ;
#79 = VERTEX_POINT ( 'NONE', #28 ) ;
#80 = DIRECTION ( 'NONE',  ( -0.7071067811865462405, 0.0000000000000000000, -0.7071067811865486830 ) ) ;
#81 = UNCERTAINTY_MEASURE_WITH_UNIT (LENGTH_MEASURE( 1.000000000000000082E-05 ), #148, 'distance_accuracy_value', 'NONE');
#82 = FACE_OUTER_BOUND ( 'NONE', #104, .T. ) ;
#83 = EDGE_CURVE ( 'NONE', #151, #109, #134, .T. ) ;
#84 = ORIENTED_EDGE ( 'NONE', *, *, #253, .F. ) ;
#85 = AXIS2_PLACEMENT_3D ( 'NONE', #150, #319, #99 ) ;
#86 = LINE ( 'NONE', #164, #277 ) ;
#87 = EDGE_CURVE ( 'NONE', #317, #109, #204, .T. ) ;
#88 = DIRECTION ( 'NONE',  ( 1.000000000000000000, 0.0000000000000000000, 0.0000000000000000000 ) ) ;
#89 = CARTESIAN_POINT ( 'NONE',  ( 5.679152322418703517E-17, 0.0000000000000000000, 0.4637379795033759189 ) ) ;
#90 = VECTOR ( 'NONE', #9, 39.37007874015748854 ) ;
#91 = DIRECTION ( 'NONE',  ( -1.000000000000000000, 0.0000000000000000000, 9.110416365406792544E-17 ) ) ;
#92 = CARTESIAN_POINT ( 'NONE',  ( 5.679152322418703517E-17, 0.0000000000000000000, 0.4637379795033759189 ) ) ;
#93 = AXIS2_PLACEMENT_3D ( 'NONE', #2, #53, #180 ) ;
#94 =( NAMED_UNIT ( * ) SI_UNIT ( $, .STERADIAN. ) SOLID_ANGLE_UNIT ( ) );
#95 = ORIENTED_EDGE ( 'NONE', *, *, #239, .T. ) ;
#96 = APPLICATION_PROTOCOL_DEFINITION ( 'draft international standard', 'automotive_design', 1998, #135 ) ;
#97 = CLOSED_SHELL ( 'NONE', ( #144, #207, #246, #62, #224, #197, #175, #279, #275, #305, #59 ) ) ;
#98 = PRODUCT_DEFINITION_FORMATION_WITH_SPECIFIED_SOURCE ( 'ANY', '', #196, .NOT_KNOWN. ) ;
#99 = DIRECTION ( 'NONE',  ( 1.000000000000000000, 0.0000000000000000000, 0.0000000000000000000 ) ) ;
#100 = EDGE_CURVE ( 'NONE', #286, #79, #267, .T. ) ;
#101 = ORIENTED_EDGE ( 'NONE', *, *, #83, .T. ) ;
#102 = SURFACE_STYLE_FILL_AREA ( #200 ) ;
#103 = DIMENSIONAL_EXPONENTS ( 1.000000000000000000, 0.0000000000000000000, 0.0000000000000000000, 0.0000000000000000000, 0.0000000000000000000, 0.0000000000000000000, 0.0000000000000000000 ) ;
#104 = EDGE_LOOP ( 'NONE', ( #161, #181, #198, #163 ) ) ;
#105 =( NAMED_UNIT ( * ) SI_UNIT ( $, .STERADIAN. ) SOLID_ANGLE_UNIT ( ) );
#106 = CARTESIAN_POINT ( 'NONE',  ( 0.0000000000000000000, 0.0000000000000000000, 1.485000000000000764 ) ) ;
#107 = AXIS2_PLACEMENT_3D ( 'NONE', #89, #40, #162 ) ;
#108 =( LENGTH_UNIT ( ) NAMED_UNIT ( * ) SI_UNIT ( $, .METRE. ) );
#109 = VERTEX_POINT ( 'NONE', #70 ) ;
#110 = LINE ( 'NONE', #114, #283 ) ;
#111 = PRODUCT_DEFINITION_CONTEXT ( 'detailed design', #23, 'design' ) ;
#112 = DIRECTION ( 'NONE',  ( -1.224646799147353454E-16, -0.0000000000000000000, -1.000000000000000000 ) ) ;
#113 = AXIS2_PLACEMENT_3D ( 'NONE', #251, #130, #6 ) ;
#114 = CARTESIAN_POINT ( 'NONE',  ( -0.04750000000000064587, 0.0000000000000000000, 1.500000000000000222 ) ) ;
#115 = COLOUR_RGB ( '',0.7921568627450980005, 0.8196078431372548767, 0.9333333333333333481 ) ;
#116 = EDGE_CURVE ( 'NONE', #260, #299, #170, .T. ) ;
#117 = LINE ( 'NONE', #206, #182 ) ;
#118 = DIRECTION ( 'NONE',  ( 1.224646799147353454E-16, 0.0000000000000000000, 1.000000000000000000 ) ) ;
#119 = VERTEX_POINT ( 'NONE', #210 ) ;
#120 = DIRECTION ( 'NONE',  ( 1.000000000000000000, 0.0000000000000000000, 0.0000000000000000000 ) ) ;
#121 = AXIS2_PLACEMENT_3D ( 'NONE', #106, #314, #212 ) ;
#122 = EDGE_CURVE ( 'NONE', #68, #109, #252, .T. ) ;
#123 = DIRECTION ( 'NONE',  ( -0.0000000000000000000, -0.0000000000000000000, -1.000000000000000000 ) ) ;
#124 = PRESENTATION_LAYER_ASSIGNMENT (  '', '', ( #291 ) ) ;
#125 =( CONVERSION_BASED_UNIT ( 'INCH', #213 ) LENGTH_UNIT ( ) NAMED_UNIT ( #128 ) );
#126 = DIRECTION ( 'NONE',  ( 1.224646799147353454E-16, 0.0000000000000000000, 1.000000000000000000 ) ) ;
#127 = CONICAL_SURFACE ( 'NONE', #141, 95.04777804618578330, 1.178097245096175971 ) ;
#128 = DIMENSIONAL_EXPONENTS ( 1.000000000000000000, 0.0000000000000000000, 0.0000000000000000000, 0.0000000000000000000, 0.0000000000000000000, 0.0000000000000000000, 0.0000000000000000000 ) ;
#129 = PRODUCT_CONTEXT ( 'NONE', #135, 'mechanical' ) ;
#130 = DIRECTION ( 'NONE',  ( -1.224646799147353454E-16, -0.0000000000000000000, -1.000000000000000000 ) ) ;
#131 = DIRECTION ( 'NONE',  ( -1.000000000000000000, 0.0000000000000000000, 0.0000000000000000000 ) ) ;
#132 = CONICAL_SURFACE ( 'NONE', #51, 0.04685310000000000863, 0.1745329251994338082 ) ;
#133 = ORIENTED_EDGE ( 'NONE', *, *, #13, .T. ) ;
#134 = LINE ( 'NONE', #8, #186 ) ;
#135 = APPLICATION_CONTEXT ( 'automotive_design' ) ;
#136 = DIRECTION ( 'NONE',  ( -1.000000000000000000, 0.0000000000000000000, 0.0000000000000000000 ) ) ;
#137 = DIRECTION ( 'NONE',  ( -1.000000000000000000, 0.0000000000000000000, 0.0000000000000000000 ) ) ;
#138 = CARTESIAN_POINT ( 'NONE',  ( 2.376695245168331190E-18, 0.0000000000000000000, 0.01940718945922267902 ) ) ;
#139 = DIRECTION ( 'NONE',  ( 1.000000000000000000, 0.0000000000000000000, -1.379608302175842074E-16 ) ) ;
#140 = FACE_OUTER_BOUND ( 'NONE', #183, .T. ) ;
#141 = AXIS2_PLACEMENT_3D ( 'NONE', #270, #268, #245 ) ;
#142 = DIRECTION ( 'NONE',  ( -1.224646799147353454E-16, -0.0000000000000000000, -1.000000000000000000 ) ) ;
#143 = FACE_OUTER_BOUND ( 'NONE', #202, .T. ) ;
#144 = ADVANCED_FACE ( 'NONE', ( #11 ), #257, .T. ) ;
#145 =( NAMED_UNIT ( * ) SI_UNIT ( $, .STERADIAN. ) SOLID_ANGLE_UNIT ( ) );
#146 = CIRCLE ( 'NONE', #29, 0.04685310000000000863 ) ;
#147 = AXIS2_PLACEMENT_3D ( 'NONE', #264, #123, #137 ) ;
#148 =( CONVERSION_BASED_UNIT ( 'INCH', #241 ) LENGTH_UNIT ( ) NAMED_UNIT ( #103 ) );
#149 = EDGE_CURVE ( 'NONE', #317, #68, #318, .T. ) ;
#150 = CARTESIAN_POINT ( 'NONE',  ( 0.0000000000000000000, 0.0000000000000000000, 1.485000000000000764 ) ) ;
#151 = VERTEX_POINT ( 'NONE', #160 ) ;
#152 = MECHANICAL_DESIGN_GEOMETRIC_PRESENTATION_REPRESENTATION (  '', ( #291 ), #229 ) ;
#153 = ORIENTED_EDGE ( 'NONE', *, *, #100, .F. ) ;
#154 = ORIENTED_EDGE ( 'NONE', *, *, #100, .T. ) ;
#155 = EDGE_LOOP ( 'NONE', ( #30, #65, #278 ) ) ;
#156 = AXIS2_PLACEMENT_3D ( 'NONE', #72, #126, #191 ) ;
#157 = LENGTH_MEASURE_WITH_UNIT ( LENGTH_MEASURE( 0.02539999999999999897 ), #108 );
#158 = CARTESIAN_POINT ( 'NONE',  ( 0.04750000000000064587, 5.817072295950006528E-18, 1.500000000000000222 ) ) ;
#159 = DIRECTION ( 'NONE',  ( 0.7071067811865462405, 8.659560562354916834E-17, -0.7071067811865486830 ) ) ;
#160 = CARTESIAN_POINT ( 'NONE',  ( -0.04685309999999996700, 6.695946194592023262E-18, 0.3749999999999999445 ) ) ;
#161 = ORIENTED_EDGE ( 'NONE', *, *, #256, .F. ) ;
#162 = DIRECTION ( 'NONE',  ( 1.000000000000000000, 0.0000000000000000000, 0.0000000000000000000 ) ) ;
#163 = ORIENTED_EDGE ( 'NONE', *, *, #25, .F. ) ;
#164 = CARTESIAN_POINT ( 'NONE',  ( -0.04685309999999996700, 5.737849894513086668E-18, 0.3749999999999999445 ) ) ;
#165 = CARTESIAN_POINT ( 'NONE',  ( 0.0000000000000000000, 0.0000000000000000000, 0.0000000000000000000 ) ) ;
#166 = ORIENTED_EDGE ( 'NONE', *, *, #192, .T. ) ;
#167 = CARTESIAN_POINT ( 'NONE',  ( 0.0000000000000000000, 0.0000000000000000000, 1.500000000000000222 ) ) ;
#168 = PRODUCT_RELATED_PRODUCT_CATEGORY ( 'part', '', ( #196 ) ) ;
#169 = FACE_OUTER_BOUND ( 'NONE', #4, .T. ) ;
#170 = CIRCLE ( 'NONE', #297, 0.04750000000000064587 ) ;
#171 = DIRECTION ( 'NONE',  ( 0.1736481776669313026, 0.0000000000000000000, 0.9848077530122077983 ) ) ;
#172 = EDGE_CURVE ( 'NONE', #119, #242, #284, .T. ) ;
#173 = DIRECTION ( 'NONE',  ( 0.0000000000000000000, 0.0000000000000000000, -1.000000000000000000 ) ) ;
#174 = DIRECTION ( 'NONE',  ( -1.224646799147353454E-16, -0.0000000000000000000, -1.000000000000000000 ) ) ;
#175 = ADVANCED_FACE ( 'NONE', ( #185 ), #282, .T. ) ;
#176 = FILL_AREA_STYLE_COLOUR ( '', #115 ) ;
#177 = CYLINDRICAL_SURFACE ( 'NONE', #113, 0.04685310000000001557 ) ;
#178 = SURFACE_STYLE_USAGE ( .BOTH. , #301 ) ;
#179 = CARTESIAN_POINT ( 'NONE',  ( 0.06250000000000002776, 7.654042494670959086E-18, 1.500000000000000222 ) ) ;
#180 = DIRECTION ( 'NONE',  ( 1.000000000000000000, 0.0000000000000000000, 0.0000000000000000000 ) ) ;
#181 = ORIENTED_EDGE ( 'NONE', *, *, #50, .T. ) ;
#182 = VECTOR ( 'NONE', #265, 39.37007874015748143 ) ;
#183 = EDGE_LOOP ( 'NONE', ( #57, #154, #16, #303 ) ) ;
#184 = FACE_OUTER_BOUND ( 'NONE', #248, .T. ) ;
#185 = FACE_OUTER_BOUND ( 'NONE', #250, .T. ) ;
#186 = VECTOR ( 'NONE', #112, 39.37007874015748143 ) ;
#187 = CARTESIAN_POINT ( 'NONE',  ( 4.592425496802575451E-17, 0.0000000000000000000, 0.3749999999999999445 ) ) ;
#188 = DIRECTION ( 'NONE',  ( 0.9238795325112881818, 0.0000000000000000000, 0.3826834323650864511 ) ) ;
#189 = DIRECTION ( 'NONE',  ( -1.224646799147353454E-16, -0.0000000000000000000, -1.000000000000000000 ) ) ;
#190 = CARTESIAN_POINT ( 'NONE',  ( 0.04685310000000005026, 0.0000000000000000000, 0.3749999999999999445 ) ) ;
#191 = DIRECTION ( 'NONE',  ( 1.000000000000000000, 0.0000000000000000000, 0.0000000000000000000 ) ) ;
#192 = EDGE_CURVE ( 'NONE', #55, #68, #61, .T. ) ;
#193 = AXIS2_PLACEMENT_3D ( 'NONE', #138, #142, #240 ) ;
#194 = FACE_OUTER_BOUND ( 'NONE', #155, .T. ) ;
#195 = EDGE_LOOP ( 'NONE', ( #310, #48, #101, #273 ) ) ;
#196 = PRODUCT ( 'Micro_RDD-20', 'Micro_RDD-20', '', ( #129 ) ) ;
#197 = ADVANCED_FACE ( 'NONE', ( #140 ), #37, .T. ) ;
#198 = ORIENTED_EDGE ( 'NONE', *, *, #321, .F. ) ;
#199 = CIRCLE ( 'NONE', #64, 0.04750000000000064587 ) ;
#200 = FILL_AREA_STYLE ('',( #176 ) ) ;
#201 = CARTESIAN_POINT ( 'NONE',  ( 4.592425496802575451E-17, 0.0000000000000000000, 0.3749999999999999445 ) ) ;
#202 = EDGE_LOOP ( 'NONE', ( #84, #238, #222, #34 ) ) ;
#203 = EDGE_LOOP ( 'NONE', ( #76, #166, #289, #15 ) ) ;
#204 = LINE ( 'NONE', #227, #90 ) ;
#205 = CARTESIAN_POINT ( 'NONE',  ( 0.0000000000000000000, 0.0000000000000000000, 0.0000000000000000000 ) ) ;
#206 = CARTESIAN_POINT ( 'NONE',  ( -0.06250000000000002776, 0.0000000000000000000, 1.500000000000000222 ) ) ;
#207 = ADVANCED_FACE ( 'NONE', ( #315 ), #45, .T. ) ;
#208 = DIRECTION ( 'NONE',  ( -0.0000000000000000000, -0.0000000000000000000, -1.000000000000000000 ) ) ;
#209 = VECTOR ( 'NONE', #258, 39.37007874015748143 ) ;
#210 = CARTESIAN_POINT ( 'NONE',  ( -0.06249999999999996531, 0.0000000000000000000, 0.4637379795033759189 ) ) ;
#211 = ORIENTED_EDGE ( 'NONE', *, *, #253, .T. ) ;
#212 = DIRECTION ( 'NONE',  ( 1.000000000000000000, 0.0000000000000000000, 0.0000000000000000000 ) ) ;
#213 = LENGTH_MEASURE_WITH_UNIT ( LENGTH_MEASURE( 0.02539999999999999897 ), #294 );
#214 = ORIENTED_EDGE ( 'NONE', *, *, #116, .F. ) ;
#215 = CARTESIAN_POINT ( 'NONE',  ( 0.0000000000000000000, 0.0000000000000000000, 1.500000000000000222 ) ) ;
#216 = CIRCLE ( 'NONE', #243, 0.04685310000000000863 ) ;
#217 =( GEOMETRIC_REPRESENTATION_CONTEXT ( 3 ) GLOBAL_UNCERTAINTY_ASSIGNED_CONTEXT ( ( #81 ) ) GLOBAL_UNIT_ASSIGNED_CONTEXT ( ( #148, #24, #94 ) ) REPRESENTATION_CONTEXT ( 'NONE', 'WORKASPACE' ) );
#218 = DIRECTION ( 'NONE',  ( 0.0000000000000000000, 0.0000000000000000000, -1.000000000000000000 ) ) ;
#219 = EDGE_LOOP ( 'NONE', ( #308, #211, #320, #307 ) ) ;
#220 = ORIENTED_EDGE ( 'NONE', *, *, #262, .F. ) ;
#221 = AXIS2_PLACEMENT_3D ( 'NONE', #165, #189, #285 ) ;
#222 = ORIENTED_EDGE ( 'NONE', *, *, #293, .T. ) ;
#223 = UNCERTAINTY_MEASURE_WITH_UNIT (LENGTH_MEASURE( 1.000000000000000082E-05 ), #306, 'distance_accuracy_value', 'NONE');
#224 = ADVANCED_FACE ( 'NONE', ( #184 ), #18, .T. ) ;
#225 = APPLICATION_PROTOCOL_DEFINITION ( 'draft international standard', 'automotive_design', 1998, #23 ) ;
#226 = DIRECTION ( 'NONE',  ( -0.0000000000000000000, -0.0000000000000000000, -1.000000000000000000 ) ) ;
#227 = CARTESIAN_POINT ( 'NONE',  ( 0.0000000000000000000, 0.0000000000000000000, 0.0000000000000000000 ) ) ;
#228 = VECTOR ( 'NONE', #159, 39.37007874015748854 ) ;
#229 =( GEOMETRIC_REPRESENTATION_CONTEXT ( 3 ) GLOBAL_UNCERTAINTY_ASSIGNED_CONTEXT ( ( #223 ) ) GLOBAL_UNIT_ASSIGNED_CONTEXT ( ( #306, #32, #105 ) ) REPRESENTATION_CONTEXT ( 'NONE', 'WORKASPACE' ) );
#230 = CIRCLE ( 'NONE', #193, 0.04685310000000001557 ) ;
#231 = CARTESIAN_POINT ( 'NONE',  ( -0.04750000000000064587, 0.0000000000000000000, 1.500000000000000222 ) ) ;
#232 = EDGE_CURVE ( 'NONE', #242, #119, #71, .T. ) ;
#233 = CARTESIAN_POINT ( 'NONE',  ( 0.06250000000000008327, 7.654042494670966789E-18, 0.4637379795033759189 ) ) ;
#234 = ORIENTED_EDGE ( 'NONE', *, *, #87, .T. ) ;
#235 = FACE_OUTER_BOUND ( 'NONE', #219, .T. ) ;
#236 = AXIS2_PLACEMENT_3D ( 'NONE', #215, #173, #296 ) ;
#237 = DIRECTION ( 'NONE',  ( -1.000000000000000000, 0.0000000000000000000, 0.0000000000000000000 ) ) ;
#238 = ORIENTED_EDGE ( 'NONE', *, *, #73, .F. ) ;
#239 = EDGE_CURVE ( 'NONE', #109, #68, #230, .T. ) ;
#240 = DIRECTION ( 'NONE',  ( -1.000000000000000000, 0.0000000000000000000, 9.110416365406792544E-17 ) ) ;
#241 = LENGTH_MEASURE_WITH_UNIT ( LENGTH_MEASURE( 0.02539999999999999897 ), #298 );
#242 = VERTEX_POINT ( 'NONE', #233 ) ;
#243 = AXIS2_PLACEMENT_3D ( 'NONE', #201, #174, #131 ) ;
#244 = VECTOR ( 'NONE', #171, 39.37007874015748143 ) ;
#245 = DIRECTION ( 'NONE',  ( 1.000000000000000000, 0.0000000000000000000, -1.379608302175842074E-16 ) ) ;
#246 = ADVANCED_FACE ( 'NONE', ( #235 ), #132, .T. ) ;
#247 = MECHANICAL_DESIGN_GEOMETRIC_PRESENTATION_REPRESENTATION (  '', ( #41 ), #217 ) ;
#248 = EDGE_LOOP ( 'NONE', ( #56, #133, #292, #220 ) ) ;
#249 = PRESENTATION_STYLE_ASSIGNMENT (( #178 ) ) ;
#250 = EDGE_LOOP ( 'NONE', ( #274, #254 ) ) ;
#251 = CARTESIAN_POINT ( 'NONE',  ( 0.0000000000000000000, 0.0000000000000000000, 0.0000000000000000000 ) ) ;
#252 = CIRCLE ( 'NONE', #322, 0.04685310000000001557 ) ;
#253 = EDGE_CURVE ( 'NONE', #151, #119, #86, .T. ) ;
#254 = ORIENTED_EDGE ( 'NONE', *, *, #256, .T. ) ;
#255 = FACE_OUTER_BOUND ( 'NONE', #195, .T. ) ;
#256 = EDGE_CURVE ( 'NONE', #299, #260, #199, .T. ) ;
#257 = CYLINDRICAL_SURFACE ( 'NONE', #221, 0.04685310000000001557 ) ;
#258 = DIRECTION ( 'NONE',  ( -1.224646799147353454E-16, -0.0000000000000000000, -1.000000000000000000 ) ) ;
#259 = DIRECTION ( 'NONE',  ( -0.1736481776669311083, 2.126576849575782084E-17, 0.9848077530122080203 ) ) ;
#260 = VERTEX_POINT ( 'NONE', #231 ) ;
#261 = DIRECTION ( 'NONE',  ( 1.000000000000000000, 0.0000000000000000000, -0.0000000000000000000 ) ) ;
#262 = EDGE_CURVE ( 'NONE', #79, #119, #117, .T. ) ;
#263 =( GEOMETRIC_REPRESENTATION_CONTEXT ( 3 ) GLOBAL_UNCERTAINTY_ASSIGNED_CONTEXT ( ( #31 ) ) GLOBAL_UNIT_ASSIGNED_CONTEXT ( ( #125, #46, #145 ) ) REPRESENTATION_CONTEXT ( 'NONE', 'WORKASPACE' ) );
#264 = CARTESIAN_POINT ( 'NONE',  ( 0.0000000000000000000, 0.0000000000000000000, 1.500000000000000222 ) ) ;
#265 = DIRECTION ( 'NONE',  ( -0.0000000000000000000, -0.0000000000000000000, -1.000000000000000000 ) ) ;
#266 = CARTESIAN_POINT ( 'NONE',  ( 0.06250000000000002776, 7.654042494670959086E-18, 1.485000000000000764 ) ) ;
#267 = CIRCLE ( 'NONE', #121, 0.06250000000000002776 ) ;
#268 = DIRECTION ( 'NONE',  ( 1.224646799147353454E-16, 0.0000000000000000000, 1.000000000000000000 ) ) ;
#269 = AXIS2_PLACEMENT_3D ( 'NONE', #92, #42, #120 ) ;
#270 = CARTESIAN_POINT ( 'NONE',  ( 4.821444091131313077E-15, 0.0000000000000000000, 39.37007874015748143 ) ) ;
#271 = SURFACE_STYLE_USAGE ( .BOTH. , #1 ) ;
#272 = CARTESIAN_POINT ( 'NONE',  ( 4.592425496802575451E-17, 0.0000000000000000000, 0.3749999999999999445 ) ) ;
#273 = ORIENTED_EDGE ( 'NONE', *, *, #122, .F. ) ;
#274 = ORIENTED_EDGE ( 'NONE', *, *, #116, .T. ) ;
#275 = ADVANCED_FACE ( 'NONE', ( #143 ), #74, .T. ) ;
#276 = LINE ( 'NONE', #158, #228 ) ;
#277 = VECTOR ( 'NONE', #259, 39.37007874015747433 ) ;
#278 = ORIENTED_EDGE ( 'NONE', *, *, #122, .T. ) ;
#279 = ADVANCED_FACE ( 'NONE', ( #169 ), #36, .T. ) ;
#280 = CARTESIAN_POINT ( 'NONE',  ( 0.0000000000000000000, 0.0000000000000000000, 1.500000000000000222 ) ) ;
#281 = ORIENTED_EDGE ( 'NONE', *, *, #50, .F. ) ;
#282 = PLANE ( 'NONE',  #58 ) ;
#283 = VECTOR ( 'NONE', #80, 39.37007874015748854 ) ;
#284 = CIRCLE ( 'NONE', #107, 0.06250000000000002776 ) ;
#285 = DIRECTION ( 'NONE',  ( -1.000000000000000000, 0.0000000000000000000, 1.224646799147353454E-16 ) ) ;
#286 = VERTEX_POINT ( 'NONE', #266 ) ;
#287 = CARTESIAN_POINT ( 'NONE',  ( 0.0000000000000000000, 0.0000000000000000000, 1.500000000000000222 ) ) ;
#288 = DIRECTION ( 'NONE',  ( -1.224646799147353454E-16, -0.0000000000000000000, -1.000000000000000000 ) ) ;
#289 = ORIENTED_EDGE ( 'NONE', *, *, #239, .F. ) ;
#290 = CONICAL_SURFACE ( 'NONE', #10, 0.04750000000000064587, 0.7853981633974466137 ) ;
#291 = STYLED_ITEM ( 'NONE', ( #249 ), #69 ) ;
#292 = ORIENTED_EDGE ( 'NONE', *, *, #172, .F. ) ;
#293 = EDGE_CURVE ( 'NONE', #55, #242, #75, .T. ) ;
#294 =( LENGTH_UNIT ( ) NAMED_UNIT ( * ) SI_UNIT ( $, .METRE. ) );
#295 = FILL_AREA_STYLE_COLOUR ( '', #304 ) ;
#296 = DIRECTION ( 'NONE',  ( -1.000000000000000000, 0.0000000000000000000, 0.0000000000000000000 ) ) ;
#297 = AXIS2_PLACEMENT_3D ( 'NONE', #287, #12, #88 ) ;
#298 =( LENGTH_UNIT ( ) NAMED_UNIT ( * ) SI_UNIT ( $, .METRE. ) );
#299 = VERTEX_POINT ( 'NONE', #21 ) ;
#300 = PRODUCT_DEFINITION_SHAPE ( 'NONE', 'NONE',  #27 ) ;
#301 = SURFACE_SIDE_STYLE ('',( #102 ) ) ;
#302 = DIRECTION ( 'NONE',  ( -1.224646799147353454E-16, -0.0000000000000000000, -1.000000000000000000 ) ) ;
#303 = ORIENTED_EDGE ( 'NONE', *, *, #232, .F. ) ;
#304 = COLOUR_RGB ( '',0.7921568627450980005, 0.8196078431372548767, 0.9333333333333333481 ) ;
#305 = ADVANCED_FACE ( 'NONE', ( #194 ), #127, .T. ) ;
#306 =( CONVERSION_BASED_UNIT ( 'INCH', #157 ) LENGTH_UNIT ( ) NAMED_UNIT ( #78 ) );
#307 = ORIENTED_EDGE ( 'NONE', *, *, #293, .F. ) ;
#308 = ORIENTED_EDGE ( 'NONE', *, *, #20, .F. ) ;
#309 = ORIENTED_EDGE ( 'NONE', *, *, #25, .T. ) ;
#310 = ORIENTED_EDGE ( 'NONE', *, *, #192, .F. ) ;
#311 = VECTOR ( 'NONE', #226, 39.37007874015748143 ) ;
#312 = CARTESIAN_POINT ( 'NONE',  ( 0.04685310000000001557, 5.737849894513087439E-18, -5.737849894513088209E-18 ) ) ;
#313 = MANIFOLD_SOLID_BREP ( 'Cut-Revolve1', #97 ) ;
#314 = DIRECTION ( 'NONE',  ( 0.0000000000000000000, 0.0000000000000000000, -1.000000000000000000 ) ) ;
#315 = FACE_OUTER_BOUND ( 'NONE', #38, .T. ) ;
#316 = CARTESIAN_POINT ( 'NONE',  ( 2.376695245168331190E-18, 0.0000000000000000000, 0.01940718945922267902 ) ) ;
#317 = VERTEX_POINT ( 'NONE', #44 ) ;
#318 = LINE ( 'NONE', #205, #77 ) ;
#319 = DIRECTION ( 'NONE',  ( 0.0000000000000000000, 0.0000000000000000000, -1.000000000000000000 ) ) ;
#320 = ORIENTED_EDGE ( 'NONE', *, *, #172, .T. ) ;
#321 = EDGE_CURVE ( 'NONE', #79, #286, #49, .T. ) ;
#322 = AXIS2_PLACEMENT_3D ( 'NONE', #316, #288, #91 ) ;
#323 = FILL_AREA_STYLE ('',( #295 ) ) ;
ENDSEC;
END-ISO-10303-21;
