ISO-10303-21;
HEADER;
FILE_DESCRIPTION (( 'STEP AP214' ),
    '1' );
FILE_NAME ('Micro_SME-030-2X.STEP',
    '2021-09-02T11:39:33',
    ( '' ),
    ( '' ),
    'SwSTEP 2.0',
    'SolidWorks 2020',
    '' );
FILE_SCHEMA (( 'AUTOMOTIVE_DESIGN' ));
ENDSEC;

DATA;
#1 = ORIENTED_EDGE ( 'NONE', *, *, #87, .T. ) ;
#2 = PRODUCT_RELATED_PRODUCT_CATEGORY ( 'part', '', ( #96 ) ) ;
#3 = PLANE ( 'NONE',  #31 ) ;
#4 = CARTESIAN_POINT ( 'NONE',  ( -0.06250000000000002776, 0.0000000000000000000, 1.500000000000000222 ) ) ;
#5 = CARTESIAN_POINT ( 'NONE',  ( 3.851158492727680563E-17, 0.0000000000000000000, 0.3144709556591341881 ) ) ;
#6 = PRODUCT_DEFINITION_SHAPE ( 'NONE', 'NONE',  #222 ) ;
#7 =( LENGTH_UNIT ( ) NAMED_UNIT ( * ) SI_UNIT ( $, .METRE. ) );
#8 = CARTESIAN_POINT ( 'NONE',  ( -0.06249999999999997918, 0.0000000000000000000, 0.3144709556591341881 ) ) ;
#9 = SURFACE_SIDE_STYLE ('',( #129 ) ) ;
#10 = ORIENTED_EDGE ( 'NONE', *, *, #116, .T. ) ;
#11 = PLANE ( 'NONE',  #133 ) ;
#12 =( CONVERSION_BASED_UNIT ( 'INCH', #293 ) LENGTH_UNIT ( ) NAMED_UNIT ( #121 ) );
#13 = ORIENTED_EDGE ( 'NONE', *, *, #116, .F. ) ;
#14 = EDGE_CURVE ( 'NONE', #207, #108, #204, .T. ) ;
#15 = AXIS2_PLACEMENT_3D ( 'NONE', #217, #85, #242 ) ;
#16 = CARTESIAN_POINT ( 'NONE',  ( 0.0000000000000000000, 0.0000000000000000000, 1.485000000000000764 ) ) ;
#17 = CARTESIAN_POINT ( 'NONE',  ( -0.06250000000000002776, 0.0000000000000000000, 1.485000000000000764 ) ) ;
#18 = FILL_AREA_STYLE ('',( #226 ) ) ;
#19 = UNCERTAINTY_MEASURE_WITH_UNIT (LENGTH_MEASURE( 1.000000000000000082E-05 ), #57, 'distance_accuracy_value', 'NONE');
#20 = AXIS2_PLACEMENT_3D ( 'NONE', #197, #82, #198 ) ;
#21 = ADVANCED_FACE ( 'NONE', ( #237 ), #11, .T. ) ;
#22 = ORIENTED_EDGE ( 'NONE', *, *, #87, .F. ) ;
#23 = DIMENSIONAL_EXPONENTS ( 1.000000000000000000, 0.0000000000000000000, 0.0000000000000000000, 0.0000000000000000000, 0.0000000000000000000, 0.0000000000000000000, 0.0000000000000000000 ) ;
#24 = ORIENTED_EDGE ( 'NONE', *, *, #62, .F. ) ;
#25 = EDGE_LOOP ( 'NONE', ( #253, #101, #13, #132 ) ) ;
#26 = EDGE_CURVE ( 'NONE', #130, #207, #238, .T. ) ;
#27 = SURFACE_STYLE_FILL_AREA ( #18 ) ;
#28 = DIRECTION ( 'NONE',  ( -1.000000000000000000, 0.0000000000000000000, 0.0000000000000000000 ) ) ;
#29 = EDGE_LOOP ( 'NONE', ( #277, #137, #256, #264 ) ) ;
#30 = VECTOR ( 'NONE', #92, 39.37007874015748854 ) ;
#31 = AXIS2_PLACEMENT_3D ( 'NONE', #234, #38, #35 ) ;
#32 = ADVANCED_FACE ( 'NONE', ( #55 ), #193, .T. ) ;
#33 = EDGE_LOOP ( 'NONE', ( #285, #174, #24, #266 ) ) ;
#34 = CARTESIAN_POINT ( 'NONE',  ( 0.0000000000000000000, 0.0000000000000000000, 1.500000000000000222 ) ) ;
#35 = DIRECTION ( 'NONE',  ( 1.000000000000000000, 0.0000000000000000000, -0.0000000000000000000 ) ) ;
#36 = FACE_OUTER_BOUND ( 'NONE', #144, .T. ) ;
#37 = CARTESIAN_POINT ( 'NONE',  ( 0.0000000000000000000, 0.0000000000000000000, 1.500000000000000222 ) ) ;
#38 = DIRECTION ( 'NONE',  ( 0.0000000000000000000, 0.0000000000000000000, 1.000000000000000000 ) ) ;
#39 = CYLINDRICAL_SURFACE ( 'NONE', #20, 0.06250000000000002776 ) ;
#40 = EDGE_CURVE ( 'NONE', #255, #232, #97, .T. ) ;
#41 = DIRECTION ( 'NONE',  ( -1.224646799147353700E-16, -0.0000000000000000000, -1.000000000000000000 ) ) ;
#42 = CARTESIAN_POINT ( 'NONE',  ( 3.851158492727680563E-17, 0.0000000000000000000, 0.3144709556591341881 ) ) ;
#43 = APPLICATION_CONTEXT ( 'automotive_design' ) ;
#44 = AXIS2_PLACEMENT_3D ( 'NONE', #245, #227, #269 ) ;
#45 =( GEOMETRIC_REPRESENTATION_CONTEXT ( 3 ) GLOBAL_UNCERTAINTY_ASSIGNED_CONTEXT ( ( #274 ) ) GLOBAL_UNIT_ASSIGNED_CONTEXT ( ( #189, #54, #146 ) ) REPRESENTATION_CONTEXT ( 'NONE', 'WORKASPACE' ) );
#46 = CARTESIAN_POINT ( 'NONE',  ( 5.510910596163091096E-18, 0.0000000000000000000, 0.04499999999999999833 ) ) ;
#47 =( GEOMETRIC_REPRESENTATION_CONTEXT ( 3 ) GLOBAL_UNCERTAINTY_ASSIGNED_CONTEXT ( ( #69 ) ) GLOBAL_UNIT_ASSIGNED_CONTEXT ( ( #12, #221, #60 ) ) REPRESENTATION_CONTEXT ( 'NONE', 'WORKASPACE' ) );
#48 = ADVANCED_FACE ( 'NONE', ( #287 ), #39, .T. ) ;
#49 = ORIENTED_EDGE ( 'NONE', *, *, #188, .T. ) ;
#50 = SURFACE_STYLE_USAGE ( .BOTH. , #254 ) ;
#51 = DIMENSIONAL_EXPONENTS ( 1.000000000000000000, 0.0000000000000000000, 0.0000000000000000000, 0.0000000000000000000, 0.0000000000000000000, 0.0000000000000000000, 0.0000000000000000000 ) ;
#52 = ORIENTED_EDGE ( 'NONE', *, *, #218, .T. ) ;
#53 = FACE_OUTER_BOUND ( 'NONE', #33, .T. ) ;
#54 =( NAMED_UNIT ( * ) PLANE_ANGLE_UNIT ( ) SI_UNIT ( $, .RADIAN. ) );
#55 = FACE_OUTER_BOUND ( 'NONE', #120, .T. ) ;
#56 = CIRCLE ( 'NONE', #275, 0.06250000000000002776 ) ;
#57 =( CONVERSION_BASED_UNIT ( 'INCH', #278 ) LENGTH_UNIT ( ) NAMED_UNIT ( #23 ) );
#58 = ORIENTED_EDGE ( 'NONE', *, *, #70, .F. ) ;
#59 = VERTEX_POINT ( 'NONE', #169 ) ;
#60 =( NAMED_UNIT ( * ) SI_UNIT ( $, .STERADIAN. ) SOLID_ANGLE_UNIT ( ) );
#61 = DIRECTION ( 'NONE',  ( -1.000000000000000000, 0.0000000000000000000, 1.224646799147353700E-16 ) ) ;
#62 = EDGE_CURVE ( 'NONE', #119, #130, #139, .T. ) ;
#63 =( GEOMETRIC_REPRESENTATION_CONTEXT ( 3 ) GLOBAL_UNCERTAINTY_ASSIGNED_CONTEXT ( ( #19 ) ) GLOBAL_UNIT_ASSIGNED_CONTEXT ( ( #57, #259, #208 ) ) REPRESENTATION_CONTEXT ( 'NONE', 'WORKASPACE' ) );
#64 = CARTESIAN_POINT ( 'NONE',  ( 0.0000000000000000000, 0.0000000000000000000, 1.485000000000000764 ) ) ;
#65 = CARTESIAN_POINT ( 'NONE',  ( 5.510910596163091096E-18, 0.0000000000000000000, 0.04499999999999999833 ) ) ;
#66 = DIRECTION ( 'NONE',  ( -1.224646799147353700E-16, -0.0000000000000000000, -1.000000000000000000 ) ) ;
#67 = AXIS2_PLACEMENT_3D ( 'NONE', #260, #151, #236 ) ;
#68 = LINE ( 'NONE', #115, #290 ) ;
#69 = UNCERTAINTY_MEASURE_WITH_UNIT (LENGTH_MEASURE( 1.000000000000000082E-05 ), #12, 'distance_accuracy_value', 'NONE');
#70 = EDGE_CURVE ( 'NONE', #232, #255, #71, .T. ) ;
#71 = CIRCLE ( 'NONE', #240, 0.01498500000000000006 ) ;
#72 = CONICAL_SURFACE ( 'NONE', #209, 0.04750000000000064587, 0.7853981633974466137 ) ;
#73 = LENGTH_MEASURE_WITH_UNIT ( LENGTH_MEASURE( 0.02539999999999999897 ), #136 );
#74 = DIRECTION ( 'NONE',  ( 1.000000000000000000, 0.0000000000000000000, 0.0000000000000000000 ) ) ;
#75 = DIRECTION ( 'NONE',  ( 0.1736481776669313304, 0.0000000000000000000, 0.9848077530122077983 ) ) ;
#76 = CARTESIAN_POINT ( 'NONE',  ( 5.510910596163091096E-18, 0.0000000000000000000, 0.04499999999999999833 ) ) ;
#77 = DIRECTION ( 'NONE',  ( -0.0000000000000000000, -0.0000000000000000000, -1.000000000000000000 ) ) ;
#78 = AXIS2_PLACEMENT_3D ( 'NONE', #262, #41, #61 ) ;
#79 = ORIENTED_EDGE ( 'NONE', *, *, #141, .T. ) ;
#80 = DIRECTION ( 'NONE',  ( -1.000000000000000000, 0.0000000000000000000, 1.224646799147353700E-16 ) ) ;
#81 = CYLINDRICAL_SURFACE ( 'NONE', #140, 0.01498500000000000006 ) ;
#82 = DIRECTION ( 'NONE',  ( -0.0000000000000000000, -0.0000000000000000000, -1.000000000000000000 ) ) ;
#83 = DIRECTION ( 'NONE',  ( 1.000000000000000000, 0.0000000000000000000, 0.0000000000000000000 ) ) ;
#84 = ORIENTED_EDGE ( 'NONE', *, *, #164, .F. ) ;
#85 = DIRECTION ( 'NONE',  ( 0.0000000000000000000, 0.0000000000000000000, 1.000000000000000000 ) ) ;
#86 = MECHANICAL_DESIGN_GEOMETRIC_PRESENTATION_REPRESENTATION (  '', ( #98 ), #47 ) ;
#87 = EDGE_CURVE ( 'NONE', #270, #59, #158, .T. ) ;
#88 = DIRECTION ( 'NONE',  ( -1.224646799147353700E-16, -0.0000000000000000000, -1.000000000000000000 ) ) ;
#89 = DIRECTION ( 'NONE',  ( -0.1736481776669311639, 2.126576849575782392E-17, 0.9848077530122080203 ) ) ;
#90 = AXIS2_PLACEMENT_3D ( 'NONE', #5, #213, #219 ) ;
#91 = EDGE_CURVE ( 'NONE', #59, #270, #184, .T. ) ;
#92 = DIRECTION ( 'NONE',  ( -0.7071067811865462405, 0.0000000000000000000, -0.7071067811865486830 ) ) ;
#93 = ORIENTED_EDGE ( 'NONE', *, *, #163, .F. ) ;
#94 = ADVANCED_BREP_SHAPE_REPRESENTATION ( 'Micro_SME-030-2X', ( #201, #15 ), #63 ) ;
#95 = EDGE_LOOP ( 'NONE', ( #154, #179, #194, #104 ) ) ;
#96 = PRODUCT ( 'Micro_SME-030-2X', 'Micro_SME-030-2X', '', ( #211 ) ) ;
#97 = CIRCLE ( 'NONE', #78, 0.01498500000000000006 ) ;
#98 = STYLED_ITEM ( 'NONE', ( #191 ), #94 ) ;
#99 = FACE_OUTER_BOUND ( 'NONE', #143, .T. ) ;
#100 = DIRECTION ( 'NONE',  ( 0.0000000000000000000, 0.0000000000000000000, -1.000000000000000000 ) ) ;
#101 = ORIENTED_EDGE ( 'NONE', *, *, #26, .T. ) ;
#102 = SURFACE_STYLE_USAGE ( .BOTH. , #9 ) ;
#103 = CARTESIAN_POINT ( 'NONE',  ( 0.06250000000000006939, 7.654042494670963708E-18, 0.3144709556591341881 ) ) ;
#104 = ORIENTED_EDGE ( 'NONE', *, *, #14, .F. ) ;
#105 = VECTOR ( 'NONE', #66, 39.37007874015748143 ) ;
#106 = DIRECTION ( 'NONE',  ( -1.224646799147353700E-16, -0.0000000000000000000, -1.000000000000000000 ) ) ;
#107 = DIRECTION ( 'NONE',  ( 0.0000000000000000000, 0.0000000000000000000, -1.000000000000000000 ) ) ;
#108 = VERTEX_POINT ( 'NONE', #8 ) ;
#109 = LINE ( 'NONE', #223, #228 ) ;
#110 = COLOUR_RGB ( '',0.7921568627450980005, 0.8196078431372548767, 0.9333333333333333481 ) ;
#111 = AXIS2_PLACEMENT_3D ( 'NONE', #16, #289, #112 ) ;
#112 = DIRECTION ( 'NONE',  ( 1.000000000000000000, 0.0000000000000000000, 0.0000000000000000000 ) ) ;
#113 = DIRECTION ( 'NONE',  ( 1.000000000000000000, 0.0000000000000000000, 0.0000000000000000000 ) ) ;
#114 = SHAPE_DEFINITION_REPRESENTATION ( #6, #94 ) ;
#115 = CARTESIAN_POINT ( 'NONE',  ( -0.01498499999999999485, 1.835133228522308816E-18, 0.04499999999999999833 ) ) ;
#116 = EDGE_CURVE ( 'NONE', #108, #207, #56, .T. ) ;
#117 = DIRECTION ( 'NONE',  ( 1.000000000000000000, 0.0000000000000000000, 0.0000000000000000000 ) ) ;
#118 = ADVANCED_FACE ( 'NONE', ( #220 ), #246, .T. ) ;
#119 = VERTEX_POINT ( 'NONE', #17 ) ;
#120 = EDGE_LOOP ( 'NONE', ( #84, #22, #49, #142 ) ) ;
#121 = DIMENSIONAL_EXPONENTS ( 1.000000000000000000, 0.0000000000000000000, 0.0000000000000000000, 0.0000000000000000000, 0.0000000000000000000, 0.0000000000000000000, 0.0000000000000000000 ) ;
#122 = CLOSED_SHELL ( 'NONE', ( #282, #118, #229, #292, #48, #21, #32, #206, #244, #272 ) ) ;
#123 = EDGE_CURVE ( 'NONE', #147, #108, #68, .T. ) ;
#124 = CARTESIAN_POINT ( 'NONE',  ( 0.01498500000000000006, 1.835133228522308816E-18, 0.0000000000000000000 ) ) ;
#125 = APPLICATION_CONTEXT ( 'automotive_design' ) ;
#126 = AXIS2_PLACEMENT_3D ( 'NONE', #279, #190, #74 ) ;
#127 = ORIENTED_EDGE ( 'NONE', *, *, #263, .F. ) ;
#128 = DIRECTION ( 'NONE',  ( -1.000000000000000000, 0.0000000000000000000, 0.0000000000000000000 ) ) ;
#129 = SURFACE_STYLE_FILL_AREA ( #153 ) ;
#130 = VERTEX_POINT ( 'NONE', #138 ) ;
#131 = CARTESIAN_POINT ( 'NONE',  ( 0.01498500000000000699, 0.0000000000000000000, 0.04499999999999999833 ) ) ;
#132 = ORIENTED_EDGE ( 'NONE', *, *, #233, .F. ) ;
#133 = AXIS2_PLACEMENT_3D ( 'NONE', #34, #210, #241 ) ;
#134 = VECTOR ( 'NONE', #196, 39.37007874015748143 ) ;
#135 = FACE_OUTER_BOUND ( 'NONE', #25, .T. ) ;
#136 =( LENGTH_UNIT ( ) NAMED_UNIT ( * ) SI_UNIT ( $, .METRE. ) );
#137 = ORIENTED_EDGE ( 'NONE', *, *, #163, .T. ) ;
#138 = CARTESIAN_POINT ( 'NONE',  ( 0.06250000000000002776, 7.654042494670959086E-18, 1.485000000000000764 ) ) ;
#139 = CIRCLE ( 'NONE', #251, 0.06250000000000002776 ) ;
#140 = AXIS2_PLACEMENT_3D ( 'NONE', #265, #165, #186 ) ;
#141 = EDGE_CURVE ( 'NONE', #147, #255, #200, .T. ) ;
#142 = ORIENTED_EDGE ( 'NONE', *, *, #258, .F. ) ;
#143 = EDGE_LOOP ( 'NONE', ( #93, #52, #79, #58 ) ) ;
#144 = EDGE_LOOP ( 'NONE', ( #281, #216, #205, #243 ) ) ;
#145 = CYLINDRICAL_SURFACE ( 'NONE', #296, 0.01498500000000000006 ) ;
#146 =( NAMED_UNIT ( * ) SI_UNIT ( $, .STERADIAN. ) SOLID_ANGLE_UNIT ( ) );
#147 = VERTEX_POINT ( 'NONE', #177 ) ;
#148 = APPLICATION_PROTOCOL_DEFINITION ( 'draft international standard', 'automotive_design', 1998, #125 ) ;
#149 = CARTESIAN_POINT ( 'NONE',  ( -0.01498500000000000006, 0.0000000000000000000, 3.670266457044619172E-18 ) ) ;
#150 = MECHANICAL_DESIGN_GEOMETRIC_PRESENTATION_REPRESENTATION (  '', ( #224 ), #45 ) ;
#151 = DIRECTION ( 'NONE',  ( 0.0000000000000000000, 0.0000000000000000000, 1.000000000000000000 ) ) ;
#152 = PRESENTATION_LAYER_ASSIGNMENT (  '', '', ( #98 ) ) ;
#153 = FILL_AREA_STYLE ('',( #167 ) ) ;
#154 = ORIENTED_EDGE ( 'NONE', *, *, #26, .F. ) ;
#155 = CARTESIAN_POINT ( 'NONE',  ( 0.0000000000000000000, 0.0000000000000000000, 1.500000000000000222 ) ) ;
#156 = ORIENTED_EDGE ( 'NONE', *, *, #182, .F. ) ;
#157 = EDGE_LOOP ( 'NONE', ( #1, #172 ) ) ;
#158 = CIRCLE ( 'NONE', #126, 0.04750000000000064587 ) ;
#159 = DIRECTION ( 'NONE',  ( -1.000000000000000000, 0.0000000000000000000, 1.224646799147353700E-16 ) ) ;
#160 = CIRCLE ( 'NONE', #44, 0.01498500000000000006 ) ;
#161 = CIRCLE ( 'NONE', #111, 0.06250000000000002776 ) ;
#162 = ORIENTED_EDGE ( 'NONE', *, *, #70, .T. ) ;
#163 = EDGE_CURVE ( 'NONE', #214, #232, #109, .T. ) ;
#164 = EDGE_CURVE ( 'NONE', #59, #130, #250, .T. ) ;
#165 = DIRECTION ( 'NONE',  ( -1.224646799147353700E-16, -0.0000000000000000000, -1.000000000000000000 ) ) ;
#166 = CARTESIAN_POINT ( 'NONE',  ( 0.06250000000000002776, 7.654042494670959086E-18, 1.500000000000000222 ) ) ;
#167 = FILL_AREA_STYLE_COLOUR ( '', #284 ) ;
#168 = CARTESIAN_POINT ( 'NONE',  ( 0.0000000000000000000, 0.0000000000000000000, 1.500000000000000222 ) ) ;
#169 = CARTESIAN_POINT ( 'NONE',  ( 0.04750000000000064587, 6.735557395310483192E-18, 1.500000000000000222 ) ) ;
#170 = VECTOR ( 'NONE', #75, 39.37007874015748143 ) ;
#171 =( LENGTH_UNIT ( ) NAMED_UNIT ( * ) SI_UNIT ( $, .METRE. ) );
#172 = ORIENTED_EDGE ( 'NONE', *, *, #91, .T. ) ;
#173 = DIRECTION ( 'NONE',  ( -1.000000000000000000, 0.0000000000000000000, 0.0000000000000000000 ) ) ;
#174 = ORIENTED_EDGE ( 'NONE', *, *, #164, .T. ) ;
#175 = CARTESIAN_POINT ( 'NONE',  ( 2.247390034318795518E-34, 0.0000000000000000000, 1.835133228522309586E-18 ) ) ;
#176 = LINE ( 'NONE', #231, #170 ) ;
#177 = CARTESIAN_POINT ( 'NONE',  ( -0.01498499999999999485, 4.744587861596634336E-18, 0.04499999999999999833 ) ) ;
#178 = CARTESIAN_POINT ( 'NONE',  ( -0.04750000000000064587, 0.0000000000000000000, 1.500000000000000222 ) ) ;
#179 = ORIENTED_EDGE ( 'NONE', *, *, #258, .T. ) ;
#180 = PRODUCT_DEFINITION_FORMATION_WITH_SPECIFIED_SOURCE ( 'ANY', '', #96, .NOT_KNOWN. ) ;
#181 = EDGE_LOOP ( 'NONE', ( #156, #297, #10, #127 ) ) ;
#182 = EDGE_CURVE ( 'NONE', #147, #214, #160, .T. ) ;
#183 = CYLINDRICAL_SURFACE ( 'NONE', #273, 0.06250000000000002776 ) ;
#184 = CIRCLE ( 'NONE', #67, 0.04750000000000064587 ) ;
#185 = CARTESIAN_POINT ( 'NONE',  ( -0.04750000000000064587, 0.0000000000000000000, 1.500000000000000222 ) ) ;
#186 = DIRECTION ( 'NONE',  ( -1.000000000000000000, 0.0000000000000000000, 1.224646799147353700E-16 ) ) ;
#187 = EDGE_LOOP ( 'NONE', ( #252, #162 ) ) ;
#188 = EDGE_CURVE ( 'NONE', #270, #119, #225, .T. ) ;
#189 =( CONVERSION_BASED_UNIT ( 'INCH', #73 ) LENGTH_UNIT ( ) NAMED_UNIT ( #51 ) );
#190 = DIRECTION ( 'NONE',  ( 0.0000000000000000000, 0.0000000000000000000, 1.000000000000000000 ) ) ;
#191 = PRESENTATION_STYLE_ASSIGNMENT (( #102 ) ) ;
#192 = DIRECTION ( 'NONE',  ( -1.000000000000000000, 0.0000000000000000000, 0.0000000000000000000 ) ) ;
#193 = CONICAL_SURFACE ( 'NONE', #283, 0.04750000000000064587, 0.7853981633974466137 ) ;
#194 = ORIENTED_EDGE ( 'NONE', *, *, #233, .T. ) ;
#195 = FACE_OUTER_BOUND ( 'NONE', #187, .T. ) ;
#196 = DIRECTION ( 'NONE',  ( -0.0000000000000000000, -0.0000000000000000000, -1.000000000000000000 ) ) ;
#197 = CARTESIAN_POINT ( 'NONE',  ( 0.0000000000000000000, 0.0000000000000000000, 1.500000000000000222 ) ) ;
#198 = DIRECTION ( 'NONE',  ( -1.000000000000000000, 0.0000000000000000000, 0.0000000000000000000 ) ) ;
#199 = DIRECTION ( 'NONE',  ( 1.224646799147353700E-16, 0.0000000000000000000, 1.000000000000000000 ) ) ;
#200 = LINE ( 'NONE', #249, #105 ) ;
#201 = MANIFOLD_SOLID_BREP ( 'Cut-Revolve1', #122 ) ;
#202 = PRODUCT_DEFINITION_CONTEXT ( 'detailed design', #43, 'design' ) ;
#203 = CARTESIAN_POINT ( 'NONE',  ( 0.04750000000000064587, 5.817072295950006528E-18, 1.500000000000000222 ) ) ;
#204 = CIRCLE ( 'NONE', #90, 0.06250000000000002776 ) ;
#205 = ORIENTED_EDGE ( 'NONE', *, *, #263, .T. ) ;
#206 = ADVANCED_FACE ( 'NONE', ( #36 ), #299, .T. ) ;
#207 = VERTEX_POINT ( 'NONE', #103 ) ;
#208 =( NAMED_UNIT ( * ) SI_UNIT ( $, .STERADIAN. ) SOLID_ANGLE_UNIT ( ) );
#209 = AXIS2_PLACEMENT_3D ( 'NONE', #168, #261, #192 ) ;
#210 = DIRECTION ( 'NONE',  ( 0.0000000000000000000, 0.0000000000000000000, 1.000000000000000000 ) ) ;
#211 = PRODUCT_CONTEXT ( 'NONE', #125, 'mechanical' ) ;
#212 = FACE_OUTER_BOUND ( 'NONE', #29, .T. ) ;
#213 = DIRECTION ( 'NONE',  ( -1.224646799147353700E-16, -0.0000000000000000000, -1.000000000000000000 ) ) ;
#214 = VERTEX_POINT ( 'NONE', #131 ) ;
#215 = LINE ( 'NONE', #4, #134 ) ;
#216 = ORIENTED_EDGE ( 'NONE', *, *, #218, .F. ) ;
#217 = CARTESIAN_POINT ( 'NONE',  ( 0.0000000000000000000, 0.0000000000000000000, 0.0000000000000000000 ) ) ;
#218 = EDGE_CURVE ( 'NONE', #214, #147, #267, .T. ) ;
#219 = DIRECTION ( 'NONE',  ( 1.000000000000000000, 0.0000000000000000000, 0.0000000000000000000 ) ) ;
#220 = FACE_OUTER_BOUND ( 'NONE', #181, .T. ) ;
#221 =( NAMED_UNIT ( * ) PLANE_ANGLE_UNIT ( ) SI_UNIT ( $, .RADIAN. ) );
#222 = PRODUCT_DEFINITION ( 'UNKNOWN', '', #180, #202 ) ;
#223 = CARTESIAN_POINT ( 'NONE',  ( 0.01498500000000000006, 1.835133228522308816E-18, -1.835133228522309586E-18 ) ) ;
#224 = STYLED_ITEM ( 'NONE', ( #239 ), #201 ) ;
#225 = LINE ( 'NONE', #178, #30 ) ;
#226 = FILL_AREA_STYLE_COLOUR ( '', #110 ) ;
#227 = DIRECTION ( 'NONE',  ( -1.224646799147353700E-16, -0.0000000000000000000, -1.000000000000000000 ) ) ;
#228 = VECTOR ( 'NONE', #88, 39.37007874015748143 ) ;
#229 = ADVANCED_FACE ( 'NONE', ( #53 ), #72, .T. ) ;
#230 = AXIS2_PLACEMENT_3D ( 'NONE', #65, #199, #117 ) ;
#231 = CARTESIAN_POINT ( 'NONE',  ( 0.01498500000000000699, 0.0000000000000000000, 0.04499999999999999833 ) ) ;
#232 = VERTEX_POINT ( 'NONE', #124 ) ;
#233 = EDGE_CURVE ( 'NONE', #119, #108, #215, .T. ) ;
#234 = CARTESIAN_POINT ( 'NONE',  ( 0.0000000000000000000, 0.0000000000000000000, 0.0000000000000000000 ) ) ;
#235 = DIRECTION ( 'NONE',  ( 1.224646799147353700E-16, 0.0000000000000000000, 1.000000000000000000 ) ) ;
#236 = DIRECTION ( 'NONE',  ( 1.000000000000000000, 0.0000000000000000000, 0.0000000000000000000 ) ) ;
#237 = FACE_OUTER_BOUND ( 'NONE', #157, .T. ) ;
#238 = LINE ( 'NONE', #166, #295 ) ;
#239 = PRESENTATION_STYLE_ASSIGNMENT (( #50 ) ) ;
#240 = AXIS2_PLACEMENT_3D ( 'NONE', #175, #268, #159 ) ;
#241 = DIRECTION ( 'NONE',  ( 1.000000000000000000, 0.0000000000000000000, -0.0000000000000000000 ) ) ;
#242 = DIRECTION ( 'NONE',  ( 1.000000000000000000, 0.0000000000000000000, 0.0000000000000000000 ) ) ;
#243 = ORIENTED_EDGE ( 'NONE', *, *, #14, .T. ) ;
#244 = ADVANCED_FACE ( 'NONE', ( #99 ), #81, .T. ) ;
#245 = CARTESIAN_POINT ( 'NONE',  ( 5.510910596163091096E-18, 0.0000000000000000000, 0.04499999999999999833 ) ) ;
#246 = CONICAL_SURFACE ( 'NONE', #230, 0.01498500000000000006, 0.1745329251994338360 ) ;
#247 = AXIS2_PLACEMENT_3D ( 'NONE', #46, #235, #83 ) ;
#248 = AXIS2_PLACEMENT_3D ( 'NONE', #76, #106, #28 ) ;
#249 = CARTESIAN_POINT ( 'NONE',  ( -0.01498500000000000006, 0.0000000000000000000, 1.835133228522309586E-18 ) ) ;
#250 = LINE ( 'NONE', #203, #298 ) ;
#251 = AXIS2_PLACEMENT_3D ( 'NONE', #64, #100, #288 ) ;
#252 = ORIENTED_EDGE ( 'NONE', *, *, #40, .T. ) ;
#253 = ORIENTED_EDGE ( 'NONE', *, *, #62, .T. ) ;
#254 = SURFACE_SIDE_STYLE ('',( #27 ) ) ;
#255 = VERTEX_POINT ( 'NONE', #149 ) ;
#256 = ORIENTED_EDGE ( 'NONE', *, *, #40, .F. ) ;
#257 = CARTESIAN_POINT ( 'NONE',  ( 0.0000000000000000000, 0.0000000000000000000, 0.0000000000000000000 ) ) ;
#258 = EDGE_CURVE ( 'NONE', #130, #119, #161, .T. ) ;
#259 =( NAMED_UNIT ( * ) PLANE_ANGLE_UNIT ( ) SI_UNIT ( $, .RADIAN. ) );
#260 = CARTESIAN_POINT ( 'NONE',  ( 0.0000000000000000000, 0.0000000000000000000, 1.500000000000000222 ) ) ;
#261 = DIRECTION ( 'NONE',  ( 0.0000000000000000000, 0.0000000000000000000, -1.000000000000000000 ) ) ;
#262 = CARTESIAN_POINT ( 'NONE',  ( 2.247390034318795518E-34, 0.0000000000000000000, 1.835133228522309586E-18 ) ) ;
#263 = EDGE_CURVE ( 'NONE', #214, #207, #176, .T. ) ;
#264 = ORIENTED_EDGE ( 'NONE', *, *, #141, .F. ) ;
#265 = CARTESIAN_POINT ( 'NONE',  ( 0.0000000000000000000, 0.0000000000000000000, 0.0000000000000000000 ) ) ;
#266 = ORIENTED_EDGE ( 'NONE', *, *, #188, .F. ) ;
#267 = CIRCLE ( 'NONE', #248, 0.01498500000000000006 ) ;
#268 = DIRECTION ( 'NONE',  ( -1.224646799147353700E-16, -0.0000000000000000000, -1.000000000000000000 ) ) ;
#269 = DIRECTION ( 'NONE',  ( -1.000000000000000000, 0.0000000000000000000, 0.0000000000000000000 ) ) ;
#270 = VERTEX_POINT ( 'NONE', #185 ) ;
#271 = PRESENTATION_LAYER_ASSIGNMENT (  '', '', ( #224 ) ) ;
#272 = ADVANCED_FACE ( 'NONE', ( #195 ), #3, .F. ) ;
#273 = AXIS2_PLACEMENT_3D ( 'NONE', #155, #276, #173 ) ;
#274 = UNCERTAINTY_MEASURE_WITH_UNIT (LENGTH_MEASURE( 1.000000000000000082E-05 ), #189, 'distance_accuracy_value', 'NONE');
#275 = AXIS2_PLACEMENT_3D ( 'NONE', #42, #291, #113 ) ;
#276 = DIRECTION ( 'NONE',  ( -0.0000000000000000000, -0.0000000000000000000, -1.000000000000000000 ) ) ;
#277 = ORIENTED_EDGE ( 'NONE', *, *, #182, .T. ) ;
#278 = LENGTH_MEASURE_WITH_UNIT ( LENGTH_MEASURE( 0.02539999999999999897 ), #7 );
#279 = CARTESIAN_POINT ( 'NONE',  ( 0.0000000000000000000, 0.0000000000000000000, 1.500000000000000222 ) ) ;
#280 = APPLICATION_PROTOCOL_DEFINITION ( 'draft international standard', 'automotive_design', 1998, #43 ) ;
#281 = ORIENTED_EDGE ( 'NONE', *, *, #123, .F. ) ;
#282 = ADVANCED_FACE ( 'NONE', ( #212 ), #145, .T. ) ;
#283 = AXIS2_PLACEMENT_3D ( 'NONE', #37, #107, #128 ) ;
#284 = COLOUR_RGB ( '',0.7921568627450980005, 0.8196078431372548767, 0.9333333333333333481 ) ;
#285 = ORIENTED_EDGE ( 'NONE', *, *, #91, .F. ) ;
#286 = DIRECTION ( 'NONE',  ( -1.224646799147353700E-16, -0.0000000000000000000, -1.000000000000000000 ) ) ;
#287 = FACE_OUTER_BOUND ( 'NONE', #95, .T. ) ;
#288 = DIRECTION ( 'NONE',  ( 1.000000000000000000, 0.0000000000000000000, 0.0000000000000000000 ) ) ;
#289 = DIRECTION ( 'NONE',  ( 0.0000000000000000000, 0.0000000000000000000, -1.000000000000000000 ) ) ;
#290 = VECTOR ( 'NONE', #89, 39.37007874015747433 ) ;
#291 = DIRECTION ( 'NONE',  ( -1.224646799147353700E-16, -0.0000000000000000000, -1.000000000000000000 ) ) ;
#292 = ADVANCED_FACE ( 'NONE', ( #135 ), #183, .T. ) ;
#293 = LENGTH_MEASURE_WITH_UNIT ( LENGTH_MEASURE( 0.02539999999999999897 ), #171 );
#294 = DIRECTION ( 'NONE',  ( 0.7071067811865462405, 8.659560562354916834E-17, -0.7071067811865486830 ) ) ;
#295 = VECTOR ( 'NONE', #77, 39.37007874015748143 ) ;
#296 = AXIS2_PLACEMENT_3D ( 'NONE', #257, #286, #80 ) ;
#297 = ORIENTED_EDGE ( 'NONE', *, *, #123, .T. ) ;
#298 = VECTOR ( 'NONE', #294, 39.37007874015748854 ) ;
#299 = CONICAL_SURFACE ( 'NONE', #247, 0.01498500000000000006, 0.1745329251994338360 ) ;
ENDSEC;
END-ISO-10303-21;
