ISO-10303-21;
HEADER;
FILE_DESCRIPTION (( 'STEP AP214' ),
    '1' );
FILE_NAME ('Micro_DC-00.STEP',
    '2021-08-31T17:22:10',
    ( '' ),
    ( '' ),
    'SwSTEP 2.0',
    'SolidWorks 2020',
    '' );
FILE_SCHEMA (( 'AUTOMOTIVE_DESIGN' ));
ENDSEC;

DATA;
#1 = AXIS2_PLACEMENT_3D ( 'NONE', #345, #375, #98 ) ;
#2 = DIRECTION ( 'NONE',  ( -1.000000000000000000, 0.0000000000000000000, 0.0000000000000000000 ) ) ;
#3 = ADVANCED_FACE ( 'NONE', ( #181 ), #275, .T. ) ;
#4 = AXIS2_PLACEMENT_3D ( 'NONE', #26, #89, #306 ) ;
#5 = CARTESIAN_POINT ( 'NONE',  ( 4.929515736598900023E-15, 0.0000000000000000000, -37.87007874015748143 ) ) ;
#6 = VERTEX_POINT ( 'NONE', #397 ) ;
#7 = DIRECTION ( 'NONE',  ( -1.252096997096120642E-16, -0.0000000000000000000, -1.000000000000000000 ) ) ;
#8 = CONICAL_SURFACE ( 'NONE', #310, 0.01249999999999999896, 0.5235987755982995928 ) ;
#9 = CARTESIAN_POINT ( 'NONE',  ( 4.821920411945122985E-18, 0.0000000000000000000, 0.03851075773784444489 ) ) ;
#10 = CARTESIAN_POINT ( 'NONE',  ( 0.0000000000000000000, 0.0000000000000000000, 0.0000000000000000000 ) ) ;
#11 = CARTESIAN_POINT ( 'NONE',  ( 0.01250000000000000243, 0.0000000000000000000, 0.03851075773784444489 ) ) ;
#12 = SURFACE_STYLE_FILL_AREA ( #161 ) ;
#13 = VECTOR ( 'NONE', #158, 39.37007874015748143 ) ;
#14 = DIRECTION ( 'NONE',  ( 0.5000000000000007772, 0.0000000000000000000, 0.8660254037844382635 ) ) ;
#15 = EDGE_CURVE ( 'NONE', #182, #228, #270, .T. ) ;
#16 = LINE ( 'NONE', #51, #105 ) ;
#17 = ORIENTED_EDGE ( 'NONE', *, *, #135, .T. ) ;
#18 = ADVANCED_FACE ( 'NONE', ( #120 ), #208, .T. ) ;
#19 = FACE_OUTER_BOUND ( 'NONE', #299, .T. ) ;
#20 = ORIENTED_EDGE ( 'NONE', *, *, #210, .T. ) ;
#21 = AXIS2_PLACEMENT_3D ( 'NONE', #256, #391, #255 ) ;
#22 = CARTESIAN_POINT ( 'NONE',  ( 4.821920411945122985E-18, 0.0000000000000000000, 1.461489242262155486 ) ) ;
#23 = DIRECTION ( 'NONE',  ( -1.000000000000000000, 0.0000000000000000000, 0.0000000000000000000 ) ) ;
#24 = ORIENTED_EDGE ( 'NONE', *, *, #386, .F. ) ;
#25 = CIRCLE ( 'NONE', #250, 0.01250000000000000243 ) ;
#26 = CARTESIAN_POINT ( 'NONE',  ( 9.404197209471493879E-19, 0.0000000000000000000, 1.492489242262155624 ) ) ;
#27 = EDGE_LOOP ( 'NONE', ( #247, #260, #17, #20 ) ) ;
#28 = ADVANCED_FACE ( 'NONE', ( #395 ), #289, .T. ) ;
#29 = FACE_OUTER_BOUND ( 'NONE', #368, .T. ) ;
#30 = VERTEX_POINT ( 'NONE', #338 ) ;
#31 = CARTESIAN_POINT ( 'NONE',  ( -0.01250000000000000069, 0.0000000000000000000, 1.500000000000000222 ) ) ;
#32 = VERTEX_POINT ( 'NONE', #154 ) ;
#33 = APPLICATION_PROTOCOL_DEFINITION ( 'draft international standard', 'automotive_design', 1998, #283 ) ;
#34 = CARTESIAN_POINT ( 'NONE',  ( 0.0000000000000000000, 0.0000000000000000000, 1.500000000000000222 ) ) ;
#35 = LINE ( 'NONE', #217, #229 ) ;
#36 = AXIS2_PLACEMENT_3D ( 'NONE', #47, #385, #362 ) ;
#37 = EDGE_CURVE ( 'NONE', #209, #329, #62, .T. ) ;
#38 = DIRECTION ( 'NONE',  ( -1.000000000000000000, 0.0000000000000000000, 0.0000000000000000000 ) ) ;
#39 = CARTESIAN_POINT ( 'NONE',  ( 0.06250000000000000000, 7.654042494670956004E-18, 0.1251132981162881297 ) ) ;
#40 = DIRECTION ( 'NONE',  ( -1.252096997096120642E-16, -0.0000000000000000000, -1.000000000000000000 ) ) ;
#41 = AXIS2_PLACEMENT_3D ( 'NONE', #22, #298, #201 ) ;
#42 = ADVANCED_FACE ( 'NONE', ( #277 ), #381, .T. ) ;
#43 = DIRECTION ( 'NONE',  ( 1.252096997096120642E-16, 0.0000000000000000000, -1.000000000000000000 ) ) ;
#44 = CARTESIAN_POINT ( 'NONE',  ( -0.01249999999999999549, 0.0000000000000000000, 0.03851075773784444489 ) ) ;
#45 = EDGE_LOOP ( 'NONE', ( #369, #323, #358 ) ) ;
#46 = DIMENSIONAL_EXPONENTS ( 1.000000000000000000, 0.0000000000000000000, 0.0000000000000000000, 0.0000000000000000000, 0.0000000000000000000, 0.0000000000000000000, 0.0000000000000000000 ) ;
#47 = CARTESIAN_POINT ( 'NONE',  ( 4.929515736598900023E-15, 0.0000000000000000000, -37.87007874015748143 ) ) ;
#48 = VERTEX_POINT ( 'NONE', #251 ) ;
#49 = CIRCLE ( 'NONE', #276, 0.01250000000000000243 ) ;
#50 = VECTOR ( 'NONE', #83, 39.37007874015748143 ) ;
#51 = CARTESIAN_POINT ( 'NONE',  ( -0.01249999999999999549, -1.530808498934191393E-18, 1.461489242262155486 ) ) ;
#52 = ORIENTED_EDGE ( 'NONE', *, *, #235, .T. ) ;
#53 =( LENGTH_UNIT ( ) NAMED_UNIT ( * ) SI_UNIT ( $, .METRE. ) );
#54 = ORIENTED_EDGE ( 'NONE', *, *, #346, .T. ) ;
#55 = MANIFOLD_SOLID_BREP ( 'Mirror1', #266 ) ;
#56 = CARTESIAN_POINT ( 'NONE',  ( 0.0000000000000000000, 0.0000000000000000000, 1.500000000000000222 ) ) ;
#57 = CIRCLE ( 'NONE', #74, 0.01249999999999999896 ) ;
#58 = EDGE_CURVE ( 'NONE', #48, #182, #124, .T. ) ;
#59 = CONICAL_SURFACE ( 'NONE', #125, 65.52281426576888634, 1.029744258676657642 ) ;
#60 = DIRECTION ( 'NONE',  ( 1.252096997096120642E-16, 0.0000000000000000000, -1.000000000000000000 ) ) ;
#61 = LENGTH_MEASURE_WITH_UNIT ( LENGTH_MEASURE( 0.02539999999999999897 ), #53 );
#62 = LINE ( 'NONE', #31, #147 ) ;
#63 = VERTEX_POINT ( 'NONE', #39 ) ;
#64 =( CONVERSION_BASED_UNIT ( 'INCH', #133 ) LENGTH_UNIT ( ) NAMED_UNIT ( #261 ) );
#65 = FACE_OUTER_BOUND ( 'NONE', #243, .T. ) ;
#66 = CYLINDRICAL_SURFACE ( 'NONE', #140, 0.01250000000000000069 ) ;
#67 = VECTOR ( 'NONE', #40, 39.37007874015748143 ) ;
#68 = CARTESIAN_POINT ( 'NONE',  ( 1.566539848681961167E-17, 0.0000000000000000000, 1.374886701883712092 ) ) ;
#69 = ADVANCED_FACE ( 'NONE', ( #65 ), #8, .T. ) ;
#70 = SURFACE_STYLE_USAGE ( .BOTH. , #284 ) ;
#71 = DIRECTION ( 'NONE',  ( 1.252096997096120642E-16, 0.0000000000000000000, -1.000000000000000000 ) ) ;
#72 = EDGE_CURVE ( 'NONE', #291, #63, #35, .T. ) ;
#73 = DIRECTION ( 'NONE',  ( 0.8571673007021139989, 0.0000000000000000000, -0.5150380749100513800 ) ) ;
#74 = AXIS2_PLACEMENT_3D ( 'NONE', #137, #357, #107 ) ;
#75 = CARTESIAN_POINT ( 'NONE',  ( 0.06250000000000000000, 7.654042494670956004E-18, 1.374886701883712092 ) ) ;
#76 = ORIENTED_EDGE ( 'NONE', *, *, #149, .F. ) ;
#77 = CARTESIAN_POINT ( 'NONE',  ( 4.821920411945122985E-18, 0.0000000000000000000, 1.461489242262155486 ) ) ;
#78 = ORIENTED_EDGE ( 'NONE', *, *, #103, .F. ) ;
#79 = EDGE_CURVE ( 'NONE', #48, #6, #194, .T. ) ;
#80 = DIRECTION ( 'NONE',  ( -1.000000000000000000, 0.0000000000000000000, 0.0000000000000000000 ) ) ;
#81 = AXIS2_PLACEMENT_3D ( 'NONE', #68, #192, #38 ) ;
#82 = AXIS2_PLACEMENT_3D ( 'NONE', #337, #365, #267 ) ;
#83 = DIRECTION ( 'NONE',  ( -0.0000000000000000000, -0.0000000000000000000, -1.000000000000000000 ) ) ;
#84 = ORIENTED_EDGE ( 'NONE', *, *, #37, .F. ) ;
#85 = PRODUCT ( 'Micro_DC-00', 'Micro_DC-00', '', ( #216 ) ) ;
#86 =( CONVERSION_BASED_UNIT ( 'INCH', #61 ) LENGTH_UNIT ( ) NAMED_UNIT ( #257 ) );
#87 = DIRECTION ( 'NONE',  ( -1.000000000000000000, 0.0000000000000000000, 0.0000000000000000000 ) ) ;
#88 = EDGE_CURVE ( 'NONE', #265, #6, #343, .T. ) ;
#89 = DIRECTION ( 'NONE',  ( 1.252096997096120642E-16, 0.0000000000000000000, -1.000000000000000000 ) ) ;
#90 = EDGE_CURVE ( 'NONE', #6, #341, #190, .T. ) ;
#91 = ORIENTED_EDGE ( 'NONE', *, *, #286, .T. ) ;
#92 = AXIS2_PLACEMENT_3D ( 'NONE', #170, #71, #164 ) ;
#93 =( GEOMETRIC_REPRESENTATION_CONTEXT ( 3 ) GLOBAL_UNCERTAINTY_ASSIGNED_CONTEXT ( ( #272 ) ) GLOBAL_UNIT_ASSIGNED_CONTEXT ( ( #180, #241, #128 ) ) REPRESENTATION_CONTEXT ( 'NONE', 'WORKASPACE' ) );
#94 = CARTESIAN_POINT ( 'NONE',  ( -0.01250000000000000243, 1.530808498934191971E-18, 0.007510757737844456390 ) ) ;
#95 =( NAMED_UNIT ( * ) SI_UNIT ( $, .STERADIAN. ) SOLID_ANGLE_UNIT ( ) );
#96 = EDGE_LOOP ( 'NONE', ( #333, #198, #112, #54 ) ) ;
#97 = DIRECTION ( 'NONE',  ( 0.0000000000000000000, 0.0000000000000000000, 1.000000000000000000 ) ) ;
#98 = DIRECTION ( 'NONE',  ( -1.000000000000000000, 0.0000000000000000000, 0.0000000000000000000 ) ) ;
#99 = CIRCLE ( 'NONE', #4, 0.01250000000000000243 ) ;
#100 = PRODUCT_DEFINITION_FORMATION_WITH_SPECIFIED_SOURCE ( 'ANY', '', #85, .NOT_KNOWN. ) ;
#101 =( LENGTH_UNIT ( ) NAMED_UNIT ( * ) SI_UNIT ( $, .METRE. ) );
#102 = DIRECTION ( 'NONE',  ( -0.0000000000000000000, -0.0000000000000000000, -1.000000000000000000 ) ) ;
#103 = EDGE_CURVE ( 'NONE', #182, #48, #163, .T. ) ;
#104 = DIRECTION ( 'NONE',  ( 1.000000000000000000, 0.0000000000000000000, 1.334178587669834580E-16 ) ) ;
#105 = VECTOR ( 'NONE', #230, 39.37007874015748854 ) ;
#106 = CYLINDRICAL_SURFACE ( 'NONE', #268, 0.06250000000000000000 ) ;
#107 = DIRECTION ( 'NONE',  ( -1.000000000000000000, 0.0000000000000000000, 0.0000000000000000000 ) ) ;
#108 = CARTESIAN_POINT ( 'NONE',  ( 0.0000000000000000000, 0.0000000000000000000, 1.500000000000000222 ) ) ;
#109 = ORIENTED_EDGE ( 'NONE', *, *, #359, .T. ) ;
#110 = LINE ( 'NONE', #354, #370 ) ;
#111 = STYLED_ITEM ( 'NONE', ( #129 ), #55 ) ;
#112 = ORIENTED_EDGE ( 'NONE', *, *, #37, .T. ) ;
#113 = DIRECTION ( 'NONE',  ( -0.8571673007021137769, 1.049727191138620545E-16, 0.5150380749100516020 ) ) ;
#114 = ADVANCED_FACE ( 'NONE', ( #313 ), #106, .T. ) ;
#115 = DIRECTION ( 'NONE',  ( -1.252096997096120642E-16, -0.0000000000000000000, -1.000000000000000000 ) ) ;
#116 = ORIENTED_EDGE ( 'NONE', *, *, #72, .F. ) ;
#117 = VECTOR ( 'NONE', #14, 39.37007874015748854 ) ;
#118 = ADVANCED_FACE ( 'NONE', ( #347 ), #66, .T. ) ;
#119 = DIRECTION ( 'NONE',  ( 1.252096997096120642E-16, 0.0000000000000000000, -1.000000000000000000 ) ) ;
#120 = FACE_OUTER_BOUND ( 'NONE', #175, .T. ) ;
#121 = DIRECTION ( 'NONE',  ( -1.252096997096120642E-16, -0.0000000000000000000, 1.000000000000000000 ) ) ;
#122 = CARTESIAN_POINT ( 'NONE',  ( 4.821920411945122985E-18, 0.0000000000000000000, 1.461489242262155486 ) ) ;
#123 = ORIENTED_EDGE ( 'NONE', *, *, #58, .T. ) ;
#124 = CIRCLE ( 'NONE', #1, 0.01249999999999999896 ) ;
#125 = AXIS2_PLACEMENT_3D ( 'NONE', #371, #330, #300 ) ;
#126 = EDGE_LOOP ( 'NONE', ( #372, #311, #294, #165 ) ) ;
#127 = VERTEX_POINT ( 'NONE', #221 ) ;
#128 =( NAMED_UNIT ( * ) SI_UNIT ( $, .STERADIAN. ) SOLID_ANGLE_UNIT ( ) );
#129 = PRESENTATION_STYLE_ASSIGNMENT (( #70 ) ) ;
#130 = AXIS2_PLACEMENT_3D ( 'NONE', #162, #189, #186 ) ;
#131 = SHAPE_DEFINITION_REPRESENTATION ( #249, #356 ) ;
#132 = EDGE_CURVE ( 'NONE', #291, #196, #342, .T. ) ;
#133 = LENGTH_MEASURE_WITH_UNIT ( LENGTH_MEASURE( 0.02539999999999999897 ), #101 );
#134 = DIRECTION ( 'NONE',  ( 1.252096997096120642E-16, 0.0000000000000000000, -1.000000000000000000 ) ) ;
#135 = EDGE_CURVE ( 'NONE', #48, #63, #288, .T. ) ;
#136 = CARTESIAN_POINT ( 'NONE',  ( 0.01250000000000000243, 0.0000000000000000000, 1.461489242262155486 ) ) ;
#137 = CARTESIAN_POINT ( 'NONE',  ( 4.821920411945122985E-18, 0.0000000000000000000, 1.461489242262155486 ) ) ;
#138 = ORIENTED_EDGE ( 'NONE', *, *, #346, .F. ) ;
#139 = DIRECTION ( 'NONE',  ( -1.000000000000000000, 0.0000000000000000000, 1.252096997096120642E-16 ) ) ;
#140 = AXIS2_PLACEMENT_3D ( 'NONE', #10, #252, #379 ) ;
#141 = EDGE_CURVE ( 'NONE', #341, #6, #25, .T. ) ;
#142 = VECTOR ( 'NONE', #153, 39.37007874015748854 ) ;
#143 = EDGE_LOOP ( 'NONE', ( #304, #91, #355, #76 ) ) ;
#144 = DIRECTION ( 'NONE',  ( 1.000000000000000000, 0.0000000000000000000, -1.334178587669834580E-16 ) ) ;
#145 = FILL_AREA_STYLE_COLOUR ( '', #278 ) ;
#146 = ORIENTED_EDGE ( 'NONE', *, *, #210, .F. ) ;
#147 = VECTOR ( 'NONE', #155, 39.37007874015748143 ) ;
#148 = ORIENTED_EDGE ( 'NONE', *, *, #15, .T. ) ;
#149 = EDGE_CURVE ( 'NONE', #127, #291, #319, .T. ) ;
#150 = PRESENTATION_LAYER_ASSIGNMENT (  '', '', ( #219 ) ) ;
#151 = CARTESIAN_POINT ( 'NONE',  ( 0.01250000000000000069, -1.530808498934191586E-18, 1.500000000000000222 ) ) ;
#152 = DIRECTION ( 'NONE',  ( -0.0000000000000000000, -0.0000000000000000000, -1.000000000000000000 ) ) ;
#153 = DIRECTION ( 'NONE',  ( -0.8571673007021137769, -1.049727191138620545E-16, -0.5150380749100516020 ) ) ;
#154 = CARTESIAN_POINT ( 'NONE',  ( 0.0000000000000000000, 0.0000000000000000000, 1.500000000000000222 ) ) ;
#155 = DIRECTION ( 'NONE',  ( -1.252096997096120642E-16, -0.0000000000000000000, 1.000000000000000000 ) ) ;
#156 = ORIENTED_EDGE ( 'NONE', *, *, #264, .F. ) ;
#157 = EDGE_CURVE ( 'NONE', #209, #127, #57, .T. ) ;
#158 = DIRECTION ( 'NONE',  ( -1.252096997096120642E-16, -0.0000000000000000000, -1.000000000000000000 ) ) ;
#159 = VECTOR ( 'NONE', #211, 39.37007874015748854 ) ;
#160 = DIRECTION ( 'NONE',  ( -0.0000000000000000000, -0.0000000000000000000, -1.000000000000000000 ) ) ;
#161 = FILL_AREA_STYLE ('',( #318 ) ) ;
#162 = CARTESIAN_POINT ( 'NONE',  ( 9.404197209471493879E-19, 0.0000000000000000000, 0.007510757737844453788 ) ) ;
#163 = CIRCLE ( 'NONE', #222, 0.01249999999999999896 ) ;
#164 = DIRECTION ( 'NONE',  ( -1.000000000000000000, 0.0000000000000000000, 0.0000000000000000000 ) ) ;
#165 = ORIENTED_EDGE ( 'NONE', *, *, #235, .F. ) ;
#166 = FACE_OUTER_BOUND ( 'NONE', #96, .T. ) ;
#167 = ORIENTED_EDGE ( 'NONE', *, *, #72, .T. ) ;
#168 = CARTESIAN_POINT ( 'NONE',  ( 4.929515736598900023E-15, 0.0000000000000000000, 39.37007874015748143 ) ) ;
#169 = EDGE_LOOP ( 'NONE', ( #202, #123, #263, #215 ) ) ;
#170 = CARTESIAN_POINT ( 'NONE',  ( 1.566539848681961167E-17, 0.0000000000000000000, 1.374886701883712092 ) ) ;
#171 = AXIS2_PLACEMENT_3D ( 'NONE', #108, #292, #80 ) ;
#172 = EDGE_LOOP ( 'NONE', ( #24, #206, #138 ) ) ;
#173 = DIRECTION ( 'NONE',  ( -1.000000000000000000, 0.0000000000000000000, 8.537024980200821325E-17 ) ) ;
#174 = LINE ( 'NONE', #151, #350 ) ;
#175 = EDGE_LOOP ( 'NONE', ( #116, #309, #336, #146 ) ) ;
#176 = SURFACE_STYLE_FILL_AREA ( #332 ) ;
#177 = CONICAL_SURFACE ( 'NONE', #285, 65.52281426576888634, 1.029744258676657642 ) ;
#178 = UNCERTAINTY_MEASURE_WITH_UNIT (LENGTH_MEASURE( 1.000000000000000082E-05 ), #64, 'distance_accuracy_value', 'NONE');
#179 = CARTESIAN_POINT ( 'NONE',  ( 0.0000000000000000000, 0.0000000000000000000, 1.500000000000000222 ) ) ;
#180 =( CONVERSION_BASED_UNIT ( 'INCH', #303 ) LENGTH_UNIT ( ) NAMED_UNIT ( #46 ) );
#181 = FACE_OUTER_BOUND ( 'NONE', #363, .T. ) ;
#182 = VERTEX_POINT ( 'NONE', #44 ) ;
#183 = ADVANCED_FACE ( 'NONE', ( #226 ), #393, .T. ) ;
#184 = ORIENTED_EDGE ( 'NONE', *, *, #103, .T. ) ;
#185 =( GEOMETRIC_REPRESENTATION_CONTEXT ( 3 ) GLOBAL_UNCERTAINTY_ASSIGNED_CONTEXT ( ( #178 ) ) GLOBAL_UNIT_ASSIGNED_CONTEXT ( ( #64, #188, #377 ) ) REPRESENTATION_CONTEXT ( 'NONE', 'WORKASPACE' ) );
#186 = DIRECTION ( 'NONE',  ( -1.000000000000000000, 0.0000000000000000000, 8.537024980200821325E-17 ) ) ;
#187 = ADVANCED_FACE ( 'NONE', ( #195 ), #177, .T. ) ;
#188 =( NAMED_UNIT ( * ) PLANE_ANGLE_UNIT ( ) SI_UNIT ( $, .RADIAN. ) );
#189 = DIRECTION ( 'NONE',  ( -1.252096997096120642E-16, -0.0000000000000000000, -1.000000000000000000 ) ) ;
#190 = CIRCLE ( 'NONE', #130, 0.01250000000000000243 ) ;
#191 =( GEOMETRIC_REPRESENTATION_CONTEXT ( 3 ) GLOBAL_UNCERTAINTY_ASSIGNED_CONTEXT ( ( #214 ) ) GLOBAL_UNIT_ASSIGNED_CONTEXT ( ( #86, #396, #95 ) ) REPRESENTATION_CONTEXT ( 'NONE', 'WORKASPACE' ) );
#192 = DIRECTION ( 'NONE',  ( 1.252096997096120642E-16, 0.0000000000000000000, -1.000000000000000000 ) ) ;
#193 = EDGE_CURVE ( 'NONE', #182, #341, #383, .T. ) ;
#194 = LINE ( 'NONE', #348, #13 ) ;
#195 = FACE_OUTER_BOUND ( 'NONE', #45, .T. ) ;
#196 = VERTEX_POINT ( 'NONE', #225 ) ;
#197 = CARTESIAN_POINT ( 'NONE',  ( 9.404197209471493879E-19, 0.0000000000000000000, 0.007510757737844453788 ) ) ;
#198 = ORIENTED_EDGE ( 'NONE', *, *, #157, .F. ) ;
#199 = CYLINDRICAL_SURFACE ( 'NONE', #223, 0.01250000000000000069 ) ;
#200 = ORIENTED_EDGE ( 'NONE', *, *, #386, .T. ) ;
#201 = DIRECTION ( 'NONE',  ( 1.000000000000000000, 0.0000000000000000000, 0.0000000000000000000 ) ) ;
#202 = ORIENTED_EDGE ( 'NONE', *, *, #79, .F. ) ;
#203 = CARTESIAN_POINT ( 'NONE',  ( 0.0000000000000000000, 0.0000000000000000000, 0.0000000000000000000 ) ) ;
#204 = AXIS2_PLACEMENT_3D ( 'NONE', #5, #134, #104 ) ;
#205 = ORIENTED_EDGE ( 'NONE', *, *, #279, .T. ) ;
#206 = ORIENTED_EDGE ( 'NONE', *, *, #264, .T. ) ;
#207 = APPLICATION_PROTOCOL_DEFINITION ( 'draft international standard', 'automotive_design', 1998, #220 ) ;
#208 = CYLINDRICAL_SURFACE ( 'NONE', #327, 0.06250000000000000000 ) ;
#209 = VERTEX_POINT ( 'NONE', #262 ) ;
#210 = EDGE_CURVE ( 'NONE', #63, #228, #302, .T. ) ;
#211 = DIRECTION ( 'NONE',  ( -0.5000000000000004441, 6.123233995736773431E-17, 0.8660254037844382635 ) ) ;
#212 = EDGE_CURVE ( 'NONE', #228, #63, #334, .T. ) ;
#213 = CARTESIAN_POINT ( 'NONE',  ( -0.06250000000000000000, 0.0000000000000000000, 1.500000000000000222 ) ) ;
#214 = UNCERTAINTY_MEASURE_WITH_UNIT (LENGTH_MEASURE( 1.000000000000000082E-05 ), #86, 'distance_accuracy_value', 'NONE');
#215 = ORIENTED_EDGE ( 'NONE', *, *, #90, .F. ) ;
#216 = PRODUCT_CONTEXT ( 'NONE', #220, 'mechanical' ) ;
#217 = CARTESIAN_POINT ( 'NONE',  ( 0.06250000000000000000, 7.654042494670956004E-18, 1.500000000000000222 ) ) ;
#218 = VECTOR ( 'NONE', #232, 39.37007874015748854 ) ;
#219 = STYLED_ITEM ( 'NONE', ( #239 ), #356 ) ;
#220 = APPLICATION_CONTEXT ( 'automotive_design' ) ;
#221 = CARTESIAN_POINT ( 'NONE',  ( 0.01250000000000000243, -1.530808498934191586E-18, 1.461489242262155486 ) ) ;
#222 = AXIS2_PLACEMENT_3D ( 'NONE', #9, #7, #287 ) ;
#223 = AXIS2_PLACEMENT_3D ( 'NONE', #324, #293, #139 ) ;
#224 = PRODUCT_RELATED_PRODUCT_CATEGORY ( 'part', '', ( #85 ) ) ;
#225 = CARTESIAN_POINT ( 'NONE',  ( -0.06249999999999996531, 0.0000000000000000000, 1.374886701883712092 ) ) ;
#226 = FACE_OUTER_BOUND ( 'NONE', #143, .T. ) ;
#227 = ADVANCED_FACE ( 'NONE', ( #19 ), #387, .T. ) ;
#228 = VERTEX_POINT ( 'NONE', #384 ) ;
#229 = VECTOR ( 'NONE', #160, 39.37007874015748143 ) ;
#230 = DIRECTION ( 'NONE',  ( -0.5000000000000004441, -6.123233995736773431E-17, -0.8660254037844382635 ) ) ;
#231 = ORIENTED_EDGE ( 'NONE', *, *, #135, .F. ) ;
#232 = DIRECTION ( 'NONE',  ( 0.5000000000000007772, 0.0000000000000000000, -0.8660254037844382635 ) ) ;
#233 = DIRECTION ( 'NONE',  ( -1.000000000000000000, 0.0000000000000000000, 0.0000000000000000000 ) ) ;
#234 = ORIENTED_EDGE ( 'NONE', *, *, #212, .F. ) ;
#235 = EDGE_CURVE ( 'NONE', #196, #291, #258, .T. ) ;
#236 =( LENGTH_UNIT ( ) NAMED_UNIT ( * ) SI_UNIT ( $, .METRE. ) );
#237 = FACE_OUTER_BOUND ( 'NONE', #27, .T. ) ;
#238 = ORIENTED_EDGE ( 'NONE', *, *, #88, .F. ) ;
#239 = PRESENTATION_STYLE_ASSIGNMENT (( #274 ) ) ;
#240 = ORIENTED_EDGE ( 'NONE', *, *, #141, .T. ) ;
#241 =( NAMED_UNIT ( * ) PLANE_ANGLE_UNIT ( ) SI_UNIT ( $, .RADIAN. ) );
#242 = VECTOR ( 'NONE', #282, 39.37007874015748143 ) ;
#243 = EDGE_LOOP ( 'NONE', ( #78, #148, #320, #231 ) ) ;
#244 = ORIENTED_EDGE ( 'NONE', *, *, #389, .F. ) ;
#245 = CARTESIAN_POINT ( 'NONE',  ( 0.0000000000000000000, 0.0000000000000000000, 0.0000000000000000000 ) ) ;
#246 = PRODUCT_DEFINITION_CONTEXT ( 'detailed design', #283, 'design' ) ;
#247 = ORIENTED_EDGE ( 'NONE', *, *, #15, .F. ) ;
#248 = ADVANCED_FACE ( 'NONE', ( #166 ), #290, .T. ) ;
#249 = PRODUCT_DEFINITION_SHAPE ( 'NONE', 'NONE',  #352 ) ;
#250 = AXIS2_PLACEMENT_3D ( 'NONE', #197, #115, #173 ) ;
#251 = CARTESIAN_POINT ( 'NONE',  ( 0.01250000000000000243, 1.530808498934191586E-18, 0.03851075773784444489 ) ) ;
#252 = DIRECTION ( 'NONE',  ( -1.252096997096120642E-16, -0.0000000000000000000, -1.000000000000000000 ) ) ;
#253 = PRESENTATION_LAYER_ASSIGNMENT (  '', '', ( #111 ) ) ;
#254 = FACE_OUTER_BOUND ( 'NONE', #392, .T. ) ;
#255 = DIRECTION ( 'NONE',  ( -1.000000000000000000, 0.0000000000000000000, 0.0000000000000000000 ) ) ;
#256 = CARTESIAN_POINT ( 'NONE',  ( 1.566539848681961167E-17, 0.0000000000000000000, 0.1251132981162881297 ) ) ;
#257 = DIMENSIONAL_EXPONENTS ( 1.000000000000000000, 0.0000000000000000000, 0.0000000000000000000, 0.0000000000000000000, 0.0000000000000000000, 0.0000000000000000000, 0.0000000000000000000 ) ;
#258 = CIRCLE ( 'NONE', #92, 0.06249999999999997918 ) ;
#259 = LINE ( 'NONE', #390, #312 ) ;
#260 = ORIENTED_EDGE ( 'NONE', *, *, #58, .F. ) ;
#261 = DIMENSIONAL_EXPONENTS ( 1.000000000000000000, 0.0000000000000000000, 0.0000000000000000000, 0.0000000000000000000, 0.0000000000000000000, 0.0000000000000000000, 0.0000000000000000000 ) ;
#262 = CARTESIAN_POINT ( 'NONE',  ( -0.01249999999999999549, 0.0000000000000000000, 1.461489242262155486 ) ) ;
#263 = ORIENTED_EDGE ( 'NONE', *, *, #193, .T. ) ;
#264 = EDGE_CURVE ( 'NONE', #32, #30, #110, .T. ) ;
#265 = VERTEX_POINT ( 'NONE', #203 ) ;
#266 = CLOSED_SHELL ( 'NONE', ( #183, #3, #227, #69, #305, #373, #114, #18, #187, #118, #378, #42, #248, #28 ) ) ;
#267 = DIRECTION ( 'NONE',  ( 1.000000000000000000, 0.0000000000000000000, 0.0000000000000000000 ) ) ;
#268 = AXIS2_PLACEMENT_3D ( 'NONE', #34, #102, #351 ) ;
#269 = AXIS2_PLACEMENT_3D ( 'NONE', #245, #97, #281 ) ;
#270 = LINE ( 'NONE', #394, #159 ) ;
#271 = SURFACE_SIDE_STYLE ('',( #176 ) ) ;
#272 = UNCERTAINTY_MEASURE_WITH_UNIT (LENGTH_MEASURE( 1.000000000000000082E-05 ), #180, 'distance_accuracy_value', 'NONE');
#273 = DIRECTION ( 'NONE',  ( -1.000000000000000000, 0.0000000000000000000, 0.0000000000000000000 ) ) ;
#274 = SURFACE_STYLE_USAGE ( .BOTH. , #271 ) ;
#275 = CYLINDRICAL_SURFACE ( 'NONE', #364, 0.01250000000000000069 ) ;
#276 = AXIS2_PLACEMENT_3D ( 'NONE', #328, #43, #23 ) ;
#277 = FACE_OUTER_BOUND ( 'NONE', #172, .T. ) ;
#278 = COLOUR_RGB ( '',0.7921568627450980005, 0.8196078431372548767, 0.9333333333333333481 ) ;
#279 = EDGE_CURVE ( 'NONE', #30, #329, #49, .T. ) ;
#280 = DIRECTION ( 'NONE',  ( -1.252096997096120642E-16, -0.0000000000000000000, 1.000000000000000000 ) ) ;
#281 = DIRECTION ( 'NONE',  ( 1.000000000000000000, 0.0000000000000000000, 0.0000000000000000000 ) ) ;
#282 = DIRECTION ( 'NONE',  ( 0.8571673007021139989, 0.0000000000000000000, 0.5150380749100513800 ) ) ;
#283 = APPLICATION_CONTEXT ( 'automotive_design' ) ;
#284 = SURFACE_SIDE_STYLE ('',( #12 ) ) ;
#285 = AXIS2_PLACEMENT_3D ( 'NONE', #168, #360, #144 ) ;
#286 = EDGE_CURVE ( 'NONE', #209, #196, #16, .T. ) ;
#287 = DIRECTION ( 'NONE',  ( -1.000000000000000000, 0.0000000000000000000, 0.0000000000000000000 ) ) ;
#288 = LINE ( 'NONE', #11, #117 ) ;
#289 = CONICAL_SURFACE ( 'NONE', #321, 0.01249999999999999896, 0.5235987755982995928 ) ;
#290 = CYLINDRICAL_SURFACE ( 'NONE', #171, 0.01250000000000000069 ) ;
#291 = VERTEX_POINT ( 'NONE', #75 ) ;
#292 = DIRECTION ( 'NONE',  ( -1.252096997096120642E-16, -0.0000000000000000000, 1.000000000000000000 ) ) ;
#293 = DIRECTION ( 'NONE',  ( -1.252096997096120642E-16, -0.0000000000000000000, -1.000000000000000000 ) ) ;
#294 = ORIENTED_EDGE ( 'NONE', *, *, #149, .T. ) ;
#295 = MECHANICAL_DESIGN_GEOMETRIC_PRESENTATION_REPRESENTATION (  '', ( #111 ), #185 ) ;
#296 = CARTESIAN_POINT ( 'NONE',  ( -0.01250000000000012039, -1.530808498934206608E-18, 1.492489242262155624 ) ) ;
#297 = ORIENTED_EDGE ( 'NONE', *, *, #141, .F. ) ;
#298 = DIRECTION ( 'NONE',  ( 1.252096997096120642E-16, 0.0000000000000000000, -1.000000000000000000 ) ) ;
#299 = EDGE_LOOP ( 'NONE', ( #156, #200, #325 ) ) ;
#300 = DIRECTION ( 'NONE',  ( 1.000000000000000000, 0.0000000000000000000, -1.334178587669834580E-16 ) ) ;
#301 = ORIENTED_EDGE ( 'NONE', *, *, #79, .T. ) ;
#302 = CIRCLE ( 'NONE', #21, 0.06249999999999997918 ) ;
#303 = LENGTH_MEASURE_WITH_UNIT ( LENGTH_MEASURE( 0.02539999999999999897 ), #236 );
#304 = ORIENTED_EDGE ( 'NONE', *, *, #339, .T. ) ;
#305 = ADVANCED_FACE ( 'NONE', ( #254 ), #199, .T. ) ;
#306 = DIRECTION ( 'NONE',  ( -1.000000000000000000, 0.0000000000000000000, 0.0000000000000000000 ) ) ;
#307 = DIRECTION ( 'NONE',  ( 1.000000000000000000, 0.0000000000000000000, 0.0000000000000000000 ) ) ;
#308 = LINE ( 'NONE', #213, #50 ) ;
#309 = ORIENTED_EDGE ( 'NONE', *, *, #132, .T. ) ;
#310 = AXIS2_PLACEMENT_3D ( 'NONE', #380, #314, #315 ) ;
#311 = ORIENTED_EDGE ( 'NONE', *, *, #157, .T. ) ;
#312 = VECTOR ( 'NONE', #113, 39.37007874015748854 ) ;
#313 = FACE_OUTER_BOUND ( 'NONE', #366, .T. ) ;
#314 = DIRECTION ( 'NONE',  ( 1.252096997096120642E-16, 0.0000000000000000000, 1.000000000000000000 ) ) ;
#315 = DIRECTION ( 'NONE',  ( 1.000000000000000000, 0.0000000000000000000, 0.0000000000000000000 ) ) ;
#316 = EDGE_CURVE ( 'NONE', #265, #341, #259, .T. ) ;
#317 = CARTESIAN_POINT ( 'NONE',  ( 0.0000000000000000000, 0.0000000000000000000, 0.0000000000000000000 ) ) ;
#318 = FILL_AREA_STYLE_COLOUR ( '', #376 ) ;
#319 = LINE ( 'NONE', #136, #218 ) ;
#320 = ORIENTED_EDGE ( 'NONE', *, *, #212, .T. ) ;
#321 = AXIS2_PLACEMENT_3D ( 'NONE', #122, #60, #307 ) ;
#322 = DIRECTION ( 'NONE',  ( -1.252096997096120642E-16, -0.0000000000000000000, -1.000000000000000000 ) ) ;
#323 = ORIENTED_EDGE ( 'NONE', *, *, #88, .T. ) ;
#324 = CARTESIAN_POINT ( 'NONE',  ( 0.0000000000000000000, 0.0000000000000000000, 0.0000000000000000000 ) ) ;
#325 = ORIENTED_EDGE ( 'NONE', *, *, #279, .F. ) ;
#326 = CARTESIAN_POINT ( 'NONE',  ( -0.01250000000000000069, 0.0000000000000000000, 1.565121246370150995E-18 ) ) ;
#327 = AXIS2_PLACEMENT_3D ( 'NONE', #179, #152, #273 ) ;
#328 = CARTESIAN_POINT ( 'NONE',  ( 9.404197209471493879E-19, 0.0000000000000000000, 1.492489242262155624 ) ) ;
#329 = VERTEX_POINT ( 'NONE', #296 ) ;
#330 = DIRECTION ( 'NONE',  ( 1.252096997096120642E-16, 0.0000000000000000000, 1.000000000000000000 ) ) ;
#331 = ORIENTED_EDGE ( 'NONE', *, *, #193, .F. ) ;
#332 = FILL_AREA_STYLE ('',( #145 ) ) ;
#333 = ORIENTED_EDGE ( 'NONE', *, *, #359, .F. ) ;
#334 = CIRCLE ( 'NONE', #349, 0.06249999999999997918 ) ;
#335 = MECHANICAL_DESIGN_GEOMETRIC_PRESENTATION_REPRESENTATION (  '', ( #219 ), #93 ) ;
#336 = ORIENTED_EDGE ( 'NONE', *, *, #389, .T. ) ;
#337 = CARTESIAN_POINT ( 'NONE',  ( 4.821920411945122985E-18, 0.0000000000000000000, 0.03851075773784444489 ) ) ;
#338 = CARTESIAN_POINT ( 'NONE',  ( 0.01250000000000012559, 0.0000000000000000000, 1.492489242262155624 ) ) ;
#339 = EDGE_CURVE ( 'NONE', #127, #209, #344, .T. ) ;
#340 = LINE ( 'NONE', #367, #142 ) ;
#341 = VERTEX_POINT ( 'NONE', #94 ) ;
#342 = CIRCLE ( 'NONE', #81, 0.06249999999999997918 ) ;
#343 = LINE ( 'NONE', #317, #242 ) ;
#344 = CIRCLE ( 'NONE', #382, 0.01249999999999999896 ) ;
#345 = CARTESIAN_POINT ( 'NONE',  ( 4.821920411945122985E-18, 0.0000000000000000000, 0.03851075773784444489 ) ) ;
#346 = EDGE_CURVE ( 'NONE', #329, #30, #99, .T. ) ;
#347 = FACE_OUTER_BOUND ( 'NONE', #169, .T. ) ;
#348 = CARTESIAN_POINT ( 'NONE',  ( 0.01250000000000000069, 1.530808498934191586E-18, -1.565121246370150995E-18 ) ) ;
#349 = AXIS2_PLACEMENT_3D ( 'NONE', #353, #322, #233 ) ;
#350 = VECTOR ( 'NONE', #121, 39.37007874015748143 ) ;
#351 = DIRECTION ( 'NONE',  ( -1.000000000000000000, 0.0000000000000000000, 0.0000000000000000000 ) ) ;
#352 = PRODUCT_DEFINITION ( 'UNKNOWN', '', #100, #246 ) ;
#353 = CARTESIAN_POINT ( 'NONE',  ( 1.566539848681961167E-17, 0.0000000000000000000, 0.1251132981162881297 ) ) ;
#354 = CARTESIAN_POINT ( 'NONE',  ( 0.0000000000000000000, 0.0000000000000000000, 1.500000000000000222 ) ) ;
#355 = ORIENTED_EDGE ( 'NONE', *, *, #132, .F. ) ;
#356 = ADVANCED_BREP_SHAPE_REPRESENTATION ( 'Micro_DC-00', ( #55, #269 ), #191 ) ;
#357 = DIRECTION ( 'NONE',  ( 1.252096997096120642E-16, 0.0000000000000000000, -1.000000000000000000 ) ) ;
#358 = ORIENTED_EDGE ( 'NONE', *, *, #90, .T. ) ;
#359 = EDGE_CURVE ( 'NONE', #127, #30, #174, .T. ) ;
#360 = DIRECTION ( 'NONE',  ( 1.252096997096120642E-16, 0.0000000000000000000, 1.000000000000000000 ) ) ;
#361 = ORIENTED_EDGE ( 'NONE', *, *, #316, .T. ) ;
#362 = DIRECTION ( 'NONE',  ( 1.000000000000000000, 0.0000000000000000000, 1.334178587669834580E-16 ) ) ;
#363 = EDGE_LOOP ( 'NONE', ( #374, #109, #205, #84 ) ) ;
#364 = AXIS2_PLACEMENT_3D ( 'NONE', #56, #280, #87 ) ;
#365 = DIRECTION ( 'NONE',  ( 1.252096997096120642E-16, 0.0000000000000000000, 1.000000000000000000 ) ) ;
#366 = EDGE_LOOP ( 'NONE', ( #52, #167, #234, #244 ) ) ;
#367 = CARTESIAN_POINT ( 'NONE',  ( 0.0000000000000000000, 0.0000000000000000000, 1.500000000000000222 ) ) ;
#368 = EDGE_LOOP ( 'NONE', ( #238, #361, #240 ) ) ;
#369 = ORIENTED_EDGE ( 'NONE', *, *, #316, .F. ) ;
#370 = VECTOR ( 'NONE', #73, 39.37007874015748143 ) ;
#371 = CARTESIAN_POINT ( 'NONE',  ( 4.929515736598900023E-15, 0.0000000000000000000, 39.37007874015748143 ) ) ;
#372 = ORIENTED_EDGE ( 'NONE', *, *, #286, .F. ) ;
#373 = ADVANCED_FACE ( 'NONE', ( #29 ), #59, .T. ) ;
#374 = ORIENTED_EDGE ( 'NONE', *, *, #339, .F. ) ;
#375 = DIRECTION ( 'NONE',  ( -1.252096997096120642E-16, -0.0000000000000000000, -1.000000000000000000 ) ) ;
#376 = COLOUR_RGB ( '',0.7921568627450980005, 0.8196078431372548767, 0.9333333333333333481 ) ;
#377 =( NAMED_UNIT ( * ) SI_UNIT ( $, .STERADIAN. ) SOLID_ANGLE_UNIT ( ) );
#378 = ADVANCED_FACE ( 'NONE', ( #237 ), #388, .T. ) ;
#379 = DIRECTION ( 'NONE',  ( -1.000000000000000000, 0.0000000000000000000, 1.252096997096120642E-16 ) ) ;
#380 = CARTESIAN_POINT ( 'NONE',  ( 4.821920411945122985E-18, 0.0000000000000000000, 0.03851075773784444489 ) ) ;
#381 = CONICAL_SURFACE ( 'NONE', #204, 65.52281426576888634, 1.029744258676657642 ) ;
#382 = AXIS2_PLACEMENT_3D ( 'NONE', #77, #119, #2 ) ;
#383 = LINE ( 'NONE', #326, #67 ) ;
#384 = CARTESIAN_POINT ( 'NONE',  ( -0.06249999999999996531, 0.0000000000000000000, 0.1251132981162881297 ) ) ;
#385 = DIRECTION ( 'NONE',  ( 1.252096997096120642E-16, 0.0000000000000000000, -1.000000000000000000 ) ) ;
#386 = EDGE_CURVE ( 'NONE', #32, #329, #340, .T. ) ;
#387 = CONICAL_SURFACE ( 'NONE', #36, 65.52281426576888634, 1.029744258676657642 ) ;
#388 = CONICAL_SURFACE ( 'NONE', #82, 0.01249999999999999896, 0.5235987755982995928 ) ;
#389 = EDGE_CURVE ( 'NONE', #196, #228, #308, .T. ) ;
#390 = CARTESIAN_POINT ( 'NONE',  ( 0.0000000000000000000, 0.0000000000000000000, 0.0000000000000000000 ) ) ;
#391 = DIRECTION ( 'NONE',  ( -1.252096997096120642E-16, -0.0000000000000000000, -1.000000000000000000 ) ) ;
#392 = EDGE_LOOP ( 'NONE', ( #184, #301, #297, #331 ) ) ;
#393 = CONICAL_SURFACE ( 'NONE', #41, 0.01249999999999999896, 0.5235987755982995928 ) ;
#394 = CARTESIAN_POINT ( 'NONE',  ( -0.01249999999999999549, 1.530808498934191393E-18, 0.03851075773784444489 ) ) ;
#395 = FACE_OUTER_BOUND ( 'NONE', #126, .T. ) ;
#396 =( NAMED_UNIT ( * ) PLANE_ANGLE_UNIT ( ) SI_UNIT ( $, .RADIAN. ) );
#397 = CARTESIAN_POINT ( 'NONE',  ( 0.01250000000000000590, 0.0000000000000000000, 0.007510757737844452921 ) ) ;
ENDSEC;
END-ISO-10303-21;
