ISO-10303-21;
HEADER;
FILE_DESCRIPTION (( 'STEP AP214' ),
    '1' );
FILE_NAME ('Micro_GEMM-010-2.STEP',
    '2021-09-01T21:09:11',
    ( '' ),
    ( '' ),
    'SwSTEP 2.0',
    'SolidWorks 2020',
    '' );
FILE_SCHEMA (( 'AUTOMOTIVE_DESIGN' ));
ENDSEC;

DATA;
#1 =( LENGTH_UNIT ( ) NAMED_UNIT ( * ) SI_UNIT ( $, .METRE. ) );
#2 = EDGE_CURVE ( 'NONE', #257, #203, #158, .T. ) ;
#3 = CARTESIAN_POINT ( 'NONE',  ( 0.0000000000000000000, 0.0000000000000000000, 0.0000000000000000000 ) ) ;
#4 = DIRECTION ( 'NONE',  ( 0.0000000000000000000, 0.0000000000000000000, 1.000000000000000000 ) ) ;
#5 = FACE_OUTER_BOUND ( 'NONE', #167, .T. ) ;
#6 = ORIENTED_EDGE ( 'NONE', *, *, #151, .F. ) ;
#7 = DIRECTION ( 'NONE',  ( -1.224646799147352961E-16, -0.0000000000000000000, -1.000000000000000000 ) ) ;
#8 = DIRECTION ( 'NONE',  ( -1.000000000000000000, 0.0000000000000000000, 0.0000000000000000000 ) ) ;
#9 = AXIS2_PLACEMENT_3D ( 'NONE', #49, #259, #8 ) ;
#10 = DIRECTION ( 'NONE',  ( 1.000000000000000000, 0.0000000000000000000, -0.0000000000000000000 ) ) ;
#11 = CARTESIAN_POINT ( 'NONE',  ( 0.0000000000000000000, 0.0000000000000000000, 1.496062999999999921 ) ) ;
#12 = DIRECTION ( 'NONE',  ( 1.000000000000000000, 0.0000000000000000000, 0.0000000000000000000 ) ) ;
#13 = AXIS2_PLACEMENT_3D ( 'NONE', #188, #212, #214 ) ;
#14 = AXIS2_PLACEMENT_3D ( 'NONE', #15, #60, #36 ) ;
#15 = CARTESIAN_POINT ( 'NONE',  ( 1.446430334472938160E-17, 0.0000000000000000000, 0.1181099999999999650 ) ) ;
#16 = CARTESIAN_POINT ( 'NONE',  ( 0.0000000000000000000, 0.0000000000000000000, 1.481063000000000240 ) ) ;
#17 = FILL_AREA_STYLE ('',( #140 ) ) ;
#18 = EDGE_LOOP ( 'NONE', ( #99, #164, #225, #210 ) ) ;
#19 =( CONVERSION_BASED_UNIT ( 'INCH', #91 ) LENGTH_UNIT ( ) NAMED_UNIT ( #113 ) );
#20 = VERTEX_POINT ( 'NONE', #187 ) ;
#21 =( LENGTH_UNIT ( ) NAMED_UNIT ( * ) SI_UNIT ( $, .METRE. ) );
#22 = ORIENTED_EDGE ( 'NONE', *, *, #149, .T. ) ;
#23 = FILL_AREA_STYLE ('',( #25 ) ) ;
#24 = PRODUCT_DEFINITION ( 'UNKNOWN', '', #269, #119 ) ;
#25 = FILL_AREA_STYLE_COLOUR ( '', #240 ) ;
#26 = AXIS2_PLACEMENT_3D ( 'NONE', #150, #228, #161 ) ;
#27 = ORIENTED_EDGE ( 'NONE', *, *, #278, .T. ) ;
#28 = CARTESIAN_POINT ( 'NONE',  ( -0.04405500000000001082, 0.0000000000000000000, 1.496062999999999921 ) ) ;
#29 = ORIENTED_EDGE ( 'NONE', *, *, #155, .F. ) ;
#30 = AXIS2_PLACEMENT_3D ( 'NONE', #152, #177, #34 ) ;
#31 = DIRECTION ( 'NONE',  ( 1.000000000000000000, 0.0000000000000000000, 0.0000000000000000000 ) ) ;
#32 = VERTEX_POINT ( 'NONE', #55 ) ;
#33 = ORIENTED_EDGE ( 'NONE', *, *, #42, .F. ) ;
#34 = DIRECTION ( 'NONE',  ( -1.000000000000000000, 0.0000000000000000000, 0.0000000000000000000 ) ) ;
#35 = AXIS2_PLACEMENT_3D ( 'NONE', #3, #70, #209 ) ;
#36 = DIRECTION ( 'NONE',  ( 1.000000000000000000, 0.0000000000000000000, 0.0000000000000000000 ) ) ;
#37 = CARTESIAN_POINT ( 'NONE',  ( 0.01966531499999996796, 2.408306506897438479E-18, -4.739000847409537175E-34 ) ) ;
#38 = DIRECTION ( 'NONE',  ( 1.000000000000000000, 0.0000000000000000000, 0.0000000000000000000 ) ) ;
#39 = DIRECTION ( 'NONE',  ( 0.0000000000000000000, 0.0000000000000000000, 1.000000000000000000 ) ) ;
#40 = EDGE_CURVE ( 'NONE', #121, #125, #180, .T. ) ;
#41 = SURFACE_STYLE_USAGE ( .BOTH. , #254 ) ;
#42 = EDGE_CURVE ( 'NONE', #32, #178, #224, .T. ) ;
#43 = PRESENTATION_STYLE_ASSIGNMENT (( #45 ) ) ;
#44 = EDGE_LOOP ( 'NONE', ( #6, #51, #63, #261 ) ) ;
#45 = SURFACE_STYLE_USAGE ( .BOTH. , #249 ) ;
#46 =( LENGTH_UNIT ( ) NAMED_UNIT ( * ) SI_UNIT ( $, .METRE. ) );
#47 = ORIENTED_EDGE ( 'NONE', *, *, #84, .F. ) ;
#48 = VECTOR ( 'NONE', #289, 39.37007874015748143 ) ;
#49 = CARTESIAN_POINT ( 'NONE',  ( 1.446430334472938160E-17, 0.0000000000000000000, 0.1181099999999999650 ) ) ;
#50 = ADVANCED_BREP_SHAPE_REPRESENTATION ( 'Micro_GEMM-010-2', ( #297, #115 ), #241 ) ;
#51 = ORIENTED_EDGE ( 'NONE', *, *, #40, .F. ) ;
#52 = LINE ( 'NONE', #166, #219 ) ;
#53 = CYLINDRICAL_SURFACE ( 'NONE', #35, 0.01966531499999995755 ) ;
#54 = ORIENTED_EDGE ( 'NONE', *, *, #95, .T. ) ;
#55 = CARTESIAN_POINT ( 'NONE',  ( -0.01966531499999994367, 4.820229089631064447E-18, 0.1181099999999999650 ) ) ;
#56 = DIRECTION ( 'NONE',  ( -0.0000000000000000000, -0.0000000000000000000, -1.000000000000000000 ) ) ;
#57 =( GEOMETRIC_REPRESENTATION_CONTEXT ( 3 ) GLOBAL_UNCERTAINTY_ASSIGNED_CONTEXT ( ( #227 ) ) GLOBAL_UNIT_ASSIGNED_CONTEXT ( ( #19, #263, #231 ) ) REPRESENTATION_CONTEXT ( 'NONE', 'WORKASPACE' ) );
#58 = CARTESIAN_POINT ( 'NONE',  ( -0.01966531499999994367, 2.408306506897437709E-18, 0.1181099999999999650 ) ) ;
#59 = FACE_OUTER_BOUND ( 'NONE', #186, .T. ) ;
#60 = DIRECTION ( 'NONE',  ( 1.224646799147352961E-16, 0.0000000000000000000, 1.000000000000000000 ) ) ;
#61 = MECHANICAL_DESIGN_GEOMETRIC_PRESENTATION_REPRESENTATION (  '', ( #191 ), #57 ) ;
#62 =( NAMED_UNIT ( * ) PLANE_ANGLE_UNIT ( ) SI_UNIT ( $, .RADIAN. ) );
#63 = ORIENTED_EDGE ( 'NONE', *, *, #81, .T. ) ;
#64 = AXIS2_PLACEMENT_3D ( 'NONE', #11, #243, #10 ) ;
#65 = PRESENTATION_LAYER_ASSIGNMENT (  '', '', ( #191 ) ) ;
#66 = ORIENTED_EDGE ( 'NONE', *, *, #278, .F. ) ;
#67 = UNCERTAINTY_MEASURE_WITH_UNIT (LENGTH_MEASURE( 1.000000000000000082E-05 ), #136, 'distance_accuracy_value', 'NONE');
#68 = ORIENTED_EDGE ( 'NONE', *, *, #155, .T. ) ;
#69 = AXIS2_PLACEMENT_3D ( 'NONE', #246, #39, #83 ) ;
#70 = DIRECTION ( 'NONE',  ( -1.224646799147352961E-16, -0.0000000000000000000, -1.000000000000000000 ) ) ;
#71 = ORIENTED_EDGE ( 'NONE', *, *, #2, .T. ) ;
#72 = DIRECTION ( 'NONE',  ( -0.7071067811865536790, 0.0000000000000000000, -0.7071067811865412445 ) ) ;
#73 = CARTESIAN_POINT ( 'NONE',  ( -0.05905499999999998251, 0.0000000000000000000, 1.481063000000000240 ) ) ;
#74 = EDGE_CURVE ( 'NONE', #125, #121, #90, .T. ) ;
#75 = VECTOR ( 'NONE', #80, 39.37007874015748143 ) ;
#76 = DIRECTION ( 'NONE',  ( 0.0000000000000000000, 0.0000000000000000000, 1.000000000000000000 ) ) ;
#77 = APPLICATION_CONTEXT ( 'automotive_design' ) ;
#78 = LINE ( 'NONE', #58, #48 ) ;
#79 = CARTESIAN_POINT ( 'NONE',  ( 0.0000000000000000000, 0.0000000000000000000, 1.496062999999999921 ) ) ;
#80 = DIRECTION ( 'NONE',  ( 0.1736481776669314969, 0.0000000000000000000, 0.9848077530122077983 ) ) ;
#81 = EDGE_CURVE ( 'NONE', #121, #117, #143, .T. ) ;
#82 = DIRECTION ( 'NONE',  ( 0.0000000000000000000, 0.0000000000000000000, -1.000000000000000000 ) ) ;
#83 = DIRECTION ( 'NONE',  ( 1.000000000000000000, 0.0000000000000000000, -0.0000000000000000000 ) ) ;
#84 = EDGE_CURVE ( 'NONE', #178, #203, #52, .T. ) ;
#85 = SURFACE_STYLE_FILL_AREA ( #17 ) ;
#86 = EDGE_LOOP ( 'NONE', ( #89, #142, #274, #233 ) ) ;
#87 = LENGTH_MEASURE_WITH_UNIT ( LENGTH_MEASURE( 0.02539999999999999897 ), #1 );
#88 = ORIENTED_EDGE ( 'NONE', *, *, #2, .F. ) ;
#89 = ORIENTED_EDGE ( 'NONE', *, *, #74, .F. ) ;
#90 = CIRCLE ( 'NONE', #165, 0.04405500000000001082 ) ;
#91 = LENGTH_MEASURE_WITH_UNIT ( LENGTH_MEASURE( 0.02539999999999999897 ), #21 );
#92 = CARTESIAN_POINT ( 'NONE',  ( 0.0000000000000000000, 0.0000000000000000000, 1.496062999999999921 ) ) ;
#93 = ORIENTED_EDGE ( 'NONE', *, *, #258, .T. ) ;
#94 = CARTESIAN_POINT ( 'NONE',  ( -0.04405500000000001082, 0.0000000000000000000, 1.496062999999999921 ) ) ;
#95 = EDGE_CURVE ( 'NONE', #20, #255, #189, .T. ) ;
#96 = VECTOR ( 'NONE', #173, 39.37007874015748854 ) ;
#97 = ORIENTED_EDGE ( 'NONE', *, *, #100, .F. ) ;
#98 = DIRECTION ( 'NONE',  ( 1.000000000000000000, 0.0000000000000000000, 0.0000000000000000000 ) ) ;
#99 = ORIENTED_EDGE ( 'NONE', *, *, #149, .F. ) ;
#100 = EDGE_CURVE ( 'NONE', #117, #255, #168, .T. ) ;
#101 = CARTESIAN_POINT ( 'NONE',  ( 0.04405500000000001082, 6.313666573004179469E-18, 1.496062999999999921 ) ) ;
#102 = DIRECTION ( 'NONE',  ( -1.224646799147352961E-16, -0.0000000000000000000, -1.000000000000000000 ) ) ;
#103 = CONICAL_SURFACE ( 'NONE', #129, 0.04405500000000001082, 0.7853981633974570498 ) ;
#104 = COLOUR_RGB ( '',0.7921568627450980005, 0.8196078431372548767, 0.9333333333333333481 ) ;
#105 = DIRECTION ( 'NONE',  ( 1.224646799147352961E-16, 0.0000000000000000000, 1.000000000000000000 ) ) ;
#106 = CARTESIAN_POINT ( 'NONE',  ( 0.01966531499999996796, 0.0000000000000000000, 0.1181099999999999650 ) ) ;
#107 = DIRECTION ( 'NONE',  ( -0.0000000000000000000, -0.0000000000000000000, -1.000000000000000000 ) ) ;
#108 = AXIS2_PLACEMENT_3D ( 'NONE', #213, #7, #192 ) ;
#109 = ADVANCED_FACE ( 'NONE', ( #232 ), #280, .T. ) ;
#110 = FACE_OUTER_BOUND ( 'NONE', #276, .T. ) ;
#111 = CARTESIAN_POINT ( 'NONE',  ( 0.0000000000000000000, 0.0000000000000000000, 1.496062999999999921 ) ) ;
#112 = LENGTH_MEASURE_WITH_UNIT ( LENGTH_MEASURE( 0.02539999999999999897 ), #46 );
#113 = DIMENSIONAL_EXPONENTS ( 1.000000000000000000, 0.0000000000000000000, 0.0000000000000000000, 0.0000000000000000000, 0.0000000000000000000, 0.0000000000000000000, 0.0000000000000000000 ) ;
#114 = VECTOR ( 'NONE', #72, 39.37007874015748854 ) ;
#115 = AXIS2_PLACEMENT_3D ( 'NONE', #118, #4, #31 ) ;
#116 = EDGE_LOOP ( 'NONE', ( #71, #27 ) ) ;
#117 = VERTEX_POINT ( 'NONE', #73 ) ;
#118 = CARTESIAN_POINT ( 'NONE',  ( 0.0000000000000000000, 0.0000000000000000000, 0.0000000000000000000 ) ) ;
#119 = PRODUCT_DEFINITION_CONTEXT ( 'detailed design', #77, 'design' ) ;
#120 = CARTESIAN_POINT ( 'NONE',  ( 0.0000000000000000000, 0.0000000000000000000, 1.496062999999999921 ) ) ;
#121 = VERTEX_POINT ( 'NONE', #28 ) ;
#122 = ORIENTED_EDGE ( 'NONE', *, *, #74, .T. ) ;
#123 = SHAPE_DEFINITION_REPRESENTATION ( #275, #50 ) ;
#124 = DIRECTION ( 'NONE',  ( -0.0000000000000000000, -0.0000000000000000000, -1.000000000000000000 ) ) ;
#125 = VERTEX_POINT ( 'NONE', #101 ) ;
#126 = ADVANCED_FACE ( 'NONE', ( #264 ), #53, .T. ) ;
#127 = DIRECTION ( 'NONE',  ( 0.0000000000000000000, 0.0000000000000000000, -1.000000000000000000 ) ) ;
#128 = AXIS2_PLACEMENT_3D ( 'NONE', #130, #132, #217 ) ;
#129 = AXIS2_PLACEMENT_3D ( 'NONE', #92, #248, #182 ) ;
#130 = CARTESIAN_POINT ( 'NONE',  ( 0.0000000000000000000, 0.0000000000000000000, 1.496062999999999921 ) ) ;
#131 = ADVANCED_FACE ( 'NONE', ( #5 ), #134, .T. ) ;
#132 = DIRECTION ( 'NONE',  ( 0.0000000000000000000, 0.0000000000000000000, -1.000000000000000000 ) ) ;
#133 = DIRECTION ( 'NONE',  ( -1.224646799147352961E-16, -0.0000000000000000000, -1.000000000000000000 ) ) ;
#134 = CONICAL_SURFACE ( 'NONE', #251, 0.01966531499999995408, 0.1745329251994340025 ) ;
#135 = CARTESIAN_POINT ( 'NONE',  ( -0.05905499999999993394, 0.0000000000000000000, 0.3415000044209671182 ) ) ;
#136 =( CONVERSION_BASED_UNIT ( 'INCH', #87 ) LENGTH_UNIT ( ) NAMED_UNIT ( #298 ) );
#137 = CIRCLE ( 'NONE', #211, 0.05905499999999998251 ) ;
#138 =( NAMED_UNIT ( * ) PLANE_ANGLE_UNIT ( ) SI_UNIT ( $, .RADIAN. ) );
#139 = ORIENTED_EDGE ( 'NONE', *, *, #190, .F. ) ;
#140 = FILL_AREA_STYLE_COLOUR ( '', #104 ) ;
#141 = CONICAL_SURFACE ( 'NONE', #14, 0.01966531499999995408, 0.1745329251994340025 ) ;
#142 = ORIENTED_EDGE ( 'NONE', *, *, #151, .T. ) ;
#143 = LINE ( 'NONE', #94, #114 ) ;
#144 = ORIENTED_EDGE ( 'NONE', *, *, #190, .T. ) ;
#145 = VECTOR ( 'NONE', #266, 39.37007874015748143 ) ;
#146 = EDGE_LOOP ( 'NONE', ( #282, #250, #88, #234 ) ) ;
#147 = APPLICATION_PROTOCOL_DEFINITION ( 'draft international standard', 'automotive_design', 1998, #77 ) ;
#148 = VERTEX_POINT ( 'NONE', #200 ) ;
#149 = EDGE_CURVE ( 'NONE', #148, #20, #154, .T. ) ;
#150 = CARTESIAN_POINT ( 'NONE',  ( 2.949324855037690456E-34, 0.0000000000000000000, 2.408306506897438479E-18 ) ) ;
#151 = EDGE_CURVE ( 'NONE', #125, #148, #288, .T. ) ;
#152 = CARTESIAN_POINT ( 'NONE',  ( 1.446430334472938160E-17, 0.0000000000000000000, 0.1181099999999999650 ) ) ;
#153 = CYLINDRICAL_SURFACE ( 'NONE', #197, 0.05905499999999998251 ) ;
#154 = LINE ( 'NONE', #242, #201 ) ;
#155 = EDGE_CURVE ( 'NONE', #178, #32, #160, .T. ) ;
#156 = PLANE ( 'NONE',  #69 ) ;
#157 = CIRCLE ( 'NONE', #26, 0.01966531499999996796 ) ;
#158 = CIRCLE ( 'NONE', #13, 0.01966531499999996796 ) ;
#159 = ADVANCED_FACE ( 'NONE', ( #245 ), #153, .T. ) ;
#160 = CIRCLE ( 'NONE', #30, 0.01966531499999995408 ) ;
#161 = DIRECTION ( 'NONE',  ( -1.000000000000000000, 0.0000000000000000000, 1.224646799147352714E-16 ) ) ;
#162 = SURFACE_STYLE_FILL_AREA ( #23 ) ;
#163 = EDGE_CURVE ( 'NONE', #148, #117, #137, .T. ) ;
#164 = ORIENTED_EDGE ( 'NONE', *, *, #163, .T. ) ;
#165 = AXIS2_PLACEMENT_3D ( 'NONE', #120, #76, #283 ) ;
#166 = CARTESIAN_POINT ( 'NONE',  ( 0.01966531499999995755, 2.408306506897438094E-18, -2.408306506897437709E-18 ) ) ;
#167 = EDGE_LOOP ( 'NONE', ( #238, #29, #93, #54 ) ) ;
#168 = LINE ( 'NONE', #236, #262 ) ;
#169 = ORIENTED_EDGE ( 'NONE', *, *, #171, .T. ) ;
#170 = CARTESIAN_POINT ( 'NONE',  ( 4.182168873229443489E-17, 0.0000000000000000000, 0.3415000044209671182 ) ) ;
#171 = EDGE_CURVE ( 'NONE', #32, #255, #78, .T. ) ;
#172 = DIRECTION ( 'NONE',  ( 1.000000000000000000, 0.0000000000000000000, 0.0000000000000000000 ) ) ;
#173 = DIRECTION ( 'NONE',  ( 0.7071067811865536790, 8.659560562355008046E-17, -0.7071067811865412445 ) ) ;
#174 = ADVANCED_FACE ( 'NONE', ( #239 ), #271, .T. ) ;
#175 = FACE_OUTER_BOUND ( 'NONE', #44, .T. ) ;
#176 = CARTESIAN_POINT ( 'NONE',  ( -0.01966531499999996796, 0.0000000000000000000, 4.816613013794876958E-18 ) ) ;
#177 = DIRECTION ( 'NONE',  ( -1.224646799147352961E-16, -0.0000000000000000000, -1.000000000000000000 ) ) ;
#178 = VERTEX_POINT ( 'NONE', #215 ) ;
#179 =( NAMED_UNIT ( * ) SI_UNIT ( $, .STERADIAN. ) SOLID_ANGLE_UNIT ( ) );
#180 = CIRCLE ( 'NONE', #290, 0.04405500000000001082 ) ;
#181 = AXIS2_PLACEMENT_3D ( 'NONE', #170, #208, #284 ) ;
#182 = DIRECTION ( 'NONE',  ( -1.000000000000000000, 0.0000000000000000000, 0.0000000000000000000 ) ) ;
#183 = ORIENTED_EDGE ( 'NONE', *, *, #258, .F. ) ;
#184 = CARTESIAN_POINT ( 'NONE',  ( 0.0000000000000000000, 0.0000000000000000000, 1.496062999999999921 ) ) ;
#185 = DIMENSIONAL_EXPONENTS ( 1.000000000000000000, 0.0000000000000000000, 0.0000000000000000000, 0.0000000000000000000, 0.0000000000000000000, 0.0000000000000000000, 0.0000000000000000000 ) ;
#186 = EDGE_LOOP ( 'NONE', ( #33, #169, #144, #183 ) ) ;
#187 = CARTESIAN_POINT ( 'NONE',  ( 0.05905500000000002414, 7.232151672364696963E-18, 0.3415000044209671182 ) ) ;
#188 = CARTESIAN_POINT ( 'NONE',  ( 2.949324855037690456E-34, 0.0000000000000000000, 2.408306506897438479E-18 ) ) ;
#189 = CIRCLE ( 'NONE', #181, 0.05905499999999998251 ) ;
#190 = EDGE_CURVE ( 'NONE', #255, #20, #235, .T. ) ;
#191 = STYLED_ITEM ( 'NONE', ( #43 ), #50 ) ;
#192 = DIRECTION ( 'NONE',  ( -1.000000000000000000, 0.0000000000000000000, 1.224646799147352961E-16 ) ) ;
#193 = CARTESIAN_POINT ( 'NONE',  ( 1.446430334472938160E-17, 0.0000000000000000000, 0.1181099999999999650 ) ) ;
#194 = DIRECTION ( 'NONE',  ( -0.0000000000000000000, -0.0000000000000000000, -1.000000000000000000 ) ) ;
#195 = EDGE_CURVE ( 'NONE', #32, #257, #218, .T. ) ;
#196 = DIRECTION ( 'NONE',  ( -1.000000000000000000, 0.0000000000000000000, 0.0000000000000000000 ) ) ;
#197 = AXIS2_PLACEMENT_3D ( 'NONE', #79, #56, #270 ) ;
#198 = CARTESIAN_POINT ( 'NONE',  ( -0.01966531499999995755, 0.0000000000000000000, 2.408306506897437709E-18 ) ) ;
#199 = ADVANCED_FACE ( 'NONE', ( #59 ), #141, .T. ) ;
#200 = CARTESIAN_POINT ( 'NONE',  ( 0.05905499999999998251, 7.232151672364692341E-18, 1.481063000000000240 ) ) ;
#201 = VECTOR ( 'NONE', #194, 39.37007874015748143 ) ;
#202 =( GEOMETRIC_REPRESENTATION_CONTEXT ( 3 ) GLOBAL_UNCERTAINTY_ASSIGNED_CONTEXT ( ( #67 ) ) GLOBAL_UNIT_ASSIGNED_CONTEXT ( ( #136, #62, #179 ) ) REPRESENTATION_CONTEXT ( 'NONE', 'WORKASPACE' ) );
#203 = VERTEX_POINT ( 'NONE', #37 ) ;
#204 =( CONVERSION_BASED_UNIT ( 'INCH', #112 ) LENGTH_UNIT ( ) NAMED_UNIT ( #185 ) );
#205 = CIRCLE ( 'NONE', #267, 0.05905499999999998251 ) ;
#206 = PRESENTATION_STYLE_ASSIGNMENT (( #41 ) ) ;
#207 = APPLICATION_CONTEXT ( 'automotive_design' ) ;
#208 = DIRECTION ( 'NONE',  ( -1.224646799147352961E-16, -0.0000000000000000000, -1.000000000000000000 ) ) ;
#209 = DIRECTION ( 'NONE',  ( -1.000000000000000000, 0.0000000000000000000, 1.224646799147352961E-16 ) ) ;
#210 = ORIENTED_EDGE ( 'NONE', *, *, #95, .F. ) ;
#211 = AXIS2_PLACEMENT_3D ( 'NONE', #16, #127, #12 ) ;
#212 = DIRECTION ( 'NONE',  ( -1.224646799147352961E-16, -0.0000000000000000000, -1.000000000000000000 ) ) ;
#213 = CARTESIAN_POINT ( 'NONE',  ( 0.0000000000000000000, 0.0000000000000000000, 0.0000000000000000000 ) ) ;
#214 = DIRECTION ( 'NONE',  ( -1.000000000000000000, 0.0000000000000000000, 1.224646799147352714E-16 ) ) ;
#215 = CARTESIAN_POINT ( 'NONE',  ( 0.01966531499999996796, 0.0000000000000000000, 0.1181099999999999650 ) ) ;
#216 = CYLINDRICAL_SURFACE ( 'NONE', #285, 0.05905499999999998251 ) ;
#217 = DIRECTION ( 'NONE',  ( -1.000000000000000000, 0.0000000000000000000, 0.0000000000000000000 ) ) ;
#218 = LINE ( 'NONE', #198, #145 ) ;
#219 = VECTOR ( 'NONE', #102, 39.37007874015748143 ) ;
#220 = CARTESIAN_POINT ( 'NONE',  ( 4.182168873229443489E-17, 0.0000000000000000000, 0.3415000044209671182 ) ) ;
#221 = ADVANCED_FACE ( 'NONE', ( #175 ), #281, .T. ) ;
#222 = APPLICATION_PROTOCOL_DEFINITION ( 'draft international standard', 'automotive_design', 1998, #207 ) ;
#223 = UNCERTAINTY_MEASURE_WITH_UNIT (LENGTH_MEASURE( 1.000000000000000082E-05 ), #204, 'distance_accuracy_value', 'NONE');
#224 = CIRCLE ( 'NONE', #9, 0.01966531499999995408 ) ;
#225 = ORIENTED_EDGE ( 'NONE', *, *, #100, .T. ) ;
#226 = ORIENTED_EDGE ( 'NONE', *, *, #40, .T. ) ;
#227 = UNCERTAINTY_MEASURE_WITH_UNIT (LENGTH_MEASURE( 1.000000000000000082E-05 ), #19, 'distance_accuracy_value', 'NONE');
#228 = DIRECTION ( 'NONE',  ( -1.224646799147352961E-16, -0.0000000000000000000, -1.000000000000000000 ) ) ;
#229 = PRODUCT ( 'Micro_GEMM-010-2', 'Micro_GEMM-010-2', '', ( #279 ) ) ;
#230 = PRESENTATION_LAYER_ASSIGNMENT (  '', '', ( #295 ) ) ;
#231 =( NAMED_UNIT ( * ) SI_UNIT ( $, .STERADIAN. ) SOLID_ANGLE_UNIT ( ) );
#232 = FACE_OUTER_BOUND ( 'NONE', #146, .T. ) ;
#233 = ORIENTED_EDGE ( 'NONE', *, *, #81, .F. ) ;
#234 = ORIENTED_EDGE ( 'NONE', *, *, #195, .F. ) ;
#235 = CIRCLE ( 'NONE', #277, 0.05905499999999998251 ) ;
#236 = CARTESIAN_POINT ( 'NONE',  ( -0.05905499999999998251, 0.0000000000000000000, 1.496062999999999921 ) ) ;
#237 = CLOSED_SHELL ( 'NONE', ( #109, #199, #287, #247, #159, #174, #221, #131, #126, #268 ) ) ;
#238 = ORIENTED_EDGE ( 'NONE', *, *, #171, .F. ) ;
#239 = FACE_OUTER_BOUND ( 'NONE', #296, .T. ) ;
#240 = COLOUR_RGB ( '',0.7921568627450980005, 0.8196078431372548767, 0.9333333333333333481 ) ;
#241 =( GEOMETRIC_REPRESENTATION_CONTEXT ( 3 ) GLOBAL_UNCERTAINTY_ASSIGNED_CONTEXT ( ( #223 ) ) GLOBAL_UNIT_ASSIGNED_CONTEXT ( ( #204, #138, #253 ) ) REPRESENTATION_CONTEXT ( 'NONE', 'WORKASPACE' ) );
#242 = CARTESIAN_POINT ( 'NONE',  ( 0.05905499999999998251, 7.232151672364692341E-18, 1.496062999999999921 ) ) ;
#243 = DIRECTION ( 'NONE',  ( 0.0000000000000000000, 0.0000000000000000000, 1.000000000000000000 ) ) ;
#244 = PRODUCT_RELATED_PRODUCT_CATEGORY ( 'part', '', ( #229 ) ) ;
#245 = FACE_OUTER_BOUND ( 'NONE', #18, .T. ) ;
#246 = CARTESIAN_POINT ( 'NONE',  ( 0.0000000000000000000, 0.0000000000000000000, 0.0000000000000000000 ) ) ;
#247 = ADVANCED_FACE ( 'NONE', ( #110 ), #216, .T. ) ;
#248 = DIRECTION ( 'NONE',  ( 0.0000000000000000000, 0.0000000000000000000, -1.000000000000000000 ) ) ;
#249 = SURFACE_SIDE_STYLE ('',( #85 ) ) ;
#250 = ORIENTED_EDGE ( 'NONE', *, *, #84, .T. ) ;
#251 = AXIS2_PLACEMENT_3D ( 'NONE', #193, #105, #38 ) ;
#252 = ORIENTED_EDGE ( 'NONE', *, *, #195, .T. ) ;
#253 =( NAMED_UNIT ( * ) SI_UNIT ( $, .STERADIAN. ) SOLID_ANGLE_UNIT ( ) );
#254 = SURFACE_SIDE_STYLE ('',( #162 ) ) ;
#255 = VERTEX_POINT ( 'NONE', #135 ) ;
#256 = EDGE_CURVE ( 'NONE', #117, #148, #205, .T. ) ;
#257 = VERTEX_POINT ( 'NONE', #176 ) ;
#258 = EDGE_CURVE ( 'NONE', #178, #20, #293, .T. ) ;
#259 = DIRECTION ( 'NONE',  ( -1.224646799147352961E-16, -0.0000000000000000000, -1.000000000000000000 ) ) ;
#260 = ORIENTED_EDGE ( 'NONE', *, *, #256, .T. ) ;
#261 = ORIENTED_EDGE ( 'NONE', *, *, #163, .F. ) ;
#262 = VECTOR ( 'NONE', #124, 39.37007874015748143 ) ;
#263 =( NAMED_UNIT ( * ) PLANE_ANGLE_UNIT ( ) SI_UNIT ( $, .RADIAN. ) );
#264 = FACE_OUTER_BOUND ( 'NONE', #265, .T. ) ;
#265 = EDGE_LOOP ( 'NONE', ( #47, #68, #252, #66 ) ) ;
#266 = DIRECTION ( 'NONE',  ( -1.224646799147352961E-16, -0.0000000000000000000, -1.000000000000000000 ) ) ;
#267 = AXIS2_PLACEMENT_3D ( 'NONE', #291, #82, #273 ) ;
#268 = ADVANCED_FACE ( 'NONE', ( #272 ), #156, .F. ) ;
#269 = PRODUCT_DEFINITION_FORMATION_WITH_SPECIFIED_SOURCE ( 'ANY', '', #229, .NOT_KNOWN. ) ;
#270 = DIRECTION ( 'NONE',  ( -1.000000000000000000, 0.0000000000000000000, 0.0000000000000000000 ) ) ;
#271 = PLANE ( 'NONE',  #64 ) ;
#272 = FACE_OUTER_BOUND ( 'NONE', #116, .T. ) ;
#273 = DIRECTION ( 'NONE',  ( 1.000000000000000000, 0.0000000000000000000, 0.0000000000000000000 ) ) ;
#274 = ORIENTED_EDGE ( 'NONE', *, *, #256, .F. ) ;
#275 = PRODUCT_DEFINITION_SHAPE ( 'NONE', 'NONE',  #24 ) ;
#276 = EDGE_LOOP ( 'NONE', ( #260, #22, #139, #97 ) ) ;
#277 = AXIS2_PLACEMENT_3D ( 'NONE', #220, #133, #172 ) ;
#278 = EDGE_CURVE ( 'NONE', #203, #257, #157, .T. ) ;
#279 = PRODUCT_CONTEXT ( 'NONE', #207, 'mechanical' ) ;
#280 = CYLINDRICAL_SURFACE ( 'NONE', #108, 0.01966531499999995755 ) ;
#281 = CONICAL_SURFACE ( 'NONE', #128, 0.04405500000000001082, 0.7853981633974570498 ) ;
#282 = ORIENTED_EDGE ( 'NONE', *, *, #42, .T. ) ;
#283 = DIRECTION ( 'NONE',  ( 1.000000000000000000, 0.0000000000000000000, 0.0000000000000000000 ) ) ;
#284 = DIRECTION ( 'NONE',  ( 1.000000000000000000, 0.0000000000000000000, 0.0000000000000000000 ) ) ;
#285 = AXIS2_PLACEMENT_3D ( 'NONE', #111, #107, #196 ) ;
#286 = DIRECTION ( 'NONE',  ( 0.0000000000000000000, 0.0000000000000000000, 1.000000000000000000 ) ) ;
#287 = ADVANCED_FACE ( 'NONE', ( #299 ), #103, .T. ) ;
#288 = LINE ( 'NONE', #292, #96 ) ;
#289 = DIRECTION ( 'NONE',  ( -0.1736481776669312749, 2.126576849575784241E-17, 0.9848077530122077983 ) ) ;
#290 = AXIS2_PLACEMENT_3D ( 'NONE', #184, #286, #98 ) ;
#291 = CARTESIAN_POINT ( 'NONE',  ( 0.0000000000000000000, 0.0000000000000000000, 1.481063000000000240 ) ) ;
#292 = CARTESIAN_POINT ( 'NONE',  ( 0.04405500000000001082, 5.395181473643666598E-18, 1.496062999999999921 ) ) ;
#293 = LINE ( 'NONE', #106, #75 ) ;
#294 = MECHANICAL_DESIGN_GEOMETRIC_PRESENTATION_REPRESENTATION (  '', ( #295 ), #202 ) ;
#295 = STYLED_ITEM ( 'NONE', ( #206 ), #297 ) ;
#296 = EDGE_LOOP ( 'NONE', ( #226, #122 ) ) ;
#297 = MANIFOLD_SOLID_BREP ( 'Cut-Revolve1', #237 ) ;
#298 = DIMENSIONAL_EXPONENTS ( 1.000000000000000000, 0.0000000000000000000, 0.0000000000000000000, 0.0000000000000000000, 0.0000000000000000000, 0.0000000000000000000, 0.0000000000000000000 ) ;
#299 = FACE_OUTER_BOUND ( 'NONE', #86, .T. ) ;
ENDSEC;
END-ISO-10303-21;
