ISO-10303-21;
HEADER;
FILE_DESCRIPTION (( 'STEP AP214' ),
    '1' );
FILE_NAME ('84690.STEP',
    '2023-06-23T14:45:12',
    ( '' ),
    ( '' ),
    'SwSTEP 2.0',
    'SolidWorks 2023',
    '' );
FILE_SCHEMA (( 'AUTOMOTIVE_DESIGN' ));
ENDSEC;

DATA;
#1 = EDGE_CURVE ( 'NONE', #224, #72, #130, .T. ) ;
#2 = ORIENTED_EDGE ( 'NONE', *, *, #249, .T. ) ;
#3 = PRESENTATION_LAYER_ASSIGNMENT (  '', '', ( #114 ) ) ;
#4 = DIRECTION ( 'NONE',  ( 0.000000000000000000, 0.000000000000000000, -1.000000000000000000 ) ) ;
#5 = AXIS2_PLACEMENT_3D ( 'NONE', #194, #181, #4 ) ;
#6 = AXIS2_PLACEMENT_3D ( 'NONE', #251, #201, #293 ) ;
#7 = CARTESIAN_POINT ( 'NONE',  ( 1.836970198721029688E-16, 3.500000000000000000, 0.000000000000000000 ) ) ;
#8 =( LENGTH_UNIT ( ) NAMED_UNIT ( * ) SI_UNIT ( $, .METRE. ) );
#9 = EDGE_CURVE ( 'NONE', #72, #224, #151, .T. ) ;
#10 = ORIENTED_EDGE ( 'NONE', *, *, #9, .F. ) ;
#11 = PLANE ( 'NONE',  #177 ) ;
#12 = AXIS2_PLACEMENT_3D ( 'NONE', #280, #191, #122 ) ;
#13 = PRESENTATION_STYLE_ASSIGNMENT (( #233 ) ) ;
#14 = SURFACE_STYLE_USAGE ( .BOTH. , #16 ) ;
#15 = FILL_AREA_STYLE_COLOUR ( '', #37 ) ;
#16 = SURFACE_SIDE_STYLE ('',( #161 ) ) ;
#17 = ADVANCED_FACE ( 'NONE', ( #207 ), #143, .T. ) ;
#18 = CARTESIAN_POINT ( 'NONE',  ( 2.678914873134835064E-17, 0.000000000000000000, 0.2187500000000000000 ) ) ;
#19 = CARTESIAN_POINT ( 'NONE',  ( 0.000000000000000000, 0.000000000000000000, 0.000000000000000000 ) ) ;
#20 = FILL_AREA_STYLE ('',( #296 ) ) ;
#21 = LINE ( 'NONE', #216, #152 ) ;
#22 = SURFACE_STYLE_FILL_AREA ( #192 ) ;
#23 = UNCERTAINTY_MEASURE_WITH_UNIT (LENGTH_MEASURE( 1.000000000000000082E-05 ), #127, 'distance_accuracy_value', 'NONE');
#24 = EDGE_LOOP ( 'NONE', ( #274, #155, #53, #10 ) ) ;
#25 = VERTEX_POINT ( 'NONE', #165 ) ;
#26 = CYLINDRICAL_SURFACE ( 'NONE', #240, 0.2187500000000000000 ) ;
#27 = ORIENTED_EDGE ( 'NONE', *, *, #249, .F. ) ;
#28 = ADVANCED_FACE ( 'NONE', ( #214 ), #260, .T. ) ;
#29 =( CONVERSION_BASED_UNIT ( 'INCH', #184 ) LENGTH_UNIT ( ) NAMED_UNIT ( #108 ) );
#30 = DIRECTION ( 'NONE',  ( 9.797174393178827383E-17, 1.000000000000000000, -0.000000000000000000 ) ) ;
#31 = CARTESIAN_POINT ( 'NONE',  ( 0.000000000000000000, 0.000000000000000000, 0.000000000000000000 ) ) ;
#32 = LENGTH_MEASURE_WITH_UNIT ( LENGTH_MEASURE( 0.02539999999999999897 ), #112 );
#33 =( CONVERSION_BASED_UNIT ( 'INCH', #183 ) LENGTH_UNIT ( ) NAMED_UNIT ( #61 ) );
#34 = UNCERTAINTY_MEASURE_WITH_UNIT (LENGTH_MEASURE( 1.000000000000000082E-05 ), #39, 'distance_accuracy_value', 'NONE');
#35 = MECHANICAL_DESIGN_GEOMETRIC_PRESENTATION_REPRESENTATION (  '', ( #218 ), #234 ) ;
#36 = SHAPE_DEFINITION_REPRESENTATION ( #301, #107 ) ;
#37 = COLOUR_RGB ( '',0.7921568627450980005, 0.8196078431372548767, 0.9333333333333333481 ) ;
#38 = DIRECTION ( 'NONE',  ( 0.000000000000000000, 0.000000000000000000, -1.000000000000000000 ) ) ;
#39 =( CONVERSION_BASED_UNIT ( 'INCH', #32 ) LENGTH_UNIT ( ) NAMED_UNIT ( #157 ) );
#40 = SURFACE_STYLE_USAGE ( .BOTH. , #93 ) ;
#41 = PRESENTATION_STYLE_ASSIGNMENT (( #121 ) ) ;
#42 = ADVANCED_FACE ( 'NONE', ( #262 ), #172, .T. ) ;
#43 = CARTESIAN_POINT ( 'NONE',  ( 0.000000000000000000, 0.000000000000000000, 0.000000000000000000 ) ) ;
#44 = DIRECTION ( 'NONE',  ( 0.000000000000000000, 0.000000000000000000, -1.000000000000000000 ) ) ;
#45 = LENGTH_MEASURE_WITH_UNIT ( LENGTH_MEASURE( 0.02539999999999999897 ), #281 );
#46 =( LENGTH_UNIT ( ) NAMED_UNIT ( * ) SI_UNIT ( $, .METRE. ) );
#47 = VECTOR ( 'NONE', #299, 39.37007874015748143 ) ;
#48 = PRODUCT_DEFINITION_CONTEXT ( 'detailed design', #65, 'design' ) ;
#49 = DIRECTION ( 'NONE',  ( 0.000000000000000000, 0.000000000000000000, -1.000000000000000000 ) ) ;
#50 =( CONVERSION_BASED_UNIT ( 'INCH', #45 ) LENGTH_UNIT ( ) NAMED_UNIT ( #266 ) );
#51 = UNCERTAINTY_MEASURE_WITH_UNIT (LENGTH_MEASURE( 1.000000000000000082E-05 ), #64, 'distance_accuracy_value', 'NONE');
#52 = STYLED_ITEM ( 'NONE', ( #13 ), #197 ) ;
#53 = ORIENTED_EDGE ( 'NONE', *, *, #126, .T. ) ;
#54 = VERTEX_POINT ( 'NONE', #70 ) ;
#55 = FACE_OUTER_BOUND ( 'NONE', #178, .T. ) ;
#56 = PRODUCT_DEFINITION_FORMATION_WITH_SPECIFIED_SOURCE ( 'ANY', '', #173, .NOT_KNOWN. ) ;
#57 = DIRECTION ( 'NONE',  ( -1.000000000000000000, 0.000000000000000000, 0.000000000000000000 ) ) ;
#58 = ORIENTED_EDGE ( 'NONE', *, *, #137, .F. ) ;
#59 =( LENGTH_UNIT ( ) NAMED_UNIT ( * ) SI_UNIT ( $, .METRE. ) );
#60 = FILL_AREA_STYLE ('',( #272 ) ) ;
#61 = DIMENSIONAL_EXPONENTS ( 1.000000000000000000, 0.000000000000000000, 0.000000000000000000, 0.000000000000000000, 0.000000000000000000, 0.000000000000000000, 0.000000000000000000 ) ;
#62 = CARTESIAN_POINT ( 'NONE',  ( 1.836970198721029688E-16, 3.500000000000000000, 0.000000000000000000 ) ) ;
#63 = VERTEX_POINT ( 'NONE', #211 ) ;
#64 =( CONVERSION_BASED_UNIT ( 'INCH', #117 ) LENGTH_UNIT ( ) NAMED_UNIT ( #205 ) );
#65 = APPLICATION_CONTEXT ( 'automotive_design' ) ;
#66 = CARTESIAN_POINT ( 'NONE',  ( 0.000000000000000000, 0.000000000000000000, 0.000000000000000000 ) ) ;
#67 = DIRECTION ( 'NONE',  ( -0.000000000000000000, -1.000000000000000000, -0.000000000000000000 ) ) ;
#68 = AXIS2_PLACEMENT_3D ( 'NONE', #82, #295, #203 ) ;
#69 = CIRCLE ( 'NONE', #273, 0.2187500000000000000 ) ;
#70 = CARTESIAN_POINT ( 'NONE',  ( 0.000000000000000000, 0.000000000000000000, -0.2187500000000000000 ) ) ;
#71 = DIRECTION ( 'NONE',  ( 9.797174393178827383E-17, 1.000000000000000000, -0.000000000000000000 ) ) ;
#72 = VERTEX_POINT ( 'NONE', #304 ) ;
#73 = LENGTH_MEASURE_WITH_UNIT ( LENGTH_MEASURE( 0.02539999999999999897 ), #119 );
#74 = AXIS2_PLACEMENT_3D ( 'NONE', #43, #302, #186 ) ;
#75 = VERTEX_POINT ( 'NONE', #18 ) ;
#76 = MANIFOLD_SOLID_BREP ( 'Revolve - Cutting Edge', #243 ) ;
#77 = ORIENTED_EDGE ( 'NONE', *, *, #137, .T. ) ;
#78 = DIRECTION ( 'NONE',  ( -1.000000000000000000, 9.797174393178827383E-17, 0.000000000000000000 ) ) ;
#79 = VERTEX_POINT ( 'NONE', #226 ) ;
#80 = CIRCLE ( 'NONE', #291, 0.2187500000000000000 ) ;
#81 = ORIENTED_EDGE ( 'NONE', *, *, #150, .T. ) ;
#82 = CARTESIAN_POINT ( 'NONE',  ( 0.000000000000000000, 1.625000000000000000, 0.000000000000000000 ) ) ;
#83 = SURFACE_STYLE_FILL_AREA ( #160 ) ;
#84 = FACE_OUTER_BOUND ( 'NONE', #245, .T. ) ;
#85 = DIRECTION ( 'NONE',  ( -0.000000000000000000, -1.000000000000000000, -0.000000000000000000 ) ) ;
#86 = EDGE_CURVE ( 'NONE', #25, #75, #170, .T. ) ;
#87 =( GEOMETRIC_REPRESENTATION_CONTEXT ( 3 ) GLOBAL_UNCERTAINTY_ASSIGNED_CONTEXT ( ( #298 ) ) GLOBAL_UNIT_ASSIGNED_CONTEXT ( ( #33, #185, #139 ) ) REPRESENTATION_CONTEXT ( 'NONE', 'WORKASPACE' ) );
#88 = PRESENTATION_STYLE_ASSIGNMENT (( #14 ) ) ;
#89 =( NAMED_UNIT ( * ) PLANE_ANGLE_UNIT ( ) SI_UNIT ( $, .RADIAN. ) );
#90 = SURFACE_STYLE_FILL_AREA ( #20 ) ;
#91 = STYLED_ITEM ( 'NONE', ( #88 ), #17 ) ;
#92 = PRODUCT_CONTEXT ( 'NONE', #221, 'mechanical' ) ;
#93 = SURFACE_SIDE_STYLE ('',( #168 ) ) ;
#94 = DIRECTION ( 'NONE',  ( 9.797174393178827383E-17, 1.000000000000000000, -0.000000000000000000 ) ) ;
#95 = DIRECTION ( 'NONE',  ( -0.000000000000000000, -1.000000000000000000, -0.000000000000000000 ) ) ;
#96 = CARTESIAN_POINT ( 'NONE',  ( 1.836970198721029688E-16, 3.500000000000000000, 0.000000000000000000 ) ) ;
#97 = VECTOR ( 'NONE', #219, 39.37007874015748143 ) ;
#98 = SURFACE_SIDE_STYLE ('',( #22 ) ) ;
#99 = DIRECTION ( 'NONE',  ( 9.797174393178827383E-17, 1.000000000000000000, -0.000000000000000000 ) ) ;
#100 = CARTESIAN_POINT ( 'NONE',  ( -0.2187499999999997502, 3.500000000000000000, 0.000000000000000000 ) ) ;
#101 = EDGE_LOOP ( 'NONE', ( #199, #132, #244, #263 ) ) ;
#102 = MECHANICAL_DESIGN_GEOMETRIC_PRESENTATION_REPRESENTATION (  '', ( #91 ), #206 ) ;
#103 = ORIENTED_EDGE ( 'NONE', *, *, #235, .T. ) ;
#104 = CARTESIAN_POINT ( 'NONE',  ( 0.000000000000000000, 1.625000000000000000, 0.000000000000000000 ) ) ;
#105 = FILL_AREA_STYLE_COLOUR ( '', #146 ) ;
#106 = EDGE_LOOP ( 'NONE', ( #129, #202 ) ) ;
#107 = ADVANCED_BREP_SHAPE_REPRESENTATION ( '84690', ( #76, #278, #74 ), #213 ) ;
#108 = DIMENSIONAL_EXPONENTS ( 1.000000000000000000, 0.000000000000000000, 0.000000000000000000, 0.000000000000000000, 0.000000000000000000, 0.000000000000000000, 0.000000000000000000 ) ;
#109 = MECHANICAL_DESIGN_GEOMETRIC_PRESENTATION_REPRESENTATION (  '', ( #230 ), #246 ) ;
#110 = DIRECTION ( 'NONE',  ( -1.000000000000000000, 0.000000000000000000, 0.000000000000000000 ) ) ;
#111 = PRESENTATION_STYLE_ASSIGNMENT (( #204 ) ) ;
#112 =( LENGTH_UNIT ( ) NAMED_UNIT ( * ) SI_UNIT ( $, .METRE. ) );
#113 = AXIS2_PLACEMENT_3D ( 'NONE', #96, #94, #115 ) ;
#114 = STYLED_ITEM ( 'NONE', ( #237 ), #278 ) ;
#115 = DIRECTION ( 'NONE',  ( -1.000000000000000000, 0.000000000000000000, 0.000000000000000000 ) ) ;
#116 = PRESENTATION_LAYER_ASSIGNMENT (  '', '', ( #91 ) ) ;
#117 = LENGTH_MEASURE_WITH_UNIT ( LENGTH_MEASURE( 0.02539999999999999897 ), #46 );
#118 = MECHANICAL_DESIGN_GEOMETRIC_PRESENTATION_REPRESENTATION (  '', ( #114 ), #261 ) ;
#119 =( LENGTH_UNIT ( ) NAMED_UNIT ( * ) SI_UNIT ( $, .METRE. ) );
#120 = DIRECTION ( 'NONE',  ( -0.000000000000000000, -1.000000000000000000, -0.000000000000000000 ) ) ;
#121 = SURFACE_STYLE_USAGE ( .BOTH. , #169 ) ;
#122 = DIRECTION ( 'NONE',  ( 1.000000000000000000, -9.797174393178827383E-17, 0.000000000000000000 ) ) ;
#123 = PRESENTATION_STYLE_ASSIGNMENT (( #193 ) ) ;
#124 = COLOUR_RGB ( '',1.000000000000000000, 0.000000000000000000, 0.000000000000000000 ) ;
#125 = MECHANICAL_DESIGN_GEOMETRIC_PRESENTATION_REPRESENTATION (  '', ( #131 ), #87 ) ;
#126 = EDGE_CURVE ( 'NONE', #182, #224, #264, .T. ) ;
#127 =( CONVERSION_BASED_UNIT ( 'INCH', #73 ) LENGTH_UNIT ( ) NAMED_UNIT ( #135 ) );
#128 = DIRECTION ( 'NONE',  ( 9.797174393178827383E-17, 1.000000000000000000, -0.000000000000000000 ) ) ;
#129 = ORIENTED_EDGE ( 'NONE', *, *, #1, .T. ) ;
#130 = CIRCLE ( 'NONE', #195, 0.2187499999999998612 ) ;
#131 = STYLED_ITEM ( 'NONE', ( #111 ), #300 ) ;
#132 = ORIENTED_EDGE ( 'NONE', *, *, #267, .T. ) ;
#133 = FILL_AREA_STYLE ('',( #105 ) ) ;
#134 = ORIENTED_EDGE ( 'NONE', *, *, #86, .F. ) ;
#135 = DIMENSIONAL_EXPONENTS ( 1.000000000000000000, 0.000000000000000000, 0.000000000000000000, 0.000000000000000000, 0.000000000000000000, 0.000000000000000000, 0.000000000000000000 ) ;
#136 = PRESENTATION_LAYER_ASSIGNMENT (  '', '', ( #131 ) ) ;
#137 = EDGE_CURVE ( 'NONE', #25, #79, #141, .T. ) ;
#138 = DIRECTION ( 'NONE',  ( 9.797174393178827383E-17, 1.000000000000000000, -0.000000000000000000 ) ) ;
#139 =( NAMED_UNIT ( * ) SI_UNIT ( $, .STERADIAN. ) SOLID_ANGLE_UNIT ( ) );
#140 = SURFACE_SIDE_STYLE ('',( #228 ) ) ;
#141 = CIRCLE ( 'NONE', #5, 0.2187500000000000000 ) ;
#142 = CYLINDRICAL_SURFACE ( 'NONE', #6, 0.2187499999999999167 ) ;
#143 = PLANE ( 'NONE',  #68 ) ;
#144 = COLOUR_RGB ( '',0.7921568627450980005, 0.8196078431372548767, 0.9333333333333333481 ) ;
#145 = DIRECTION ( 'NONE',  ( 0.000000000000000000, -1.000000000000000000, -0.000000000000000000 ) ) ;
#146 = COLOUR_RGB ( '',1.000000000000000000, 0.000000000000000000, 0.000000000000000000 ) ;
#147 = CARTESIAN_POINT ( 'NONE',  ( -0.2187499999999996947, 3.500000000000000000, 0.000000000000000000 ) ) ;
#148 = EDGE_CURVE ( 'NONE', #182, #63, #212, .T. ) ;
#149 = PLANE ( 'NONE',  #12 ) ;
#150 = EDGE_CURVE ( 'NONE', #54, #75, #80, .T. ) ;
#151 = CIRCLE ( 'NONE', #239, 0.2187499999999998612 ) ;
#152 = VECTOR ( 'NONE', #236, 39.37007874015748143 ) ;
#153 = CARTESIAN_POINT ( 'NONE',  ( 0.000000000000000000, 0.000000000000000000, 0.000000000000000000 ) ) ;
#154 = DIRECTION ( 'NONE',  ( -0.000000000000000000, -1.000000000000000000, -0.000000000000000000 ) ) ;
#155 = ORIENTED_EDGE ( 'NONE', *, *, #156, .T. ) ;
#156 = EDGE_CURVE ( 'NONE', #63, #182, #200, .T. ) ;
#157 = DIMENSIONAL_EXPONENTS ( 1.000000000000000000, 0.000000000000000000, 0.000000000000000000, 0.000000000000000000, 0.000000000000000000, 0.000000000000000000, 0.000000000000000000 ) ;
#158 = DIMENSIONAL_EXPONENTS ( 1.000000000000000000, 0.000000000000000000, 0.000000000000000000, 0.000000000000000000, 0.000000000000000000, 0.000000000000000000, 0.000000000000000000 ) ;
#159 = EDGE_LOOP ( 'NONE', ( #27, #58 ) ) ;
#160 = FILL_AREA_STYLE ('',( #164 ) ) ;
#161 = SURFACE_STYLE_FILL_AREA ( #60 ) ;
#162 = AXIS2_PLACEMENT_3D ( 'NONE', #275, #95, #49 ) ;
#163 = UNCERTAINTY_MEASURE_WITH_UNIT (LENGTH_MEASURE( 1.000000000000000082E-05 ), #50, 'distance_accuracy_value', 'NONE');
#164 = FILL_AREA_STYLE_COLOUR ( '', #231 ) ;
#165 = CARTESIAN_POINT ( 'NONE',  ( 2.678914873134835064E-17, 1.625000000000000000, 0.2187500000000000000 ) ) ;
#166 =( NAMED_UNIT ( * ) SI_UNIT ( $, .STERADIAN. ) SOLID_ANGLE_UNIT ( ) );
#167 = MECHANICAL_DESIGN_GEOMETRIC_PRESENTATION_REPRESENTATION (  '', ( #52 ), #225 ) ;
#168 = SURFACE_STYLE_FILL_AREA ( #277 ) ;
#169 = SURFACE_SIDE_STYLE ('',( #90 ) ) ;
#170 = LINE ( 'NONE', #220, #97 ) ;
#171 =( LENGTH_UNIT ( ) NAMED_UNIT ( * ) SI_UNIT ( $, .METRE. ) );
#172 = CYLINDRICAL_SURFACE ( 'NONE', #113, 0.2187499999999999167 ) ;
#173 = PRODUCT ( '84690', '84690', '', ( #92 ) ) ;
#174 = CARTESIAN_POINT ( 'NONE',  ( 0.000000000000000000, 1.625000000000000000, 0.000000000000000000 ) ) ;
#175 = ADVANCED_FACE ( 'NONE', ( #222 ), #196, .F. ) ;
#176 = COLOUR_RGB ( '',1.000000000000000000, 0.000000000000000000, 0.000000000000000000 ) ;
#177 = AXIS2_PLACEMENT_3D ( 'NONE', #19, #145, #258 ) ;
#178 = EDGE_LOOP ( 'NONE', ( #134, #77, #248, #290 ) ) ;
#179 = EDGE_LOOP ( 'NONE', ( #265, #271 ) ) ;
#180 = CLOSED_SHELL ( 'NONE', ( #285, #175, #42, #259 ) ) ;
#181 = DIRECTION ( 'NONE',  ( -0.000000000000000000, -1.000000000000000000, -0.000000000000000000 ) ) ;
#182 = VERTEX_POINT ( 'NONE', #268 ) ;
#183 = LENGTH_MEASURE_WITH_UNIT ( LENGTH_MEASURE( 0.02539999999999999897 ), #8 );
#184 = LENGTH_MEASURE_WITH_UNIT ( LENGTH_MEASURE( 0.02539999999999999897 ), #59 );
#185 =( NAMED_UNIT ( * ) PLANE_ANGLE_UNIT ( ) SI_UNIT ( $, .RADIAN. ) );
#186 = DIRECTION ( 'NONE',  ( 1.000000000000000000, 0.000000000000000000, 0.000000000000000000 ) ) ;
#187 = CIRCLE ( 'NONE', #162, 0.2187500000000000000 ) ;
#188 =( NAMED_UNIT ( * ) PLANE_ANGLE_UNIT ( ) SI_UNIT ( $, .RADIAN. ) );
#189 = FACE_OUTER_BOUND ( 'NONE', #106, .T. ) ;
#190 =( NAMED_UNIT ( * ) SI_UNIT ( $, .STERADIAN. ) SOLID_ANGLE_UNIT ( ) );
#191 = DIRECTION ( 'NONE',  ( -9.797174393178827383E-17, -1.000000000000000000, 0.000000000000000000 ) ) ;
#192 = FILL_AREA_STYLE ('',( #242 ) ) ;
#193 = SURFACE_STYLE_USAGE ( .BOTH. , #98 ) ;
#194 = CARTESIAN_POINT ( 'NONE',  ( 0.000000000000000000, 1.625000000000000000, 0.000000000000000000 ) ) ;
#195 = AXIS2_PLACEMENT_3D ( 'NONE', #62, #30, #232 ) ;
#196 = PLANE ( 'NONE',  #297 ) ;
#197 = ADVANCED_FACE ( 'NONE', ( #55 ), #26, .T. ) ;
#198 = DIRECTION ( 'NONE',  ( 0.000000000000000000, 0.000000000000000000, -1.000000000000000000 ) ) ;
#199 = ORIENTED_EDGE ( 'NONE', *, *, #148, .T. ) ;
#200 = CIRCLE ( 'NONE', #292, 0.2187500000000000000 ) ;
#201 = DIRECTION ( 'NONE',  ( 9.797174393178827383E-17, 1.000000000000000000, -0.000000000000000000 ) ) ;
#202 = ORIENTED_EDGE ( 'NONE', *, *, #9, .T. ) ;
#203 = DIRECTION ( 'NONE',  ( 0.000000000000000000, -0.000000000000000000, 1.000000000000000000 ) ) ;
#204 = SURFACE_STYLE_USAGE ( .BOTH. , #252 ) ;
#205 = DIMENSIONAL_EXPONENTS ( 1.000000000000000000, 0.000000000000000000, 0.000000000000000000, 0.000000000000000000, 0.000000000000000000, 0.000000000000000000, 0.000000000000000000 ) ;
#206 =( GEOMETRIC_REPRESENTATION_CONTEXT ( 3 ) GLOBAL_UNCERTAINTY_ASSIGNED_CONTEXT ( ( #34 ) ) GLOBAL_UNIT_ASSIGNED_CONTEXT ( ( #39, #89, #166 ) ) REPRESENTATION_CONTEXT ( 'NONE', 'WORKASPACE' ) );
#207 = FACE_OUTER_BOUND ( 'NONE', #159, .T. ) ;
#208 = PRESENTATION_LAYER_ASSIGNMENT (  '', '', ( #52 ) ) ;
#209 = UNCERTAINTY_MEASURE_WITH_UNIT (LENGTH_MEASURE( 1.000000000000000082E-05 ), #29, 'distance_accuracy_value', 'NONE');
#210 = APPLICATION_PROTOCOL_DEFINITION ( 'draft international standard', 'automotive_design', 1998, #65 ) ;
#211 = CARTESIAN_POINT ( 'NONE',  ( 0.2187500000000000000, 1.625000000000000000, 2.678914873134834756E-17 ) ) ;
#212 = CIRCLE ( 'NONE', #306, 0.2187500000000000000 ) ;
#213 =( GEOMETRIC_REPRESENTATION_CONTEXT ( 3 ) GLOBAL_UNCERTAINTY_ASSIGNED_CONTEXT ( ( #51 ) ) GLOBAL_UNIT_ASSIGNED_CONTEXT ( ( #64, #241, #253 ) ) REPRESENTATION_CONTEXT ( 'NONE', 'WORKASPACE' ) );
#214 = FACE_OUTER_BOUND ( 'NONE', #289, .T. ) ;
#215 = UNCERTAINTY_MEASURE_WITH_UNIT (LENGTH_MEASURE( 1.000000000000000082E-05 ), #217, 'distance_accuracy_value', 'NONE');
#216 = CARTESIAN_POINT ( 'NONE',  ( 0.2187500000000000833, 3.500000000000000000, 2.678914873134834139E-17 ) ) ;
#217 =( CONVERSION_BASED_UNIT ( 'INCH', #257 ) LENGTH_UNIT ( ) NAMED_UNIT ( #158 ) );
#218 = STYLED_ITEM ( 'NONE', ( #123 ), #76 ) ;
#219 = DIRECTION ( 'NONE',  ( -0.000000000000000000, -1.000000000000000000, -0.000000000000000000 ) ) ;
#220 = CARTESIAN_POINT ( 'NONE',  ( 2.678914873134835064E-17, 0.000000000000000000, 0.2187500000000000000 ) ) ;
#221 = APPLICATION_CONTEXT ( 'automotive_design' ) ;
#222 = FACE_OUTER_BOUND ( 'NONE', #179, .T. ) ;
#223 = PRODUCT_RELATED_PRODUCT_CATEGORY ( 'part', '', ( #173 ) ) ;
#224 = VERTEX_POINT ( 'NONE', #147 ) ;
#225 =( GEOMETRIC_REPRESENTATION_CONTEXT ( 3 ) GLOBAL_UNCERTAINTY_ASSIGNED_CONTEXT ( ( #209 ) ) GLOBAL_UNIT_ASSIGNED_CONTEXT ( ( #29, #294, #250 ) ) REPRESENTATION_CONTEXT ( 'NONE', 'WORKASPACE' ) );
#226 = CARTESIAN_POINT ( 'NONE',  ( 0.000000000000000000, 1.625000000000000000, -0.2187500000000000000 ) ) ;
#227 = ORIENTED_EDGE ( 'NONE', *, *, #150, .F. ) ;
#228 = SURFACE_STYLE_FILL_AREA ( #133 ) ;
#229 = ORIENTED_EDGE ( 'NONE', *, *, #86, .T. ) ;
#230 = STYLED_ITEM ( 'NONE', ( #41 ), #28 ) ;
#231 = COLOUR_RGB ( '',1.000000000000000000, 0.000000000000000000, 0.000000000000000000 ) ;
#232 = DIRECTION ( 'NONE',  ( -1.000000000000000000, 0.000000000000000000, 0.000000000000000000 ) ) ;
#233 = SURFACE_STYLE_USAGE ( .BOTH. , #140 ) ;
#234 =( GEOMETRIC_REPRESENTATION_CONTEXT ( 3 ) GLOBAL_UNCERTAINTY_ASSIGNED_CONTEXT ( ( #163 ) ) GLOBAL_UNIT_ASSIGNED_CONTEXT ( ( #50, #238, #190 ) ) REPRESENTATION_CONTEXT ( 'NONE', 'WORKASPACE' ) );
#235 = EDGE_CURVE ( 'NONE', #75, #54, #69, .T. ) ;
#236 = DIRECTION ( 'NONE',  ( 9.797174393178827383E-17, 1.000000000000000000, -0.000000000000000000 ) ) ;
#237 = PRESENTATION_STYLE_ASSIGNMENT (( #40 ) ) ;
#238 =( NAMED_UNIT ( * ) PLANE_ANGLE_UNIT ( ) SI_UNIT ( $, .RADIAN. ) );
#239 = AXIS2_PLACEMENT_3D ( 'NONE', #7, #138, #110 ) ;
#240 = AXIS2_PLACEMENT_3D ( 'NONE', #31, #85, #38 ) ;
#241 =( NAMED_UNIT ( * ) PLANE_ANGLE_UNIT ( ) SI_UNIT ( $, .RADIAN. ) );
#242 = FILL_AREA_STYLE_COLOUR ( '', #144 ) ;
#243 = CLOSED_SHELL ( 'NONE', ( #28, #17, #197, #300 ) ) ;
#244 = ORIENTED_EDGE ( 'NONE', *, *, #1, .F. ) ;
#245 = EDGE_LOOP ( 'NONE', ( #81, #103 ) ) ;
#246 =( GEOMETRIC_REPRESENTATION_CONTEXT ( 3 ) GLOBAL_UNCERTAINTY_ASSIGNED_CONTEXT ( ( #215 ) ) GLOBAL_UNIT_ASSIGNED_CONTEXT ( ( #217, #188, #307 ) ) REPRESENTATION_CONTEXT ( 'NONE', 'WORKASPACE' ) );
#247 = DIRECTION ( 'NONE',  ( -1.000000000000000000, 0.000000000000000000, 0.000000000000000000 ) ) ;
#248 = ORIENTED_EDGE ( 'NONE', *, *, #276, .T. ) ;
#249 = EDGE_CURVE ( 'NONE', #79, #25, #187, .T. ) ;
#250 =( NAMED_UNIT ( * ) SI_UNIT ( $, .STERADIAN. ) SOLID_ANGLE_UNIT ( ) );
#251 = CARTESIAN_POINT ( 'NONE',  ( 1.836970198721029688E-16, 3.500000000000000000, 0.000000000000000000 ) ) ;
#252 = SURFACE_SIDE_STYLE ('',( #83 ) ) ;
#253 =( NAMED_UNIT ( * ) SI_UNIT ( $, .STERADIAN. ) SOLID_ANGLE_UNIT ( ) );
#254 = AXIS2_PLACEMENT_3D ( 'NONE', #66, #67, #283 ) ;
#255 = LINE ( 'NONE', #305, #47 ) ;
#256 = PRODUCT_DEFINITION ( 'UNKNOWN', '', #56, #48 ) ;
#257 = LENGTH_MEASURE_WITH_UNIT ( LENGTH_MEASURE( 0.02539999999999999897 ), #171 );
#258 = DIRECTION ( 'NONE',  ( 0.000000000000000000, 0.000000000000000000, -1.000000000000000000 ) ) ;
#259 = ADVANCED_FACE ( 'NONE', ( #189 ), #149, .F. ) ;
#260 = CYLINDRICAL_SURFACE ( 'NONE', #254, 0.2187500000000000000 ) ;
#261 =( GEOMETRIC_REPRESENTATION_CONTEXT ( 3 ) GLOBAL_UNCERTAINTY_ASSIGNED_CONTEXT ( ( #23 ) ) GLOBAL_UNIT_ASSIGNED_CONTEXT ( ( #127, #287, #309 ) ) REPRESENTATION_CONTEXT ( 'NONE', 'WORKASPACE' ) );
#262 = FACE_OUTER_BOUND ( 'NONE', #24, .T. ) ;
#263 = ORIENTED_EDGE ( 'NONE', *, *, #126, .F. ) ;
#264 = LINE ( 'NONE', #100, #269 ) ;
#265 = ORIENTED_EDGE ( 'NONE', *, *, #148, .F. ) ;
#266 = DIMENSIONAL_EXPONENTS ( 1.000000000000000000, 0.000000000000000000, 0.000000000000000000, 0.000000000000000000, 0.000000000000000000, 0.000000000000000000, 0.000000000000000000 ) ;
#267 = EDGE_CURVE ( 'NONE', #63, #72, #21, .T. ) ;
#268 = CARTESIAN_POINT ( 'NONE',  ( -0.2187500000000000000, 1.625000000000000000, 0.000000000000000000 ) ) ;
#269 = VECTOR ( 'NONE', #71, 39.37007874015748143 ) ;
#270 = FACE_OUTER_BOUND ( 'NONE', #101, .T. ) ;
#271 = ORIENTED_EDGE ( 'NONE', *, *, #156, .F. ) ;
#272 = FILL_AREA_STYLE_COLOUR ( '', #176 ) ;
#273 = AXIS2_PLACEMENT_3D ( 'NONE', #303, #120, #44 ) ;
#274 = ORIENTED_EDGE ( 'NONE', *, *, #267, .F. ) ;
#275 = CARTESIAN_POINT ( 'NONE',  ( 0.000000000000000000, 1.625000000000000000, 0.000000000000000000 ) ) ;
#276 = EDGE_CURVE ( 'NONE', #79, #54, #255, .T. ) ;
#277 = FILL_AREA_STYLE ('',( #15 ) ) ;
#278 = MANIFOLD_SOLID_BREP ( 'Revolve - Tool Body (Straight Shanked)', #180 ) ;
#279 = APPLICATION_PROTOCOL_DEFINITION ( 'draft international standard', 'automotive_design', 1998, #221 ) ;
#280 = CARTESIAN_POINT ( 'NONE',  ( 0.2187500000000000278, 3.500000000000000000, 0.000000000000000000 ) ) ;
#281 =( LENGTH_UNIT ( ) NAMED_UNIT ( * ) SI_UNIT ( $, .METRE. ) );
#282 = PRESENTATION_LAYER_ASSIGNMENT (  '', '', ( #218 ) ) ;
#283 = DIRECTION ( 'NONE',  ( 0.000000000000000000, 0.000000000000000000, -1.000000000000000000 ) ) ;
#284 = ORIENTED_EDGE ( 'NONE', *, *, #276, .F. ) ;
#285 = ADVANCED_FACE ( 'NONE', ( #270 ), #142, .T. ) ;
#286 = CARTESIAN_POINT ( 'NONE',  ( 1.049831847863300633E-33, 1.625000000000000000, 0.000000000000000000 ) ) ;
#287 =( NAMED_UNIT ( * ) PLANE_ANGLE_UNIT ( ) SI_UNIT ( $, .RADIAN. ) );
#288 = DIRECTION ( 'NONE',  ( 9.797174393178827383E-17, 1.000000000000000000, -0.000000000000000000 ) ) ;
#289 = EDGE_LOOP ( 'NONE', ( #2, #229, #227, #284 ) ) ;
#290 = ORIENTED_EDGE ( 'NONE', *, *, #235, .F. ) ;
#291 = AXIS2_PLACEMENT_3D ( 'NONE', #153, #154, #198 ) ;
#292 = AXIS2_PLACEMENT_3D ( 'NONE', #174, #128, #57 ) ;
#293 = DIRECTION ( 'NONE',  ( -1.000000000000000000, 0.000000000000000000, 0.000000000000000000 ) ) ;
#294 =( NAMED_UNIT ( * ) PLANE_ANGLE_UNIT ( ) SI_UNIT ( $, .RADIAN. ) );
#295 = DIRECTION ( 'NONE',  ( 0.000000000000000000, 1.000000000000000000, 0.000000000000000000 ) ) ;
#296 = FILL_AREA_STYLE_COLOUR ( '', #124 ) ;
#297 = AXIS2_PLACEMENT_3D ( 'NONE', #286, #288, #78 ) ;
#298 = UNCERTAINTY_MEASURE_WITH_UNIT (LENGTH_MEASURE( 1.000000000000000082E-05 ), #33, 'distance_accuracy_value', 'NONE');
#299 = DIRECTION ( 'NONE',  ( -0.000000000000000000, -1.000000000000000000, -0.000000000000000000 ) ) ;
#300 = ADVANCED_FACE ( 'NONE', ( #84 ), #11, .T. ) ;
#301 = PRODUCT_DEFINITION_SHAPE ( 'NONE', 'NONE',  #256 ) ;
#302 = DIRECTION ( 'NONE',  ( 0.000000000000000000, 0.000000000000000000, 1.000000000000000000 ) ) ;
#303 = CARTESIAN_POINT ( 'NONE',  ( 0.000000000000000000, 0.000000000000000000, 0.000000000000000000 ) ) ;
#304 = CARTESIAN_POINT ( 'NONE',  ( 0.2187500000000000000, 3.500000000000000000, 2.678914873134834756E-17 ) ) ;
#305 = CARTESIAN_POINT ( 'NONE',  ( 0.000000000000000000, 0.000000000000000000, -0.2187500000000000000 ) ) ;
#306 = AXIS2_PLACEMENT_3D ( 'NONE', #104, #99, #247 ) ;
#307 =( NAMED_UNIT ( * ) SI_UNIT ( $, .STERADIAN. ) SOLID_ANGLE_UNIT ( ) );
#308 = PRESENTATION_LAYER_ASSIGNMENT (  '', '', ( #230 ) ) ;
#309 =( NAMED_UNIT ( * ) SI_UNIT ( $, .STERADIAN. ) SOLID_ANGLE_UNIT ( ) );
ENDSEC;
END-ISO-10303-21;
