ISO-10303-21;
HEADER;
FILE_DESCRIPTION (( 'STEP AP214' ),
    '1' );
FILE_NAME ('03525.STEP',
    '2023-06-22T15:25:35',
    ( '' ),
    ( '' ),
    'SwSTEP 2.0',
    'SolidWorks 2023',
    '' );
FILE_SCHEMA (( 'AUTOMOTIVE_DESIGN' ));
ENDSEC;

DATA;
#1 = PRODUCT_CONTEXT ( 'NONE', #130, 'mechanical' ) ;
#2 =( NAMED_UNIT ( * ) SI_UNIT ( $, .STERADIAN. ) SOLID_ANGLE_UNIT ( ) );
#3 = AXIS2_PLACEMENT_3D ( 'NONE', #164, #256, #230 ) ;
#4 = AXIS2_PLACEMENT_3D ( 'NONE', #91, #213, #172 ) ;
#5 = DIRECTION ( 'NONE',  ( 0.000000000000000000, 0.000000000000000000, -1.000000000000000000 ) ) ;
#6 = CYLINDRICAL_SURFACE ( 'NONE', #3, 0.2500000000000000555 ) ;
#7 = SHAPE_DEFINITION_REPRESENTATION ( #278, #307 ) ;
#8 = PLANE ( 'NONE',  #209 ) ;
#9 = CLOSED_SHELL ( 'NONE', ( #169, #156, #51, #204 ) ) ;
#10 =( CONVERSION_BASED_UNIT ( 'INCH', #222 ) LENGTH_UNIT ( ) NAMED_UNIT ( #267 ) );
#11 = SURFACE_STYLE_USAGE ( .BOTH. , #298 ) ;
#12 = CARTESIAN_POINT ( 'NONE',  ( -1.224646799147354440E-16, 6.000000000000000888, 0.000000000000000000 ) ) ;
#13 = COLOUR_RGB ( '',0.7921568627450980005, 0.8196078431372548767, 0.9333333333333333481 ) ;
#14 = PRODUCT_DEFINITION_FORMATION_WITH_SPECIFIED_SOURCE ( 'ANY', '', #24, .NOT_KNOWN. ) ;
#15 = EDGE_CURVE ( 'NONE', #65, #306, #250, .T. ) ;
#16 = FILL_AREA_STYLE ('',( #199 ) ) ;
#17 = SURFACE_STYLE_USAGE ( .BOTH. , #93 ) ;
#18 = VERTEX_POINT ( 'NONE', #297 ) ;
#19 = PRESENTATION_STYLE_ASSIGNMENT (( #17 ) ) ;
#20 = DIMENSIONAL_EXPONENTS ( 1.000000000000000000, 0.000000000000000000, 0.000000000000000000, 0.000000000000000000, 0.000000000000000000, 0.000000000000000000, 0.000000000000000000 ) ;
#21 = ORIENTED_EDGE ( 'NONE', *, *, #261, .F. ) ;
#22 = CYLINDRICAL_SURFACE ( 'NONE', #309, 0.2500000000000000000 ) ;
#23 = SURFACE_STYLE_FILL_AREA ( #68 ) ;
#24 = PRODUCT ( '03525', '03525', '', ( #1 ) ) ;
#25 =( NAMED_UNIT ( * ) SI_UNIT ( $, .STERADIAN. ) SOLID_ANGLE_UNIT ( ) );
#26 = PRESENTATION_LAYER_ASSIGNMENT (  '', '', ( #125 ) ) ;
#27 =( GEOMETRIC_REPRESENTATION_CONTEXT ( 3 ) GLOBAL_UNCERTAINTY_ASSIGNED_CONTEXT ( ( #231 ) ) GLOBAL_UNIT_ASSIGNED_CONTEXT ( ( #271, #196, #2 ) ) REPRESENTATION_CONTEXT ( 'NONE', 'WORKASPACE' ) );
#28 = DIRECTION ( 'NONE',  ( -0.000000000000000000, -1.000000000000000000, -0.000000000000000000 ) ) ;
#29 = EDGE_LOOP ( 'NONE', ( #189, #113 ) ) ;
#30 = FILL_AREA_STYLE_COLOUR ( '', #165 ) ;
#31 = EDGE_CURVE ( 'NONE', #257, #306, #35, .T. ) ;
#32 =( GEOMETRIC_REPRESENTATION_CONTEXT ( 3 ) GLOBAL_UNCERTAINTY_ASSIGNED_CONTEXT ( ( #158 ) ) GLOBAL_UNIT_ASSIGNED_CONTEXT ( ( #10, #304, #40 ) ) REPRESENTATION_CONTEXT ( 'NONE', 'WORKASPACE' ) );
#33 = CARTESIAN_POINT ( 'NONE',  ( 0.000000000000000000, 0.000000000000000000, -0.2500000000000000000 ) ) ;
#34 = CARTESIAN_POINT ( 'NONE',  ( -0.2500000000000002220, 6.000000000000000888, 0.000000000000000000 ) ) ;
#35 = CIRCLE ( 'NONE', #94, 0.2500000000000000000 ) ;
#36 = ORIENTED_EDGE ( 'NONE', *, *, #64, .T. ) ;
#37 = UNCERTAINTY_MEASURE_WITH_UNIT (LENGTH_MEASURE( 1.000000000000000082E-05 ), #264, 'distance_accuracy_value', 'NONE');
#38 = FACE_OUTER_BOUND ( 'NONE', #157, .T. ) ;
#39 = DIRECTION ( 'NONE',  ( 0.000000000000000000, 1.000000000000000000, 0.000000000000000000 ) ) ;
#40 =( NAMED_UNIT ( * ) SI_UNIT ( $, .STERADIAN. ) SOLID_ANGLE_UNIT ( ) );
#41 = DIRECTION ( 'NONE',  ( -4.259641040512536405E-17, 1.000000000000000000, -0.000000000000000000 ) ) ;
#42 = UNCERTAINTY_MEASURE_WITH_UNIT (LENGTH_MEASURE( 1.000000000000000082E-05 ), #74, 'distance_accuracy_value', 'NONE');
#43 = SURFACE_STYLE_USAGE ( .BOTH. , #121 ) ;
#44 = MECHANICAL_DESIGN_GEOMETRIC_PRESENTATION_REPRESENTATION (  '', ( #174 ), #76 ) ;
#45 = AXIS2_PLACEMENT_3D ( 'NONE', #262, #41, #47 ) ;
#46 = ORIENTED_EDGE ( 'NONE', *, *, #266, .F. ) ;
#47 = DIRECTION ( 'NONE',  ( -1.000000000000000000, 0.000000000000000000, 0.000000000000000000 ) ) ;
#48 =( NAMED_UNIT ( * ) SI_UNIT ( $, .STERADIAN. ) SOLID_ANGLE_UNIT ( ) );
#49 = VERTEX_POINT ( 'NONE', #276 ) ;
#50 =( NAMED_UNIT ( * ) PLANE_ANGLE_UNIT ( ) SI_UNIT ( $, .RADIAN. ) );
#51 = ADVANCED_FACE ( 'NONE', ( #127 ), #85, .T. ) ;
#52 = APPLICATION_PROTOCOL_DEFINITION ( 'draft international standard', 'automotive_design', 1998, #171 ) ;
#53 = DIRECTION ( 'NONE',  ( 0.000000000000000000, 0.000000000000000000, -1.000000000000000000 ) ) ;
#54 = AXIS2_PLACEMENT_3D ( 'NONE', #97, #197, #195 ) ;
#55 = AXIS2_PLACEMENT_3D ( 'NONE', #110, #277, #227 ) ;
#56 = LENGTH_MEASURE_WITH_UNIT ( LENGTH_MEASURE( 0.02539999999999999897 ), #150 );
#57 = FILL_AREA_STYLE_COLOUR ( '', #13 ) ;
#58 = CIRCLE ( 'NONE', #273, 0.2500000000000000000 ) ;
#59 = DIRECTION ( 'NONE',  ( -4.259641040512536405E-17, 1.000000000000000000, -0.000000000000000000 ) ) ;
#60 = FACE_OUTER_BOUND ( 'NONE', #89, .T. ) ;
#61 = DIRECTION ( 'NONE',  ( -1.000000000000000000, 0.000000000000000000, 0.000000000000000000 ) ) ;
#62 = PRESENTATION_LAYER_ASSIGNMENT (  '', '', ( #71 ) ) ;
#63 = CARTESIAN_POINT ( 'NONE',  ( -0.2500000000000002776, 6.000000000000000888, 0.000000000000000000 ) ) ;
#64 = EDGE_CURVE ( 'NONE', #234, #65, #66, .T. ) ;
#65 = VERTEX_POINT ( 'NONE', #236 ) ;
#66 = CIRCLE ( 'NONE', #120, 0.2500000000000000000 ) ;
#67 = PLANE ( 'NONE',  #148 ) ;
#68 = FILL_AREA_STYLE ('',( #118 ) ) ;
#69 = CARTESIAN_POINT ( 'NONE',  ( 0.2500000000000000555, 6.000000000000000888, 3.061616997868384251E-17 ) ) ;
#70 = ORIENTED_EDGE ( 'NONE', *, *, #202, .F. ) ;
#71 = STYLED_ITEM ( 'NONE', ( #175 ), #188 ) ;
#72 = ORIENTED_EDGE ( 'NONE', *, *, #163, .F. ) ;
#73 = PLANE ( 'NONE',  #200 ) ;
#74 =( CONVERSION_BASED_UNIT ( 'INCH', #211 ) LENGTH_UNIT ( ) NAMED_UNIT ( #283 ) );
#75 = ORIENTED_EDGE ( 'NONE', *, *, #111, .F. ) ;
#76 =( GEOMETRIC_REPRESENTATION_CONTEXT ( 3 ) GLOBAL_UNCERTAINTY_ASSIGNED_CONTEXT ( ( #37 ) ) GLOBAL_UNIT_ASSIGNED_CONTEXT ( ( #264, #129, #81 ) ) REPRESENTATION_CONTEXT ( 'NONE', 'WORKASPACE' ) );
#77 =( LENGTH_UNIT ( ) NAMED_UNIT ( * ) SI_UNIT ( $, .METRE. ) );
#78 = COLOUR_RGB ( '',1.000000000000000000, 0.000000000000000000, 0.000000000000000000 ) ;
#79 = SURFACE_SIDE_STYLE ('',( #99 ) ) ;
#80 = AXIS2_PLACEMENT_3D ( 'NONE', #244, #268, #179 ) ;
#81 =( NAMED_UNIT ( * ) SI_UNIT ( $, .STERADIAN. ) SOLID_ANGLE_UNIT ( ) );
#82 = MANIFOLD_SOLID_BREP ( 'Revolve - Cutting Edge', #9 ) ;
#83 = DIRECTION ( 'NONE',  ( -4.259641040512536405E-17, 1.000000000000000000, -0.000000000000000000 ) ) ;
#84 = LENGTH_MEASURE_WITH_UNIT ( LENGTH_MEASURE( 0.02539999999999999897 ), #184 );
#85 = CYLINDRICAL_SURFACE ( 'NONE', #54, 0.2500000000000000000 ) ;
#86 =( CONVERSION_BASED_UNIT ( 'INCH', #84 ) LENGTH_UNIT ( ) NAMED_UNIT ( #114 ) );
#87 = LINE ( 'NONE', #228, #126 ) ;
#88 = AXIS2_PLACEMENT_3D ( 'NONE', #161, #263, #53 ) ;
#89 = EDGE_LOOP ( 'NONE', ( #115, #185 ) ) ;
#90 = DIRECTION ( 'NONE',  ( -1.000000000000000000, -4.259641040512536405E-17, 0.000000000000000000 ) ) ;
#91 = CARTESIAN_POINT ( 'NONE',  ( -1.224646799147354440E-16, 6.000000000000000888, 0.000000000000000000 ) ) ;
#92 = EDGE_LOOP ( 'NONE', ( #192, #70 ) ) ;
#93 = SURFACE_SIDE_STYLE ('',( #285 ) ) ;
#94 = AXIS2_PLACEMENT_3D ( 'NONE', #219, #226, #294 ) ;
#95 = STYLED_ITEM ( 'NONE', ( #19 ), #169 ) ;
#96 = PRESENTATION_STYLE_ASSIGNMENT (( #119 ) ) ;
#97 = CARTESIAN_POINT ( 'NONE',  ( 0.000000000000000000, 0.000000000000000000, 0.000000000000000000 ) ) ;
#98 = AXIS2_PLACEMENT_3D ( 'NONE', #103, #153, #275 ) ;
#99 = SURFACE_STYLE_FILL_AREA ( #149 ) ;
#100 = DIRECTION ( 'NONE',  ( -0.000000000000000000, -1.000000000000000000, -0.000000000000000000 ) ) ;
#101 =( LENGTH_UNIT ( ) NAMED_UNIT ( * ) SI_UNIT ( $, .METRE. ) );
#102 = EDGE_CURVE ( 'NONE', #18, #49, #58, .T. ) ;
#103 = CARTESIAN_POINT ( 'NONE',  ( 0.000000000000000000, 3.125000000000000000, 0.000000000000000000 ) ) ;
#104 = CIRCLE ( 'NONE', #55, 0.2500000000000000000 ) ;
#105 = PRESENTATION_STYLE_ASSIGNMENT (( #107 ) ) ;
#106 = DIRECTION ( 'NONE',  ( -1.000000000000000000, 0.000000000000000000, 0.000000000000000000 ) ) ;
#107 = SURFACE_STYLE_USAGE ( .BOTH. , #155 ) ;
#108 = CARTESIAN_POINT ( 'NONE',  ( 0.000000000000000000, 0.000000000000000000, -0.2500000000000000000 ) ) ;
#109 = PRESENTATION_LAYER_ASSIGNMENT (  '', '', ( #174 ) ) ;
#110 = CARTESIAN_POINT ( 'NONE',  ( 0.000000000000000000, 3.125000000000000000, 0.000000000000000000 ) ) ;
#111 = EDGE_CURVE ( 'NONE', #234, #257, #181, .T. ) ;
#112 = ORIENTED_EDGE ( 'NONE', *, *, #218, .T. ) ;
#113 = ORIENTED_EDGE ( 'NONE', *, *, #218, .F. ) ;
#114 = DIMENSIONAL_EXPONENTS ( 1.000000000000000000, 0.000000000000000000, 0.000000000000000000, 0.000000000000000000, 0.000000000000000000, 0.000000000000000000, 0.000000000000000000 ) ;
#115 = ORIENTED_EDGE ( 'NONE', *, *, #31, .T. ) ;
#116 = PRESENTATION_STYLE_ASSIGNMENT (( #43 ) ) ;
#117 = ORIENTED_EDGE ( 'NONE', *, *, #102, .T. ) ;
#118 = FILL_AREA_STYLE_COLOUR ( '', #78 ) ;
#119 = SURFACE_STYLE_USAGE ( .BOTH. , #214 ) ;
#120 = AXIS2_PLACEMENT_3D ( 'NONE', #176, #269, #243 ) ;
#121 = SURFACE_SIDE_STYLE ('',( #23 ) ) ;
#122 = SURFACE_STYLE_USAGE ( .BOTH. , #79 ) ;
#123 = DIMENSIONAL_EXPONENTS ( 1.000000000000000000, 0.000000000000000000, 0.000000000000000000, 0.000000000000000000, 0.000000000000000000, 0.000000000000000000, 0.000000000000000000 ) ;
#124 = FILL_AREA_STYLE ('',( #57 ) ) ;
#125 = STYLED_ITEM ( 'NONE', ( #105 ), #51 ) ;
#126 = VECTOR ( 'NONE', #203, 39.37007874015748143 ) ;
#127 = FACE_OUTER_BOUND ( 'NONE', #135, .T. ) ;
#128 = PRESENTATION_LAYER_ASSIGNMENT (  '', '', ( #292 ) ) ;
#129 =( NAMED_UNIT ( * ) PLANE_ANGLE_UNIT ( ) SI_UNIT ( $, .RADIAN. ) );
#130 = APPLICATION_CONTEXT ( 'automotive_design' ) ;
#131 = DIRECTION ( 'NONE',  ( -4.259641040512536405E-17, 1.000000000000000000, -0.000000000000000000 ) ) ;
#132 = VECTOR ( 'NONE', #28, 39.37007874015748143 ) ;
#133 = MECHANICAL_DESIGN_GEOMETRIC_PRESENTATION_REPRESENTATION (  '', ( #71 ), #27 ) ;
#134 = ADVANCED_FACE ( 'NONE', ( #217 ), #6, .T. ) ;
#135 = EDGE_LOOP ( 'NONE', ( #136, #112, #160, #303 ) ) ;
#136 = ORIENTED_EDGE ( 'NONE', *, *, #15, .F. ) ;
#137 = DIRECTION ( 'NONE',  ( -4.259641040512536405E-17, 1.000000000000000000, 0.000000000000000000 ) ) ;
#138 = FILL_AREA_STYLE_COLOUR ( '', #289 ) ;
#139 = AXIS2_PLACEMENT_3D ( 'NONE', #12, #83, #106 ) ;
#140 = EDGE_LOOP ( 'NONE', ( #36, #212, #252, #75 ) ) ;
#141 = CARTESIAN_POINT ( 'NONE',  ( 0.2500000000000000000, 6.000000000000000888, 0.000000000000000000 ) ) ;
#142 = PRODUCT_DEFINITION_CONTEXT ( 'detailed design', #171, 'design' ) ;
#143 =( LENGTH_UNIT ( ) NAMED_UNIT ( * ) SI_UNIT ( $, .METRE. ) );
#144 = ORIENTED_EDGE ( 'NONE', *, *, #266, .T. ) ;
#145 = EDGE_CURVE ( 'NONE', #306, #257, #177, .T. ) ;
#146 =( GEOMETRIC_REPRESENTATION_CONTEXT ( 3 ) GLOBAL_UNCERTAINTY_ASSIGNED_CONTEXT ( ( #229 ) ) GLOBAL_UNIT_ASSIGNED_CONTEXT ( ( #208, #50, #186 ) ) REPRESENTATION_CONTEXT ( 'NONE', 'WORKASPACE' ) );
#147 = CARTESIAN_POINT ( 'NONE',  ( 0.000000000000000000, 3.125000000000000000, 0.000000000000000000 ) ) ;
#148 = AXIS2_PLACEMENT_3D ( 'NONE', #254, #137, #90 ) ;
#149 = FILL_AREA_STYLE ('',( #30 ) ) ;
#150 =( LENGTH_UNIT ( ) NAMED_UNIT ( * ) SI_UNIT ( $, .METRE. ) );
#151 =( GEOMETRIC_REPRESENTATION_CONTEXT ( 3 ) GLOBAL_UNCERTAINTY_ASSIGNED_CONTEXT ( ( #258 ) ) GLOBAL_UNIT_ASSIGNED_CONTEXT ( ( #246, #173, #25 ) ) REPRESENTATION_CONTEXT ( 'NONE', 'WORKASPACE' ) );
#152 = PRODUCT_DEFINITION ( 'UNKNOWN', '', #14, #142 ) ;
#153 = DIRECTION ( 'NONE',  ( -4.259641040512536405E-17, 1.000000000000000000, -0.000000000000000000 ) ) ;
#154 = MECHANICAL_DESIGN_GEOMETRIC_PRESENTATION_REPRESENTATION (  '', ( #178 ), #245 ) ;
#155 = SURFACE_SIDE_STYLE ('',( #247 ) ) ;
#156 = ADVANCED_FACE ( 'NONE', ( #239 ), #159, .T. ) ;
#157 = EDGE_LOOP ( 'NONE', ( #302, #210 ) ) ;
#158 = UNCERTAINTY_MEASURE_WITH_UNIT (LENGTH_MEASURE( 1.000000000000000082E-05 ), #10, 'distance_accuracy_value', 'NONE');
#159 = PLANE ( 'NONE',  #301 ) ;
#160 = ORIENTED_EDGE ( 'NONE', *, *, #111, .T. ) ;
#161 = CARTESIAN_POINT ( 'NONE',  ( 0.000000000000000000, 0.000000000000000000, 0.000000000000000000 ) ) ;
#162 = PRODUCT_RELATED_PRODUCT_CATEGORY ( 'part', '', ( #24 ) ) ;
#163 = EDGE_CURVE ( 'NONE', #205, #287, #207, .T. ) ;
#164 = CARTESIAN_POINT ( 'NONE',  ( -1.224646799147354440E-16, 6.000000000000000888, 0.000000000000000000 ) ) ;
#165 = COLOUR_RGB ( '',0.7921568627450980005, 0.8196078431372548767, 0.9333333333333333481 ) ;
#166 = ORIENTED_EDGE ( 'NONE', *, *, #202, .T. ) ;
#167 = CARTESIAN_POINT ( 'NONE',  ( 3.061616997868383018E-17, 0.000000000000000000, 0.2500000000000000000 ) ) ;
#168 =( NAMED_UNIT ( * ) PLANE_ANGLE_UNIT ( ) SI_UNIT ( $, .RADIAN. ) );
#169 = ADVANCED_FACE ( 'NONE', ( #238 ), #22, .T. ) ;
#170 = LENGTH_MEASURE_WITH_UNIT ( LENGTH_MEASURE( 0.02539999999999999897 ), #194 );
#171 = APPLICATION_CONTEXT ( 'automotive_design' ) ;
#172 = DIRECTION ( 'NONE',  ( -1.000000000000000000, 0.000000000000000000, 0.000000000000000000 ) ) ;
#173 =( NAMED_UNIT ( * ) PLANE_ANGLE_UNIT ( ) SI_UNIT ( $, .RADIAN. ) );
#174 = STYLED_ITEM ( 'NONE', ( #96 ), #82 ) ;
#175 = PRESENTATION_STYLE_ASSIGNMENT (( #122 ) ) ;
#176 = CARTESIAN_POINT ( 'NONE',  ( 0.000000000000000000, 3.125000000000000000, 0.000000000000000000 ) ) ;
#177 = CIRCLE ( 'NONE', #88, 0.2500000000000000000 ) ;
#178 = STYLED_ITEM ( 'NONE', ( #280 ), #204 ) ;
#179 = DIRECTION ( 'NONE',  ( 1.000000000000000000, 0.000000000000000000, 0.000000000000000000 ) ) ;
#180 = CARTESIAN_POINT ( 'NONE',  ( 3.061616997868383018E-17, 0.000000000000000000, 0.2500000000000000000 ) ) ;
#181 = LINE ( 'NONE', #33, #132 ) ;
#182 = FILL_AREA_STYLE_COLOUR ( '', #193 ) ;
#183 = CARTESIAN_POINT ( 'NONE',  ( 0.000000000000000000, 3.125000000000000000, -0.2500000000000000000 ) ) ;
#184 =( LENGTH_UNIT ( ) NAMED_UNIT ( * ) SI_UNIT ( $, .METRE. ) );
#185 = ORIENTED_EDGE ( 'NONE', *, *, #145, .T. ) ;
#186 =( NAMED_UNIT ( * ) SI_UNIT ( $, .STERADIAN. ) SOLID_ANGLE_UNIT ( ) );
#187 = CIRCLE ( 'NONE', #98, 0.2500000000000000000 ) ;
#188 = MANIFOLD_SOLID_BREP ( 'Revolve - Tool Body (Straight Shanked)', #265 ) ;
#189 = ORIENTED_EDGE ( 'NONE', *, *, #64, .F. ) ;
#190 = DIRECTION ( 'NONE',  ( 0.000000000000000000, -0.000000000000000000, 1.000000000000000000 ) ) ;
#191 = UNCERTAINTY_MEASURE_WITH_UNIT (LENGTH_MEASURE( 1.000000000000000082E-05 ), #86, 'distance_accuracy_value', 'NONE');
#192 = ORIENTED_EDGE ( 'NONE', *, *, #102, .F. ) ;
#193 = COLOUR_RGB ( '',1.000000000000000000, 0.000000000000000000, 0.000000000000000000 ) ;
#194 =( LENGTH_UNIT ( ) NAMED_UNIT ( * ) SI_UNIT ( $, .METRE. ) );
#195 = DIRECTION ( 'NONE',  ( 0.000000000000000000, 0.000000000000000000, -1.000000000000000000 ) ) ;
#196 =( NAMED_UNIT ( * ) PLANE_ANGLE_UNIT ( ) SI_UNIT ( $, .RADIAN. ) );
#197 = DIRECTION ( 'NONE',  ( -0.000000000000000000, -1.000000000000000000, -0.000000000000000000 ) ) ;
#198 = LENGTH_MEASURE_WITH_UNIT ( LENGTH_MEASURE( 0.02539999999999999897 ), #77 );
#199 = FILL_AREA_STYLE_COLOUR ( '', #201 ) ;
#200 = AXIS2_PLACEMENT_3D ( 'NONE', #141, #206, #237 ) ;
#201 = COLOUR_RGB ( '',1.000000000000000000, 0.000000000000000000, 0.000000000000000000 ) ;
#202 = EDGE_CURVE ( 'NONE', #49, #18, #187, .T. ) ;
#203 = DIRECTION ( 'NONE',  ( -4.259641040512536405E-17, 1.000000000000000000, -0.000000000000000000 ) ) ;
#204 = ADVANCED_FACE ( 'NONE', ( #60 ), #8, .T. ) ;
#205 = VERTEX_POINT ( 'NONE', #63 ) ;
#206 = DIRECTION ( 'NONE',  ( 4.259641040512536405E-17, -1.000000000000000000, 0.000000000000000000 ) ) ;
#207 = CIRCLE ( 'NONE', #4, 0.2500000000000001110 ) ;
#208 =( CONVERSION_BASED_UNIT ( 'INCH', #235 ) LENGTH_UNIT ( ) NAMED_UNIT ( #123 ) );
#209 = AXIS2_PLACEMENT_3D ( 'NONE', #281, #248, #225 ) ;
#210 = ORIENTED_EDGE ( 'NONE', *, *, #305, .T. ) ;
#211 = LENGTH_MEASURE_WITH_UNIT ( LENGTH_MEASURE( 0.02539999999999999897 ), #232 );
#212 = ORIENTED_EDGE ( 'NONE', *, *, #15, .T. ) ;
#213 = DIRECTION ( 'NONE',  ( -4.259641040512536405E-17, 1.000000000000000000, -0.000000000000000000 ) ) ;
#214 = SURFACE_SIDE_STYLE ('',( #291 ) ) ;
#215 = ADVANCED_FACE ( 'NONE', ( #251 ), #295, .T. ) ;
#216 = VECTOR ( 'NONE', #131, 39.37007874015748143 ) ;
#217 = FACE_OUTER_BOUND ( 'NONE', #284, .T. ) ;
#218 = EDGE_CURVE ( 'NONE', #65, #234, #104, .T. ) ;
#219 = CARTESIAN_POINT ( 'NONE',  ( 0.000000000000000000, 0.000000000000000000, 0.000000000000000000 ) ) ;
#220 = APPLICATION_PROTOCOL_DEFINITION ( 'draft international standard', 'automotive_design', 1998, #130 ) ;
#221 =( NAMED_UNIT ( * ) SI_UNIT ( $, .STERADIAN. ) SOLID_ANGLE_UNIT ( ) );
#222 = LENGTH_MEASURE_WITH_UNIT ( LENGTH_MEASURE( 0.02539999999999999897 ), #101 );
#223 = CIRCLE ( 'NONE', #45, 0.2500000000000001110 ) ;
#224 = SURFACE_STYLE_FILL_AREA ( #16 ) ;
#225 = DIRECTION ( 'NONE',  ( 0.000000000000000000, 0.000000000000000000, -1.000000000000000000 ) ) ;
#226 = DIRECTION ( 'NONE',  ( -0.000000000000000000, -1.000000000000000000, -0.000000000000000000 ) ) ;
#227 = DIRECTION ( 'NONE',  ( 0.000000000000000000, 0.000000000000000000, -1.000000000000000000 ) ) ;
#228 = CARTESIAN_POINT ( 'NONE',  ( 0.2499999999999999167, 6.000000000000000888, 3.061616997868383634E-17 ) ) ;
#229 = UNCERTAINTY_MEASURE_WITH_UNIT (LENGTH_MEASURE( 1.000000000000000082E-05 ), #208, 'distance_accuracy_value', 'NONE');
#230 = DIRECTION ( 'NONE',  ( -1.000000000000000000, 0.000000000000000000, 0.000000000000000000 ) ) ;
#231 = UNCERTAINTY_MEASURE_WITH_UNIT (LENGTH_MEASURE( 1.000000000000000082E-05 ), #271, 'distance_accuracy_value', 'NONE');
#232 =( LENGTH_UNIT ( ) NAMED_UNIT ( * ) SI_UNIT ( $, .METRE. ) );
#233 =( GEOMETRIC_REPRESENTATION_CONTEXT ( 3 ) GLOBAL_UNCERTAINTY_ASSIGNED_CONTEXT ( ( #42 ) ) GLOBAL_UNIT_ASSIGNED_CONTEXT ( ( #74, #168, #48 ) ) REPRESENTATION_CONTEXT ( 'NONE', 'WORKASPACE' ) );
#234 = VERTEX_POINT ( 'NONE', #183 ) ;
#235 = LENGTH_MEASURE_WITH_UNIT ( LENGTH_MEASURE( 0.02539999999999999897 ), #143 );
#236 = CARTESIAN_POINT ( 'NONE',  ( 3.061616997868383018E-17, 3.125000000000000000, 0.2500000000000000000 ) ) ;
#237 = DIRECTION ( 'NONE',  ( 1.000000000000000000, 4.259641040512536405E-17, 0.000000000000000000 ) ) ;
#238 = FACE_OUTER_BOUND ( 'NONE', #140, .T. ) ;
#239 = FACE_OUTER_BOUND ( 'NONE', #29, .T. ) ;
#240 = MECHANICAL_DESIGN_GEOMETRIC_PRESENTATION_REPRESENTATION (  '', ( #292 ), #146 ) ;
#241 = PRESENTATION_LAYER_ASSIGNMENT (  '', '', ( #178 ) ) ;
#242 = ORIENTED_EDGE ( 'NONE', *, *, #261, .T. ) ;
#243 = DIRECTION ( 'NONE',  ( 0.000000000000000000, 0.000000000000000000, -1.000000000000000000 ) ) ;
#244 = CARTESIAN_POINT ( 'NONE',  ( 0.000000000000000000, 0.000000000000000000, 0.000000000000000000 ) ) ;
#245 =( GEOMETRIC_REPRESENTATION_CONTEXT ( 3 ) GLOBAL_UNCERTAINTY_ASSIGNED_CONTEXT ( ( #191 ) ) GLOBAL_UNIT_ASSIGNED_CONTEXT ( ( #86, #249, #221 ) ) REPRESENTATION_CONTEXT ( 'NONE', 'WORKASPACE' ) );
#246 =( CONVERSION_BASED_UNIT ( 'INCH', #198 ) LENGTH_UNIT ( ) NAMED_UNIT ( #20 ) );
#247 = SURFACE_STYLE_FILL_AREA ( #279 ) ;
#248 = DIRECTION ( 'NONE',  ( 0.000000000000000000, -1.000000000000000000, -0.000000000000000000 ) ) ;
#249 =( NAMED_UNIT ( * ) PLANE_ANGLE_UNIT ( ) SI_UNIT ( $, .RADIAN. ) );
#250 = LINE ( 'NONE', #180, #259 ) ;
#251 = FACE_OUTER_BOUND ( 'NONE', #260, .T. ) ;
#252 = ORIENTED_EDGE ( 'NONE', *, *, #31, .F. ) ;
#253 = ORIENTED_EDGE ( 'NONE', *, *, #305, .F. ) ;
#254 = CARTESIAN_POINT ( 'NONE',  ( 2.268067724252340606E-34, 3.125000000000000000, 0.000000000000000000 ) ) ;
#255 = CARTESIAN_POINT ( 'NONE',  ( 0.000000000000000000, 3.125000000000000000, 0.000000000000000000 ) ) ;
#256 = DIRECTION ( 'NONE',  ( -4.259641040512536405E-17, 1.000000000000000000, -0.000000000000000000 ) ) ;
#257 = VERTEX_POINT ( 'NONE', #108 ) ;
#258 = UNCERTAINTY_MEASURE_WITH_UNIT (LENGTH_MEASURE( 1.000000000000000082E-05 ), #246, 'distance_accuracy_value', 'NONE');
#259 = VECTOR ( 'NONE', #296, 39.37007874015748143 ) ;
#260 = EDGE_LOOP ( 'NONE', ( #46, #166, #242, #253 ) ) ;
#261 = EDGE_CURVE ( 'NONE', #18, #205, #299, .T. ) ;
#262 = CARTESIAN_POINT ( 'NONE',  ( -1.224646799147354440E-16, 6.000000000000000888, 0.000000000000000000 ) ) ;
#263 = DIRECTION ( 'NONE',  ( -0.000000000000000000, -1.000000000000000000, -0.000000000000000000 ) ) ;
#264 =( CONVERSION_BASED_UNIT ( 'INCH', #170 ) LENGTH_UNIT ( ) NAMED_UNIT ( #286 ) );
#265 = CLOSED_SHELL ( 'NONE', ( #134, #272, #215, #282 ) ) ;
#266 = EDGE_CURVE ( 'NONE', #49, #287, #87, .T. ) ;
#267 = DIMENSIONAL_EXPONENTS ( 1.000000000000000000, 0.000000000000000000, 0.000000000000000000, 0.000000000000000000, 0.000000000000000000, 0.000000000000000000, 0.000000000000000000 ) ;
#268 = DIRECTION ( 'NONE',  ( 0.000000000000000000, 0.000000000000000000, 1.000000000000000000 ) ) ;
#269 = DIRECTION ( 'NONE',  ( -0.000000000000000000, -1.000000000000000000, -0.000000000000000000 ) ) ;
#270 = CARTESIAN_POINT ( 'NONE',  ( 0.000000000000000000, 0.000000000000000000, 0.000000000000000000 ) ) ;
#271 =( CONVERSION_BASED_UNIT ( 'INCH', #56 ) LENGTH_UNIT ( ) NAMED_UNIT ( #290 ) );
#272 = ADVANCED_FACE ( 'NONE', ( #300 ), #67, .F. ) ;
#273 = AXIS2_PLACEMENT_3D ( 'NONE', #147, #59, #61 ) ;
#274 = PRESENTATION_LAYER_ASSIGNMENT (  '', '', ( #95 ) ) ;
#275 = DIRECTION ( 'NONE',  ( -1.000000000000000000, 0.000000000000000000, 0.000000000000000000 ) ) ;
#276 = CARTESIAN_POINT ( 'NONE',  ( 0.2500000000000000555, 3.125000000000000000, 3.061616997868384251E-17 ) ) ;
#277 = DIRECTION ( 'NONE',  ( -0.000000000000000000, -1.000000000000000000, -0.000000000000000000 ) ) ;
#278 = PRODUCT_DEFINITION_SHAPE ( 'NONE', 'NONE',  #152 ) ;
#279 = FILL_AREA_STYLE ('',( #182 ) ) ;
#280 = PRESENTATION_STYLE_ASSIGNMENT (( #11 ) ) ;
#281 = CARTESIAN_POINT ( 'NONE',  ( 0.000000000000000000, 0.000000000000000000, 0.000000000000000000 ) ) ;
#282 = ADVANCED_FACE ( 'NONE', ( #38 ), #73, .F. ) ;
#283 = DIMENSIONAL_EXPONENTS ( 1.000000000000000000, 0.000000000000000000, 0.000000000000000000, 0.000000000000000000, 0.000000000000000000, 0.000000000000000000, 0.000000000000000000 ) ;
#284 = EDGE_LOOP ( 'NONE', ( #117, #144, #72, #21 ) ) ;
#285 = SURFACE_STYLE_FILL_AREA ( #308 ) ;
#286 = DIMENSIONAL_EXPONENTS ( 1.000000000000000000, 0.000000000000000000, 0.000000000000000000, 0.000000000000000000, 0.000000000000000000, 0.000000000000000000, 0.000000000000000000 ) ;
#287 = VERTEX_POINT ( 'NONE', #69 ) ;
#288 = MECHANICAL_DESIGN_GEOMETRIC_PRESENTATION_REPRESENTATION (  '', ( #125 ), #32 ) ;
#289 = COLOUR_RGB ( '',1.000000000000000000, 0.000000000000000000, 0.000000000000000000 ) ;
#290 = DIMENSIONAL_EXPONENTS ( 1.000000000000000000, 0.000000000000000000, 0.000000000000000000, 0.000000000000000000, 0.000000000000000000, 0.000000000000000000, 0.000000000000000000 ) ;
#291 = SURFACE_STYLE_FILL_AREA ( #124 ) ;
#292 = STYLED_ITEM ( 'NONE', ( #116 ), #156 ) ;
#293 = MECHANICAL_DESIGN_GEOMETRIC_PRESENTATION_REPRESENTATION (  '', ( #95 ), #233 ) ;
#294 = DIRECTION ( 'NONE',  ( 0.000000000000000000, 0.000000000000000000, -1.000000000000000000 ) ) ;
#295 = CYLINDRICAL_SURFACE ( 'NONE', #139, 0.2500000000000000555 ) ;
#296 = DIRECTION ( 'NONE',  ( -0.000000000000000000, -1.000000000000000000, -0.000000000000000000 ) ) ;
#297 = CARTESIAN_POINT ( 'NONE',  ( -0.2500000000000000000, 3.125000000000000000, 0.000000000000000000 ) ) ;
#298 = SURFACE_SIDE_STYLE ('',( #224 ) ) ;
#299 = LINE ( 'NONE', #34, #216 ) ;
#300 = FACE_OUTER_BOUND ( 'NONE', #92, .T. ) ;
#301 = AXIS2_PLACEMENT_3D ( 'NONE', #255, #39, #190 ) ;
#302 = ORIENTED_EDGE ( 'NONE', *, *, #163, .T. ) ;
#303 = ORIENTED_EDGE ( 'NONE', *, *, #145, .F. ) ;
#304 =( NAMED_UNIT ( * ) PLANE_ANGLE_UNIT ( ) SI_UNIT ( $, .RADIAN. ) );
#305 = EDGE_CURVE ( 'NONE', #287, #205, #223, .T. ) ;
#306 = VERTEX_POINT ( 'NONE', #167 ) ;
#307 = ADVANCED_BREP_SHAPE_REPRESENTATION ( '03525', ( #82, #188, #80 ), #151 ) ;
#308 = FILL_AREA_STYLE ('',( #138 ) ) ;
#309 = AXIS2_PLACEMENT_3D ( 'NONE', #270, #100, #5 ) ;
ENDSEC;
END-ISO-10303-21;
