ISO-10303-21;
HEADER;
FILE_DESCRIPTION (( 'STEP AP214' ),
    '1' );
FILE_NAME ('Micro_RSC-250-230.STEP',
    '2021-09-03T17:49:11',
    ( '' ),
    ( '' ),
    'SwSTEP 2.0',
    'SolidWorks 2020',
    '' );
FILE_SCHEMA (( 'AUTOMOTIVE_DESIGN' ));
ENDSEC;

DATA;
#1 = EDGE_LOOP ( 'NONE', ( #133, #128, #208, #73 ) ) ;
#2 = CIRCLE ( 'NONE', #117, 0.1250000000000000000 ) ;
#3 = ORIENTED_EDGE ( 'NONE', *, *, #47, .F. ) ;
#4 = DIRECTION ( 'NONE',  ( 0.5000000000000013323, 0.0000000000000000000, 0.8660254037844377084 ) ) ;
#5 = LINE ( 'NONE', #191, #163 ) ;
#6 = DIRECTION ( 'NONE',  ( 0.0000000000000000000, 0.0000000000000000000, 1.000000000000000000 ) ) ;
#7 = CIRCLE ( 'NONE', #80, 0.1250000000000000000 ) ;
#8 = ORIENTED_EDGE ( 'NONE', *, *, #203, .T. ) ;
#9 = CARTESIAN_POINT ( 'NONE',  ( -0.1250000000000000000, 0.0000000000000000000, 2.309474411167424357 ) ) ;
#10 = EDGE_CURVE ( 'NONE', #190, #38, #245, .T. ) ;
#11 = AXIS2_PLACEMENT_3D ( 'NONE', #226, #239, #54 ) ;
#12 = LINE ( 'NONE', #144, #207 ) ;
#13 = CARTESIAN_POINT ( 'NONE',  ( 0.01499999999999999944, 0.0000000000000000000, 2.500000000000000000 ) ) ;
#14 = SURFACE_STYLE_FILL_AREA ( #236 ) ;
#15 = CARTESIAN_POINT ( 'NONE',  ( 0.0000000000000000000, 0.0000000000000000000, 0.0000000000000000000 ) ) ;
#16 = FILL_AREA_STYLE_COLOUR ( '', #44 ) ;
#17 = VERTEX_POINT ( 'NONE', #97 ) ;
#18 = APPLICATION_PROTOCOL_DEFINITION ( 'draft international standard', 'automotive_design', 1998, #107 ) ;
#19 = ORIENTED_EDGE ( 'NONE', *, *, #47, .T. ) ;
#20 = ORIENTED_EDGE ( 'NONE', *, *, #184, .T. ) ;
#21 = DIMENSIONAL_EXPONENTS ( 1.000000000000000000, 0.0000000000000000000, 0.0000000000000000000, 0.0000000000000000000, 0.0000000000000000000, 0.0000000000000000000, 0.0000000000000000000 ) ;
#22 = ORIENTED_EDGE ( 'NONE', *, *, #194, .T. ) ;
#23 = DIRECTION ( 'NONE',  ( -0.0000000000000000000, -0.0000000000000000000, -1.000000000000000000 ) ) ;
#24 = EDGE_LOOP ( 'NONE', ( #37, #19 ) ) ;
#25 = CARTESIAN_POINT ( 'NONE',  ( 0.0000000000000000000, 0.0000000000000000000, 2.500000000000000000 ) ) ;
#26 = AXIS2_PLACEMENT_3D ( 'NONE', #68, #84, #119 ) ;
#27 = CARTESIAN_POINT ( 'NONE',  ( 0.1250000000000000000, 1.530808498934191509E-17, 2.500000000000000000 ) ) ;
#28 = PRESENTATION_STYLE_ASSIGNMENT (( #200 ) ) ;
#29 = ADVANCED_FACE ( 'NONE', ( #77 ), #93, .T. ) ;
#30 = CONICAL_SURFACE ( 'NONE', #201, 0.01499999999999999944, 0.5235987755983005920 ) ;
#31 = AXIS2_PLACEMENT_3D ( 'NONE', #35, #122, #161 ) ;
#32 = LENGTH_MEASURE_WITH_UNIT ( LENGTH_MEASURE( 0.02539999999999999897 ), #162 );
#33 = UNCERTAINTY_MEASURE_WITH_UNIT (LENGTH_MEASURE( 1.000000000000000082E-05 ), #52, 'distance_accuracy_value', 'NONE');
#34 = FACE_OUTER_BOUND ( 'NONE', #183, .T. ) ;
#35 = CARTESIAN_POINT ( 'NONE',  ( 0.0000000000000000000, 0.0000000000000000000, 2.500000000000000000 ) ) ;
#36 = ORIENTED_EDGE ( 'NONE', *, *, #182, .F. ) ;
#37 = ORIENTED_EDGE ( 'NONE', *, *, #98, .T. ) ;
#38 = VERTEX_POINT ( 'NONE', #196 ) ;
#39 = AXIS2_PLACEMENT_3D ( 'NONE', #170, #23, #195 ) ;
#40 = FILL_AREA_STYLE ('',( #16 ) ) ;
#41 = DIMENSIONAL_EXPONENTS ( 1.000000000000000000, 0.0000000000000000000, 0.0000000000000000000, 0.0000000000000000000, 0.0000000000000000000, 0.0000000000000000000, 0.0000000000000000000 ) ;
#42 = LENGTH_MEASURE_WITH_UNIT ( LENGTH_MEASURE( 0.02539999999999999897 ), #95 );
#43 = CARTESIAN_POINT ( 'NONE',  ( -0.01499999999999999944, 8.572527594031473498E-18, 0.0000000000000000000 ) ) ;
#44 = COLOUR_RGB ( '',0.7921568627450980005, 0.8196078431372548767, 0.9333333333333333481 ) ;
#45 = CARTESIAN_POINT ( 'NONE',  ( -0.01499999999999999944, 1.836970198721029595E-18, 0.0000000000000000000 ) ) ;
#46 = CARTESIAN_POINT ( 'NONE',  ( 0.0000000000000000000, 0.0000000000000000000, 2.500000000000000000 ) ) ;
#47 = EDGE_CURVE ( 'NONE', #169, #17, #82, .T. ) ;
#48 = DIRECTION ( 'NONE',  ( -1.000000000000000000, 0.0000000000000000000, 0.0000000000000000000 ) ) ;
#49 = LINE ( 'NONE', #45, #124 ) ;
#50 = ADVANCED_FACE ( 'NONE', ( #137 ), #141, .F. ) ;
#51 = EDGE_CURVE ( 'NONE', #17, #135, #5, .T. ) ;
#52 =( CONVERSION_BASED_UNIT ( 'INCH', #67 ) LENGTH_UNIT ( ) NAMED_UNIT ( #212 ) );
#53 = AXIS2_PLACEMENT_3D ( 'NONE', #46, #230, #48 ) ;
#54 = DIRECTION ( 'NONE',  ( -1.000000000000000000, 0.0000000000000000000, 0.0000000000000000000 ) ) ;
#55 = CIRCLE ( 'NONE', #31, 0.01499999999999999944 ) ;
#56 = ORIENTED_EDGE ( 'NONE', *, *, #203, .F. ) ;
#57 = ORIENTED_EDGE ( 'NONE', *, *, #112, .F. ) ;
#58 = CIRCLE ( 'NONE', #39, 0.01499999999999999944 ) ;
#59 =( GEOMETRIC_REPRESENTATION_CONTEXT ( 3 ) GLOBAL_UNCERTAINTY_ASSIGNED_CONTEXT ( ( #33 ) ) GLOBAL_UNIT_ASSIGNED_CONTEXT ( ( #52, #225, #178 ) ) REPRESENTATION_CONTEXT ( 'NONE', 'WORKASPACE' ) );
#60 = ORIENTED_EDGE ( 'NONE', *, *, #231, .F. ) ;
#61 = DIRECTION ( 'NONE',  ( 1.000000000000000000, 0.0000000000000000000, -0.0000000000000000000 ) ) ;
#62 = DIRECTION ( 'NONE',  ( -0.0000000000000000000, -0.0000000000000000000, -1.000000000000000000 ) ) ;
#63 = AXIS2_PLACEMENT_3D ( 'NONE', #15, #127, #168 ) ;
#64 = DIRECTION ( 'NONE',  ( 0.0000000000000000000, 0.0000000000000000000, -1.000000000000000000 ) ) ;
#65 = EDGE_LOOP ( 'NONE', ( #209, #108, #151, #176 ) ) ;
#66 = DIRECTION ( 'NONE',  ( 1.000000000000000000, 0.0000000000000000000, 0.0000000000000000000 ) ) ;
#67 = LENGTH_MEASURE_WITH_UNIT ( LENGTH_MEASURE( 0.02539999999999999897 ), #69 );
#68 = CARTESIAN_POINT ( 'NONE',  ( 0.0000000000000000000, 0.0000000000000000000, 2.309474411167424357 ) ) ;
#69 =( LENGTH_UNIT ( ) NAMED_UNIT ( * ) SI_UNIT ( $, .METRE. ) );
#70 = SURFACE_SIDE_STYLE ('',( #14 ) ) ;
#71 = EDGE_CURVE ( 'NONE', #221, #135, #232, .T. ) ;
#72 = AXIS2_PLACEMENT_3D ( 'NONE', #106, #86, #238 ) ;
#73 = ORIENTED_EDGE ( 'NONE', *, *, #206, .F. ) ;
#74 = ORIENTED_EDGE ( 'NONE', *, *, #71, .T. ) ;
#75 = PRODUCT_CONTEXT ( 'NONE', #85, 'mechanical' ) ;
#76 = EDGE_LOOP ( 'NONE', ( #149, #36 ) ) ;
#77 = FACE_OUTER_BOUND ( 'NONE', #228, .T. ) ;
#78 = DIRECTION ( 'NONE',  ( -0.0000000000000000000, -0.0000000000000000000, -1.000000000000000000 ) ) ;
#79 = AXIS2_PLACEMENT_3D ( 'NONE', #153, #193, #61 ) ;
#80 = AXIS2_PLACEMENT_3D ( 'NONE', #88, #146, #126 ) ;
#81 = DIRECTION ( 'NONE',  ( 1.000000000000000000, 0.0000000000000000000, 0.0000000000000000000 ) ) ;
#82 = CIRCLE ( 'NONE', #145, 0.01499999999999999944 ) ;
#83 = LINE ( 'NONE', #199, #197 ) ;
#84 = DIRECTION ( 'NONE',  ( 0.0000000000000000000, 0.0000000000000000000, -1.000000000000000000 ) ) ;
#85 = APPLICATION_CONTEXT ( 'automotive_design' ) ;
#86 = DIRECTION ( 'NONE',  ( -0.0000000000000000000, -0.0000000000000000000, -1.000000000000000000 ) ) ;
#87 = CARTESIAN_POINT ( 'NONE',  ( 0.0000000000000000000, 0.0000000000000000000, 0.1905255888325758096 ) ) ;
#88 = CARTESIAN_POINT ( 'NONE',  ( 0.0000000000000000000, 0.0000000000000000000, 2.309474411167424357 ) ) ;
#89 =( NAMED_UNIT ( * ) PLANE_ANGLE_UNIT ( ) SI_UNIT ( $, .RADIAN. ) );
#90 = AXIS2_PLACEMENT_3D ( 'NONE', #220, #174, #214 ) ;
#91 = SURFACE_SIDE_STYLE ('',( #213 ) ) ;
#92 = VERTEX_POINT ( 'NONE', #101 ) ;
#93 = CONICAL_SURFACE ( 'NONE', #188, 0.01499999999999999944, 0.5235987755983005920 ) ;
#94 =( NAMED_UNIT ( * ) SI_UNIT ( $, .STERADIAN. ) SOLID_ANGLE_UNIT ( ) );
#95 =( LENGTH_UNIT ( ) NAMED_UNIT ( * ) SI_UNIT ( $, .METRE. ) );
#96 = VERTEX_POINT ( 'NONE', #9 ) ;
#97 = CARTESIAN_POINT ( 'NONE',  ( 0.01499999999999999944, 0.0000000000000000000, 0.0000000000000000000 ) ) ;
#98 = EDGE_CURVE ( 'NONE', #17, #169, #58, .T. ) ;
#99 = CARTESIAN_POINT ( 'NONE',  ( 0.1250000000000000000, 1.530808498934191509E-17, 0.1905255888325758096 ) ) ;
#100 = DIRECTION ( 'NONE',  ( 0.0000000000000000000, 0.0000000000000000000, 1.000000000000000000 ) ) ;
#101 = CARTESIAN_POINT ( 'NONE',  ( -0.1250000000000000000, 0.0000000000000000000, 0.1905255888325758096 ) ) ;
#102 = CARTESIAN_POINT ( 'NONE',  ( 0.0000000000000000000, 0.0000000000000000000, 0.0000000000000000000 ) ) ;
#103 = CARTESIAN_POINT ( 'NONE',  ( 0.01499999999999999944, 0.0000000000000000000, 2.500000000000000000 ) ) ;
#104 = AXIS2_PLACEMENT_3D ( 'NONE', #173, #6, #218 ) ;
#105 = CONICAL_SURFACE ( 'NONE', #90, 0.01499999999999999944, 0.5235987755983005920 ) ;
#106 = CARTESIAN_POINT ( 'NONE',  ( 0.0000000000000000000, 0.0000000000000000000, 0.1905255888325758096 ) ) ;
#107 = APPLICATION_CONTEXT ( 'automotive_design' ) ;
#108 = ORIENTED_EDGE ( 'NONE', *, *, #231, .T. ) ;
#109 = CIRCLE ( 'NONE', #26, 0.1250000000000000000 ) ;
#110 = PRESENTATION_STYLE_ASSIGNMENT (( #130 ) ) ;
#111 = ADVANCED_FACE ( 'NONE', ( #140 ), #30, .T. ) ;
#112 = EDGE_CURVE ( 'NONE', #169, #92, #49, .T. ) ;
#113 = CARTESIAN_POINT ( 'NONE',  ( 0.0000000000000000000, 0.0000000000000000000, 2.500000000000000000 ) ) ;
#114 = FACE_OUTER_BOUND ( 'NONE', #76, .T. ) ;
#115 = DIRECTION ( 'NONE',  ( -1.000000000000000000, 0.0000000000000000000, 0.0000000000000000000 ) ) ;
#116 = DIRECTION ( 'NONE',  ( -0.5000000000000013323, 6.123233995736782060E-17, 0.8660254037844377084 ) ) ;
#117 = AXIS2_PLACEMENT_3D ( 'NONE', #87, #244, #159 ) ;
#118 = PLANE ( 'NONE',  #79 ) ;
#119 = DIRECTION ( 'NONE',  ( -1.000000000000000000, 0.0000000000000000000, 0.0000000000000000000 ) ) ;
#120 = UNCERTAINTY_MEASURE_WITH_UNIT (LENGTH_MEASURE( 1.000000000000000082E-05 ), #189, 'distance_accuracy_value', 'NONE');
#121 = PRODUCT_RELATED_PRODUCT_CATEGORY ( 'part', '', ( #219 ) ) ;
#122 = DIRECTION ( 'NONE',  ( 0.0000000000000000000, 0.0000000000000000000, -1.000000000000000000 ) ) ;
#123 = ADVANCED_FACE ( 'NONE', ( #114 ), #118, .T. ) ;
#124 = VECTOR ( 'NONE', #116, 39.37007874015748854 ) ;
#125 = DIRECTION ( 'NONE',  ( 1.000000000000000000, 0.0000000000000000000, 0.0000000000000000000 ) ) ;
#126 = DIRECTION ( 'NONE',  ( -1.000000000000000000, 0.0000000000000000000, 0.0000000000000000000 ) ) ;
#127 = DIRECTION ( 'NONE',  ( 0.0000000000000000000, 0.0000000000000000000, 1.000000000000000000 ) ) ;
#128 = ORIENTED_EDGE ( 'NONE', *, *, #198, .T. ) ;
#129 = ORIENTED_EDGE ( 'NONE', *, *, #131, .F. ) ;
#130 = SURFACE_STYLE_USAGE ( .BOTH. , #91 ) ;
#131 = EDGE_CURVE ( 'NONE', #96, #92, #83, .T. ) ;
#132 =( NAMED_UNIT ( * ) PLANE_ANGLE_UNIT ( ) SI_UNIT ( $, .RADIAN. ) );
#133 = ORIENTED_EDGE ( 'NONE', *, *, #71, .F. ) ;
#134 = VECTOR ( 'NONE', #216, 39.37007874015748143 ) ;
#135 = VERTEX_POINT ( 'NONE', #99 ) ;
#136 = FACE_OUTER_BOUND ( 'NONE', #186, .T. ) ;
#137 = FACE_OUTER_BOUND ( 'NONE', #24, .T. ) ;
#138 = MECHANICAL_DESIGN_GEOMETRIC_PRESENTATION_REPRESENTATION (  '', ( #242 ), #180 ) ;
#139 = CARTESIAN_POINT ( 'NONE',  ( 0.0000000000000000000, 0.0000000000000000000, 2.500000000000000000 ) ) ;
#140 = FACE_OUTER_BOUND ( 'NONE', #65, .T. ) ;
#141 = PLANE ( 'NONE',  #104 ) ;
#142 = ADVANCED_FACE ( 'NONE', ( #233 ), #171, .T. ) ;
#143 = ADVANCED_FACE ( 'NONE', ( #136 ), #105, .T. ) ;
#144 = CARTESIAN_POINT ( 'NONE',  ( -0.01499999999999999944, -1.836970198721029595E-18, 2.500000000000000000 ) ) ;
#145 = AXIS2_PLACEMENT_3D ( 'NONE', #154, #62, #115 ) ;
#146 = DIRECTION ( 'NONE',  ( 0.0000000000000000000, 0.0000000000000000000, -1.000000000000000000 ) ) ;
#147 = STYLED_ITEM ( 'NONE', ( #28 ), #240 ) ;
#148 = ORIENTED_EDGE ( 'NONE', *, *, #112, .T. ) ;
#149 = ORIENTED_EDGE ( 'NONE', *, *, #10, .F. ) ;
#150 = SHAPE_DEFINITION_REPRESENTATION ( #204, #185 ) ;
#151 = ORIENTED_EDGE ( 'NONE', *, *, #198, .F. ) ;
#152 = MECHANICAL_DESIGN_GEOMETRIC_PRESENTATION_REPRESENTATION (  '', ( #147 ), #59 ) ;
#153 = CARTESIAN_POINT ( 'NONE',  ( 0.0000000000000000000, 0.0000000000000000000, 2.500000000000000000 ) ) ;
#154 = CARTESIAN_POINT ( 'NONE',  ( 0.0000000000000000000, 0.0000000000000000000, 0.0000000000000000000 ) ) ;
#155 = ORIENTED_EDGE ( 'NONE', *, *, #184, .F. ) ;
#156 = CIRCLE ( 'NONE', #72, 0.1250000000000000000 ) ;
#157 = DIRECTION ( 'NONE',  ( -0.0000000000000000000, -0.0000000000000000000, -1.000000000000000000 ) ) ;
#158 = FACE_OUTER_BOUND ( 'NONE', #249, .T. ) ;
#159 = DIRECTION ( 'NONE',  ( -1.000000000000000000, 0.0000000000000000000, 0.0000000000000000000 ) ) ;
#160 = LINE ( 'NONE', #103, #237 ) ;
#161 = DIRECTION ( 'NONE',  ( -1.000000000000000000, 0.0000000000000000000, 0.0000000000000000000 ) ) ;
#162 =( LENGTH_UNIT ( ) NAMED_UNIT ( * ) SI_UNIT ( $, .METRE. ) );
#163 = VECTOR ( 'NONE', #4, 39.37007874015748854 ) ;
#164 =( GEOMETRIC_REPRESENTATION_CONTEXT ( 3 ) GLOBAL_UNCERTAINTY_ASSIGNED_CONTEXT ( ( #175 ) ) GLOBAL_UNIT_ASSIGNED_CONTEXT ( ( #205, #89, #187 ) ) REPRESENTATION_CONTEXT ( 'NONE', 'WORKASPACE' ) );
#165 = CYLINDRICAL_SURFACE ( 'NONE', #11, 0.1250000000000000000 ) ;
#166 = PRODUCT_DEFINITION ( 'UNKNOWN', '', #202, #243 ) ;
#167 = ORIENTED_EDGE ( 'NONE', *, *, #98, .F. ) ;
#168 = DIRECTION ( 'NONE',  ( 1.000000000000000000, 0.0000000000000000000, 0.0000000000000000000 ) ) ;
#169 = VERTEX_POINT ( 'NONE', #43 ) ;
#170 = CARTESIAN_POINT ( 'NONE',  ( 0.0000000000000000000, 0.0000000000000000000, 0.0000000000000000000 ) ) ;
#171 = CYLINDRICAL_SURFACE ( 'NONE', #210, 0.1250000000000000000 ) ;
#172 = ADVANCED_FACE ( 'NONE', ( #158 ), #217, .T. ) ;
#173 = CARTESIAN_POINT ( 'NONE',  ( 0.0000000000000000000, 0.0000000000000000000, 0.0000000000000000000 ) ) ;
#174 = DIRECTION ( 'NONE',  ( 0.0000000000000000000, 0.0000000000000000000, 1.000000000000000000 ) ) ;
#175 = UNCERTAINTY_MEASURE_WITH_UNIT (LENGTH_MEASURE( 1.000000000000000082E-05 ), #205, 'distance_accuracy_value', 'NONE');
#176 = ORIENTED_EDGE ( 'NONE', *, *, #194, .F. ) ;
#177 = AXIS2_PLACEMENT_3D ( 'NONE', #113, #235, #125 ) ;
#178 =( NAMED_UNIT ( * ) SI_UNIT ( $, .STERADIAN. ) SOLID_ANGLE_UNIT ( ) );
#179 = CARTESIAN_POINT ( 'NONE',  ( 0.1250000000000000000, 1.530808498934191509E-17, 2.309474411167424357 ) ) ;
#180 =( GEOMETRIC_REPRESENTATION_CONTEXT ( 3 ) GLOBAL_UNCERTAINTY_ASSIGNED_CONTEXT ( ( #120 ) ) GLOBAL_UNIT_ASSIGNED_CONTEXT ( ( #189, #132, #94 ) ) REPRESENTATION_CONTEXT ( 'NONE', 'WORKASPACE' ) );
#181 = DIRECTION ( 'NONE',  ( 0.5000000000000013323, 0.0000000000000000000, -0.8660254037844377084 ) ) ;
#182 = EDGE_CURVE ( 'NONE', #38, #190, #55, .T. ) ;
#183 = EDGE_LOOP ( 'NONE', ( #8, #74, #155, #129 ) ) ;
#184 = EDGE_CURVE ( 'NONE', #92, #135, #156, .T. ) ;
#185 = ADVANCED_BREP_SHAPE_REPRESENTATION ( 'Micro_RSC-250-230', ( #240, #63 ), #164 ) ;
#186 = EDGE_LOOP ( 'NONE', ( #57, #167, #227, #247 ) ) ;
#187 =( NAMED_UNIT ( * ) SI_UNIT ( $, .STERADIAN. ) SOLID_ANGLE_UNIT ( ) );
#188 = AXIS2_PLACEMENT_3D ( 'NONE', #102, #100, #66 ) ;
#189 =( CONVERSION_BASED_UNIT ( 'INCH', #42 ) LENGTH_UNIT ( ) NAMED_UNIT ( #41 ) );
#190 = VERTEX_POINT ( 'NONE', #13 ) ;
#191 = CARTESIAN_POINT ( 'NONE',  ( 0.01499999999999999944, 0.0000000000000000000, 0.0000000000000000000 ) ) ;
#192 = COLOUR_RGB ( '',0.7921568627450980005, 0.8196078431372548767, 0.9333333333333333481 ) ;
#193 = DIRECTION ( 'NONE',  ( 0.0000000000000000000, 0.0000000000000000000, 1.000000000000000000 ) ) ;
#194 = EDGE_CURVE ( 'NONE', #190, #221, #160, .T. ) ;
#195 = DIRECTION ( 'NONE',  ( -1.000000000000000000, 0.0000000000000000000, 0.0000000000000000000 ) ) ;
#196 = CARTESIAN_POINT ( 'NONE',  ( -0.01499999999999999944, -8.572527594031471957E-18, 2.500000000000000000 ) ) ;
#197 = VECTOR ( 'NONE', #78, 39.37007874015748143 ) ;
#198 = EDGE_CURVE ( 'NONE', #221, #96, #7, .T. ) ;
#199 = CARTESIAN_POINT ( 'NONE',  ( -0.1250000000000000000, 0.0000000000000000000, 2.500000000000000000 ) ) ;
#200 = SURFACE_STYLE_USAGE ( .BOTH. , #70 ) ;
#201 = AXIS2_PLACEMENT_3D ( 'NONE', #25, #64, #81 ) ;
#202 = PRODUCT_DEFINITION_FORMATION_WITH_SPECIFIED_SOURCE ( 'ANY', '', #219, .NOT_KNOWN. ) ;
#203 = EDGE_CURVE ( 'NONE', #96, #221, #109, .T. ) ;
#204 = PRODUCT_DEFINITION_SHAPE ( 'NONE', 'NONE',  #166 ) ;
#205 =( CONVERSION_BASED_UNIT ( 'INCH', #32 ) LENGTH_UNIT ( ) NAMED_UNIT ( #21 ) );
#206 = EDGE_CURVE ( 'NONE', #135, #92, #2, .T. ) ;
#207 = VECTOR ( 'NONE', #224, 39.37007874015748854 ) ;
#208 = ORIENTED_EDGE ( 'NONE', *, *, #131, .T. ) ;
#209 = ORIENTED_EDGE ( 'NONE', *, *, #10, .T. ) ;
#210 = AXIS2_PLACEMENT_3D ( 'NONE', #139, #157, #234 ) ;
#211 = ORIENTED_EDGE ( 'NONE', *, *, #182, .T. ) ;
#212 = DIMENSIONAL_EXPONENTS ( 1.000000000000000000, 0.0000000000000000000, 0.0000000000000000000, 0.0000000000000000000, 0.0000000000000000000, 0.0000000000000000000, 0.0000000000000000000 ) ;
#213 = SURFACE_STYLE_FILL_AREA ( #40 ) ;
#214 = DIRECTION ( 'NONE',  ( 1.000000000000000000, 0.0000000000000000000, 0.0000000000000000000 ) ) ;
#215 = ADVANCED_FACE ( 'NONE', ( #34 ), #165, .T. ) ;
#216 = DIRECTION ( 'NONE',  ( -0.0000000000000000000, -0.0000000000000000000, -1.000000000000000000 ) ) ;
#217 = CONICAL_SURFACE ( 'NONE', #177, 0.01499999999999999944, 0.5235987755983005920 ) ;
#218 = DIRECTION ( 'NONE',  ( 1.000000000000000000, 0.0000000000000000000, -0.0000000000000000000 ) ) ;
#219 = PRODUCT ( 'Micro_RSC-250-230', 'Micro_RSC-250-230', '', ( #75 ) ) ;
#220 = CARTESIAN_POINT ( 'NONE',  ( 0.0000000000000000000, 0.0000000000000000000, 0.0000000000000000000 ) ) ;
#221 = VERTEX_POINT ( 'NONE', #179 ) ;
#222 = PRESENTATION_LAYER_ASSIGNMENT (  '', '', ( #242 ) ) ;
#223 = FILL_AREA_STYLE_COLOUR ( '', #192 ) ;
#224 = DIRECTION ( 'NONE',  ( -0.5000000000000013323, -6.123233995736782060E-17, -0.8660254037844377084 ) ) ;
#225 =( NAMED_UNIT ( * ) PLANE_ANGLE_UNIT ( ) SI_UNIT ( $, .RADIAN. ) );
#226 = CARTESIAN_POINT ( 'NONE',  ( 0.0000000000000000000, 0.0000000000000000000, 2.500000000000000000 ) ) ;
#227 = ORIENTED_EDGE ( 'NONE', *, *, #51, .T. ) ;
#228 = EDGE_LOOP ( 'NONE', ( #3, #148, #20, #229 ) ) ;
#229 = ORIENTED_EDGE ( 'NONE', *, *, #51, .F. ) ;
#230 = DIRECTION ( 'NONE',  ( 0.0000000000000000000, 0.0000000000000000000, -1.000000000000000000 ) ) ;
#231 = EDGE_CURVE ( 'NONE', #38, #96, #12, .T. ) ;
#232 = LINE ( 'NONE', #27, #134 ) ;
#233 = FACE_OUTER_BOUND ( 'NONE', #1, .T. ) ;
#234 = DIRECTION ( 'NONE',  ( -1.000000000000000000, 0.0000000000000000000, 0.0000000000000000000 ) ) ;
#235 = DIRECTION ( 'NONE',  ( 0.0000000000000000000, 0.0000000000000000000, -1.000000000000000000 ) ) ;
#236 = FILL_AREA_STYLE ('',( #223 ) ) ;
#237 = VECTOR ( 'NONE', #181, 39.37007874015748854 ) ;
#238 = DIRECTION ( 'NONE',  ( -1.000000000000000000, 0.0000000000000000000, 0.0000000000000000000 ) ) ;
#239 = DIRECTION ( 'NONE',  ( -0.0000000000000000000, -0.0000000000000000000, -1.000000000000000000 ) ) ;
#240 = MANIFOLD_SOLID_BREP ( 'Mirror1', #241 ) ;
#241 = CLOSED_SHELL ( 'NONE', ( #111, #29, #215, #142, #143, #50, #172, #123 ) ) ;
#242 = STYLED_ITEM ( 'NONE', ( #110 ), #185 ) ;
#243 = PRODUCT_DEFINITION_CONTEXT ( 'detailed design', #107, 'design' ) ;
#244 = DIRECTION ( 'NONE',  ( -0.0000000000000000000, -0.0000000000000000000, -1.000000000000000000 ) ) ;
#245 = CIRCLE ( 'NONE', #53, 0.01499999999999999944 ) ;
#246 = PRESENTATION_LAYER_ASSIGNMENT (  '', '', ( #147 ) ) ;
#247 = ORIENTED_EDGE ( 'NONE', *, *, #206, .T. ) ;
#248 = APPLICATION_PROTOCOL_DEFINITION ( 'draft international standard', 'automotive_design', 1998, #85 ) ;
#249 = EDGE_LOOP ( 'NONE', ( #60, #211, #22, #56 ) ) ;
ENDSEC;
END-ISO-10303-21;
