ISO-10303-21;
HEADER;
FILE_DESCRIPTION (( 'STEP AP214' ),
    '1' );
FILE_NAME ('24617.STEP',
    '2023-06-22T17:22:43',
    ( '' ),
    ( '' ),
    'SwSTEP 2.0',
    'SolidWorks 2023',
    '' );
FILE_SCHEMA (( 'AUTOMOTIVE_DESIGN' ));
ENDSEC;

DATA;
#1 = EDGE_CURVE ( 'NONE', #110, #283, #189, .T. ) ;
#2 = FILL_AREA_STYLE_COLOUR ( '', #251 ) ;
#3 = LINE ( 'NONE', #196, #27 ) ;
#4 = CARTESIAN_POINT ( 'NONE',  ( 7.654042494670957853E-17, 0.000000000000000000, 0.6250000000000000000 ) ) ;
#5 = SURFACE_SIDE_STYLE ('',( #296 ) ) ;
#6 = AXIS2_PLACEMENT_3D ( 'NONE', #279, #63, #138 ) ;
#7 = CYLINDRICAL_SURFACE ( 'NONE', #162, 0.6250000000000000000 ) ;
#8 = SURFACE_SIDE_STYLE ('',( #203 ) ) ;
#9 = LENGTH_MEASURE_WITH_UNIT ( LENGTH_MEASURE( 0.02539999999999999897 ), #300 );
#10 = FACE_OUTER_BOUND ( 'NONE', #218, .T. ) ;
#11 = EDGE_LOOP ( 'NONE', ( #40, #164, #65, #216 ) ) ;
#12 =( NAMED_UNIT ( * ) SI_UNIT ( $, .STERADIAN. ) SOLID_ANGLE_UNIT ( ) );
#13 =( GEOMETRIC_REPRESENTATION_CONTEXT ( 3 ) GLOBAL_UNCERTAINTY_ASSIGNED_CONTEXT ( ( #179 ) ) GLOBAL_UNIT_ASSIGNED_CONTEXT ( ( #175, #151, #178 ) ) REPRESENTATION_CONTEXT ( 'NONE', 'WORKASPACE' ) );
#14 = ORIENTED_EDGE ( 'NONE', *, *, #59, .T. ) ;
#15 = SURFACE_SIDE_STYLE ('',( #89 ) ) ;
#16 = DIRECTION ( 'NONE',  ( 0.000000000000000000, 0.000000000000000000, -1.000000000000000000 ) ) ;
#17 = DIRECTION ( 'NONE',  ( 1.224646799147352961E-16, 1.000000000000000000, -0.000000000000000000 ) ) ;
#18 = AXIS2_PLACEMENT_3D ( 'NONE', #148, #228, #146 ) ;
#19 = EDGE_LOOP ( 'NONE', ( #214, #38 ) ) ;
#20 = EDGE_CURVE ( 'NONE', #213, #266, #76, .T. ) ;
#21 = LENGTH_MEASURE_WITH_UNIT ( LENGTH_MEASURE( 0.02539999999999999897 ), #73 );
#22 = AXIS2_PLACEMENT_3D ( 'NONE', #35, #301, #238 ) ;
#23 = PRODUCT_CONTEXT ( 'NONE', #281, 'mechanical' ) ;
#24 = ADVANCED_FACE ( 'NONE', ( #242 ), #308, .T. ) ;
#25 = CARTESIAN_POINT ( 'NONE',  ( -0.6250000000000000000, 2.000000000000000000, 0.000000000000000000 ) ) ;
#26 = LENGTH_MEASURE_WITH_UNIT ( LENGTH_MEASURE( 0.02539999999999999897 ), #106 );
#27 = VECTOR ( 'NONE', #249, 39.37007874015748143 ) ;
#28 = MECHANICAL_DESIGN_GEOMETRIC_PRESENTATION_REPRESENTATION (  '', ( #45 ), #111 ) ;
#29 = CARTESIAN_POINT ( 'NONE',  ( 0.000000000000000000, 0.000000000000000000, -0.6250000000000000000 ) ) ;
#30 = CARTESIAN_POINT ( 'NONE',  ( 0.000000000000000000, 0.000000000000000000, 0.000000000000000000 ) ) ;
#31 = DIRECTION ( 'NONE',  ( -0.000000000000000000, -1.000000000000000000, -0.000000000000000000 ) ) ;
#32 = PRESENTATION_STYLE_ASSIGNMENT (( #134 ) ) ;
#33 =( GEOMETRIC_REPRESENTATION_CONTEXT ( 3 ) GLOBAL_UNCERTAINTY_ASSIGNED_CONTEXT ( ( #72 ) ) GLOBAL_UNIT_ASSIGNED_CONTEXT ( ( #49, #46, #101 ) ) REPRESENTATION_CONTEXT ( 'NONE', 'WORKASPACE' ) );
#34 = FILL_AREA_STYLE ('',( #127 ) ) ;
#35 = CARTESIAN_POINT ( 'NONE',  ( 0.000000000000000000, 2.000000000000000000, 0.000000000000000000 ) ) ;
#36 = EDGE_LOOP ( 'NONE', ( #67, #190 ) ) ;
#37 = CARTESIAN_POINT ( 'NONE',  ( 7.654042494670957853E-17, 2.000000000000000000, 0.6250000000000000000 ) ) ;
#38 = ORIENTED_EDGE ( 'NONE', *, *, #285, .T. ) ;
#39 = UNCERTAINTY_MEASURE_WITH_UNIT (LENGTH_MEASURE( 1.000000000000000082E-05 ), #188, 'distance_accuracy_value', 'NONE');
#40 = ORIENTED_EDGE ( 'NONE', *, *, #176, .T. ) ;
#41 = ORIENTED_EDGE ( 'NONE', *, *, #212, .T. ) ;
#42 = DIRECTION ( 'NONE',  ( 0.000000000000000000, -0.000000000000000000, 1.000000000000000000 ) ) ;
#43 = STYLED_ITEM ( 'NONE', ( #77 ), #87 ) ;
#44 = VERTEX_POINT ( 'NONE', #75 ) ;
#45 = STYLED_ITEM ( 'NONE', ( #191 ), #278 ) ;
#46 =( NAMED_UNIT ( * ) PLANE_ANGLE_UNIT ( ) SI_UNIT ( $, .RADIAN. ) );
#47 = LENGTH_MEASURE_WITH_UNIT ( LENGTH_MEASURE( 0.02539999999999999897 ), #245 );
#48 = MANIFOLD_SOLID_BREP ( 'Revolve - Cutting Edge', #158 ) ;
#49 =( CONVERSION_BASED_UNIT ( 'INCH', #47 ) LENGTH_UNIT ( ) NAMED_UNIT ( #150 ) );
#50 = VECTOR ( 'NONE', #229, 39.37007874015748143 ) ;
#51 = DIRECTION ( 'NONE',  ( -1.000000000000000000, 0.000000000000000000, 0.000000000000000000 ) ) ;
#52 = FILL_AREA_STYLE ('',( #104 ) ) ;
#53 = DIMENSIONAL_EXPONENTS ( 1.000000000000000000, 0.000000000000000000, 0.000000000000000000, 0.000000000000000000, 0.000000000000000000, 0.000000000000000000, 0.000000000000000000 ) ;
#54 = PRESENTATION_LAYER_ASSIGNMENT (  '', '', ( #194 ) ) ;
#55 = FACE_OUTER_BOUND ( 'NONE', #187, .T. ) ;
#56 =( NAMED_UNIT ( * ) SI_UNIT ( $, .STERADIAN. ) SOLID_ANGLE_UNIT ( ) );
#57 = SURFACE_SIDE_STYLE ('',( #275 ) ) ;
#58 =( NAMED_UNIT ( * ) PLANE_ANGLE_UNIT ( ) SI_UNIT ( $, .RADIAN. ) );
#59 = EDGE_CURVE ( 'NONE', #86, #186, #3, .T. ) ;
#60 = SURFACE_SIDE_STYLE ('',( #83 ) ) ;
#61 = AXIS2_PLACEMENT_3D ( 'NONE', #91, #286, #219 ) ;
#62 = CARTESIAN_POINT ( 'NONE',  ( 3.061616997868382155E-16, 4.500000000000000000, 0.000000000000000000 ) ) ;
#63 = DIRECTION ( 'NONE',  ( -0.000000000000000000, -1.000000000000000000, -0.000000000000000000 ) ) ;
#64 = PRESENTATION_STYLE_ASSIGNMENT (( #135 ) ) ;
#65 = ORIENTED_EDGE ( 'NONE', *, *, #74, .F. ) ;
#66 = DIRECTION ( 'NONE',  ( -1.000000000000000000, 1.224646799147352961E-16, 0.000000000000000000 ) ) ;
#67 = ORIENTED_EDGE ( 'NONE', *, *, #176, .F. ) ;
#68 =( LENGTH_UNIT ( ) NAMED_UNIT ( * ) SI_UNIT ( $, .METRE. ) );
#69 = DIRECTION ( 'NONE',  ( -1.000000000000000000, 0.000000000000000000, 0.000000000000000000 ) ) ;
#70 =( GEOMETRIC_REPRESENTATION_CONTEXT ( 3 ) GLOBAL_UNCERTAINTY_ASSIGNED_CONTEXT ( ( #207 ) ) GLOBAL_UNIT_ASSIGNED_CONTEXT ( ( #297, #78, #181 ) ) REPRESENTATION_CONTEXT ( 'NONE', 'WORKASPACE' ) );
#71 = AXIS2_PLACEMENT_3D ( 'NONE', #304, #193, #66 ) ;
#72 = UNCERTAINTY_MEASURE_WITH_UNIT (LENGTH_MEASURE( 1.000000000000000082E-05 ), #49, 'distance_accuracy_value', 'NONE');
#73 =( LENGTH_UNIT ( ) NAMED_UNIT ( * ) SI_UNIT ( $, .METRE. ) );
#74 = EDGE_CURVE ( 'NONE', #186, #44, #172, .T. ) ;
#75 = CARTESIAN_POINT ( 'NONE',  ( 0.6250000000000000000, 4.500000000000000000, 7.654042494670955388E-17 ) ) ;
#76 = CIRCLE ( 'NONE', #270, 0.6250000000000000000 ) ;
#77 = PRESENTATION_STYLE_ASSIGNMENT (( #246 ) ) ;
#78 =( NAMED_UNIT ( * ) PLANE_ANGLE_UNIT ( ) SI_UNIT ( $, .RADIAN. ) );
#79 = ADVANCED_BREP_SHAPE_REPRESENTATION ( '24617', ( #48, #155, #159 ), #290 ) ;
#80 = EDGE_CURVE ( 'NONE', #118, #44, #291, .T. ) ;
#81 = CARTESIAN_POINT ( 'NONE',  ( -0.6249999999999994449, 4.500000000000000000, 0.000000000000000000 ) ) ;
#82 = PRODUCT ( '24617', '24617', '', ( #23 ) ) ;
#83 = SURFACE_STYLE_FILL_AREA ( #34 ) ;
#84 = PRODUCT_DEFINITION_SHAPE ( 'NONE', 'NONE',  #109 ) ;
#85 = PRODUCT_DEFINITION_CONTEXT ( 'detailed design', #184, 'design' ) ;
#86 = VERTEX_POINT ( 'NONE', #25 ) ;
#87 = ADVANCED_FACE ( 'NONE', ( #100 ), #145, .T. ) ;
#88 = ORIENTED_EDGE ( 'NONE', *, *, #80, .F. ) ;
#89 = SURFACE_STYLE_FILL_AREA ( #167 ) ;
#90 = ORIENTED_EDGE ( 'NONE', *, *, #285, .F. ) ;
#91 = CARTESIAN_POINT ( 'NONE',  ( 0.000000000000000000, 2.000000000000000000, 0.000000000000000000 ) ) ;
#92 = AXIS2_PLACEMENT_3D ( 'NONE', #114, #95, #192 ) ;
#93 = ORIENTED_EDGE ( 'NONE', *, *, #97, .T. ) ;
#94 = DIRECTION ( 'NONE',  ( 0.000000000000000000, 0.000000000000000000, -1.000000000000000000 ) ) ;
#95 = DIRECTION ( 'NONE',  ( 1.224646799147352961E-16, 1.000000000000000000, -0.000000000000000000 ) ) ;
#96 = LENGTH_MEASURE_WITH_UNIT ( LENGTH_MEASURE( 0.02539999999999999897 ), #68 );
#97 = EDGE_CURVE ( 'NONE', #283, #266, #124, .T. ) ;
#98 = PRESENTATION_LAYER_ASSIGNMENT (  '', '', ( #45 ) ) ;
#99 = UNCERTAINTY_MEASURE_WITH_UNIT (LENGTH_MEASURE( 1.000000000000000082E-05 ), #197, 'distance_accuracy_value', 'NONE');
#100 = FACE_OUTER_BOUND ( 'NONE', #112, .T. ) ;
#101 =( NAMED_UNIT ( * ) SI_UNIT ( $, .STERADIAN. ) SOLID_ANGLE_UNIT ( ) );
#102 = MECHANICAL_DESIGN_GEOMETRIC_PRESENTATION_REPRESENTATION (  '', ( #147 ), #13 ) ;
#103 = AXIS2_PLACEMENT_3D ( 'NONE', #243, #17, #69 ) ;
#104 = FILL_AREA_STYLE_COLOUR ( '', #209 ) ;
#105 = DIMENSIONAL_EXPONENTS ( 1.000000000000000000, 0.000000000000000000, 0.000000000000000000, 0.000000000000000000, 0.000000000000000000, 0.000000000000000000, 0.000000000000000000 ) ;
#106 =( LENGTH_UNIT ( ) NAMED_UNIT ( * ) SI_UNIT ( $, .METRE. ) );
#107 = MECHANICAL_DESIGN_GEOMETRIC_PRESENTATION_REPRESENTATION (  '', ( #289 ), #33 ) ;
#108 = CARTESIAN_POINT ( 'NONE',  ( 0.6250000000000000000, 2.000000000000000000, 7.654042494670955388E-17 ) ) ;
#109 = PRODUCT_DEFINITION ( 'UNKNOWN', '', #232, #85 ) ;
#110 = VERTEX_POINT ( 'NONE', #226 ) ;
#111 =( GEOMETRIC_REPRESENTATION_CONTEXT ( 3 ) GLOBAL_UNCERTAINTY_ASSIGNED_CONTEXT ( ( #39 ) ) GLOBAL_UNIT_ASSIGNED_CONTEXT ( ( #188, #119, #259 ) ) REPRESENTATION_CONTEXT ( 'NONE', 'WORKASPACE' ) );
#112 = EDGE_LOOP ( 'NONE', ( #303, #93, #306, #282 ) ) ;
#113 = FACE_OUTER_BOUND ( 'NONE', #141, .T. ) ;
#114 = CARTESIAN_POINT ( 'NONE',  ( 3.061616997868382155E-16, 4.500000000000000000, 0.000000000000000000 ) ) ;
#115 = FILL_AREA_STYLE_COLOUR ( '', #163 ) ;
#116 = EDGE_CURVE ( 'NONE', #110, #213, #201, .T. ) ;
#117 = UNCERTAINTY_MEASURE_WITH_UNIT (LENGTH_MEASURE( 1.000000000000000082E-05 ), #222, 'distance_accuracy_value', 'NONE');
#118 = VERTEX_POINT ( 'NONE', #108 ) ;
#119 =( NAMED_UNIT ( * ) PLANE_ANGLE_UNIT ( ) SI_UNIT ( $, .RADIAN. ) );
#120 = AXIS2_PLACEMENT_3D ( 'NONE', #170, #223, #51 ) ;
#121 = AXIS2_PLACEMENT_3D ( 'NONE', #258, #234, #252 ) ;
#122 = ORIENTED_EDGE ( 'NONE', *, *, #247, .F. ) ;
#123 =( LENGTH_UNIT ( ) NAMED_UNIT ( * ) SI_UNIT ( $, .METRE. ) );
#124 = LINE ( 'NONE', #4, #152 ) ;
#125 = FILL_AREA_STYLE ('',( #2 ) ) ;
#126 = CARTESIAN_POINT ( 'NONE',  ( 0.6250000000000001110, 4.500000000000000000, 7.654042494670955388E-17 ) ) ;
#127 = FILL_AREA_STYLE_COLOUR ( '', #244 ) ;
#128 = MECHANICAL_DESIGN_GEOMETRIC_PRESENTATION_REPRESENTATION (  '', ( #177 ), #70 ) ;
#129 = PLANE ( 'NONE',  #268 ) ;
#130 = FACE_OUTER_BOUND ( 'NONE', #19, .T. ) ;
#131 = DIRECTION ( 'NONE',  ( 0.000000000000000000, 0.000000000000000000, -1.000000000000000000 ) ) ;
#132 = COLOUR_RGB ( '',0.7921568627450980005, 0.8196078431372548767, 0.9333333333333333481 ) ;
#133 = CIRCLE ( 'NONE', #103, 0.6249999999999997780 ) ;
#134 = SURFACE_STYLE_USAGE ( .BOTH. , #60 ) ;
#135 = SURFACE_STYLE_USAGE ( .BOTH. , #57 ) ;
#136 = ORIENTED_EDGE ( 'NONE', *, *, #116, .T. ) ;
#137 = APPLICATION_PROTOCOL_DEFINITION ( 'draft international standard', 'automotive_design', 1998, #281 ) ;
#138 = DIRECTION ( 'NONE',  ( 0.000000000000000000, 0.000000000000000000, -1.000000000000000000 ) ) ;
#139 = CARTESIAN_POINT ( 'NONE',  ( 7.654042494670957853E-17, 0.000000000000000000, 0.6250000000000000000 ) ) ;
#140 = ADVANCED_FACE ( 'NONE', ( #130 ), #129, .F. ) ;
#141 = EDGE_LOOP ( 'NONE', ( #144, #122 ) ) ;
#142 = CARTESIAN_POINT ( 'NONE',  ( 0.000000000000000000, 0.000000000000000000, 0.000000000000000000 ) ) ;
#143 = LENGTH_MEASURE_WITH_UNIT ( LENGTH_MEASURE( 0.02539999999999999897 ), #262 );
#144 = ORIENTED_EDGE ( 'NONE', *, *, #1, .F. ) ;
#145 = CYLINDRICAL_SURFACE ( 'NONE', #18, 0.6250000000000000000 ) ;
#146 = DIRECTION ( 'NONE',  ( 0.000000000000000000, 0.000000000000000000, -1.000000000000000000 ) ) ;
#147 = STYLED_ITEM ( 'NONE', ( #32 ), #166 ) ;
#148 = CARTESIAN_POINT ( 'NONE',  ( 0.000000000000000000, 0.000000000000000000, 0.000000000000000000 ) ) ;
#149 = PRESENTATION_STYLE_ASSIGNMENT (( #271 ) ) ;
#150 = DIMENSIONAL_EXPONENTS ( 1.000000000000000000, 0.000000000000000000, 0.000000000000000000, 0.000000000000000000, 0.000000000000000000, 0.000000000000000000, 0.000000000000000000 ) ;
#151 =( NAMED_UNIT ( * ) PLANE_ANGLE_UNIT ( ) SI_UNIT ( $, .RADIAN. ) );
#152 = VECTOR ( 'NONE', #294, 39.37007874015748143 ) ;
#153 = DIMENSIONAL_EXPONENTS ( 1.000000000000000000, 0.000000000000000000, 0.000000000000000000, 0.000000000000000000, 0.000000000000000000, 0.000000000000000000, 0.000000000000000000 ) ;
#154 = DIRECTION ( 'NONE',  ( 0.000000000000000000, 0.000000000000000000, -1.000000000000000000 ) ) ;
#155 = MANIFOLD_SOLID_BREP ( 'Revolve - Tool Body (Straight Shanked)', #231 ) ;
#156 = FILL_AREA_STYLE_COLOUR ( '', #260 ) ;
#157 = UNCERTAINTY_MEASURE_WITH_UNIT (LENGTH_MEASURE( 1.000000000000000082E-05 ), #305, 'distance_accuracy_value', 'NONE');
#158 = CLOSED_SHELL ( 'NONE', ( #87, #278, #171, #166 ) ) ;
#159 = AXIS2_PLACEMENT_3D ( 'NONE', #169, #195, #227 ) ;
#160 = DIRECTION ( 'NONE',  ( -1.000000000000000000, 0.000000000000000000, 0.000000000000000000 ) ) ;
#161 = CARTESIAN_POINT ( 'NONE',  ( 0.000000000000000000, 2.000000000000000000, 0.000000000000000000 ) ) ;
#162 = AXIS2_PLACEMENT_3D ( 'NONE', #276, #31, #131 ) ;
#163 = COLOUR_RGB ( '',1.000000000000000000, 0.000000000000000000, 0.000000000000000000 ) ;
#164 = ORIENTED_EDGE ( 'NONE', *, *, #80, .T. ) ;
#165 = FACE_OUTER_BOUND ( 'NONE', #36, .T. ) ;
#166 = ADVANCED_FACE ( 'NONE', ( #277 ), #233, .T. ) ;
#167 = FILL_AREA_STYLE ('',( #115 ) ) ;
#168 = AXIS2_PLACEMENT_3D ( 'NONE', #30, #273, #154 ) ;
#169 = CARTESIAN_POINT ( 'NONE',  ( 0.000000000000000000, 0.000000000000000000, 0.000000000000000000 ) ) ;
#170 = CARTESIAN_POINT ( 'NONE',  ( 3.061616997868382155E-16, 4.500000000000000000, 0.000000000000000000 ) ) ;
#171 = ADVANCED_FACE ( 'NONE', ( #55 ), #7, .T. ) ;
#172 = CIRCLE ( 'NONE', #120, 0.6249999999999997780 ) ;
#173 = FILL_AREA_STYLE_COLOUR ( '', #132 ) ;
#174 = DIMENSIONAL_EXPONENTS ( 1.000000000000000000, 0.000000000000000000, 0.000000000000000000, 0.000000000000000000, 0.000000000000000000, 0.000000000000000000, 0.000000000000000000 ) ;
#175 =( CONVERSION_BASED_UNIT ( 'INCH', #9 ) LENGTH_UNIT ( ) NAMED_UNIT ( #105 ) );
#176 = EDGE_CURVE ( 'NONE', #86, #118, #298, .T. ) ;
#177 = STYLED_ITEM ( 'NONE', ( #253 ), #155 ) ;
#178 =( NAMED_UNIT ( * ) SI_UNIT ( $, .STERADIAN. ) SOLID_ANGLE_UNIT ( ) );
#179 = UNCERTAINTY_MEASURE_WITH_UNIT (LENGTH_MEASURE( 1.000000000000000082E-05 ), #175, 'distance_accuracy_value', 'NONE');
#180 = ADVANCED_FACE ( 'NONE', ( #10 ), #206, .T. ) ;
#181 =( NAMED_UNIT ( * ) SI_UNIT ( $, .STERADIAN. ) SOLID_ANGLE_UNIT ( ) );
#182 = PRESENTATION_LAYER_ASSIGNMENT (  '', '', ( #289 ) ) ;
#183 = AXIS2_PLACEMENT_3D ( 'NONE', #309, #217, #94 ) ;
#184 = APPLICATION_CONTEXT ( 'automotive_design' ) ;
#185 = CARTESIAN_POINT ( 'NONE',  ( 0.000000000000000000, 0.000000000000000000, -0.6250000000000000000 ) ) ;
#186 = VERTEX_POINT ( 'NONE', #81 ) ;
#187 = EDGE_LOOP ( 'NONE', ( #302, #261, #136, #265 ) ) ;
#188 =( CONVERSION_BASED_UNIT ( 'INCH', #96 ) LENGTH_UNIT ( ) NAMED_UNIT ( #153 ) );
#189 = CIRCLE ( 'NONE', #6, 0.6250000000000000000 ) ;
#190 = ORIENTED_EDGE ( 'NONE', *, *, #220, .F. ) ;
#191 = PRESENTATION_STYLE_ASSIGNMENT (( #307 ) ) ;
#192 = DIRECTION ( 'NONE',  ( -1.000000000000000000, 0.000000000000000000, 0.000000000000000000 ) ) ;
#193 = DIRECTION ( 'NONE',  ( 1.224646799147352961E-16, 1.000000000000000000, -0.000000000000000000 ) ) ;
#194 = STYLED_ITEM ( 'NONE', ( #64 ), #171 ) ;
#195 = DIRECTION ( 'NONE',  ( 0.000000000000000000, 0.000000000000000000, 1.000000000000000000 ) ) ;
#196 = CARTESIAN_POINT ( 'NONE',  ( -0.6249999999999996669, 4.500000000000000000, 0.000000000000000000 ) ) ;
#197 =( CONVERSION_BASED_UNIT ( 'INCH', #21 ) LENGTH_UNIT ( ) NAMED_UNIT ( #53 ) );
#198 = APPLICATION_PROTOCOL_DEFINITION ( 'draft international standard', 'automotive_design', 1998, #184 ) ;
#199 = VECTOR ( 'NONE', #204, 39.37007874015748143 ) ;
#200 = CIRCLE ( 'NONE', #121, 0.6250000000000000000 ) ;
#201 = LINE ( 'NONE', #29, #199 ) ;
#202 =( GEOMETRIC_REPRESENTATION_CONTEXT ( 3 ) GLOBAL_UNCERTAINTY_ASSIGNED_CONTEXT ( ( #99 ) ) GLOBAL_UNIT_ASSIGNED_CONTEXT ( ( #197, #288, #292 ) ) REPRESENTATION_CONTEXT ( 'NONE', 'WORKASPACE' ) );
#203 = SURFACE_STYLE_FILL_AREA ( #237 ) ;
#204 = DIRECTION ( 'NONE',  ( -0.000000000000000000, -1.000000000000000000, -0.000000000000000000 ) ) ;
#205 = CARTESIAN_POINT ( 'NONE',  ( 0.6250000000000000000, 4.500000000000000000, 0.000000000000000000 ) ) ;
#206 = CYLINDRICAL_SURFACE ( 'NONE', #284, 0.6249999999999998890 ) ;
#207 = UNCERTAINTY_MEASURE_WITH_UNIT (LENGTH_MEASURE( 1.000000000000000082E-05 ), #297, 'distance_accuracy_value', 'NONE');
#208 = EDGE_LOOP ( 'NONE', ( #263, #41 ) ) ;
#209 = COLOUR_RGB ( '',1.000000000000000000, 0.000000000000000000, 0.000000000000000000 ) ;
#210 = PLANE ( 'NONE',  #71 ) ;
#211 = CIRCLE ( 'NONE', #183, 0.6250000000000000000 ) ;
#212 = EDGE_CURVE ( 'NONE', #266, #213, #200, .T. ) ;
#213 = VERTEX_POINT ( 'NONE', #185 ) ;
#214 = ORIENTED_EDGE ( 'NONE', *, *, #74, .T. ) ;
#215 = PLANE ( 'NONE',  #225 ) ;
#216 = ORIENTED_EDGE ( 'NONE', *, *, #59, .F. ) ;
#217 = DIRECTION ( 'NONE',  ( -0.000000000000000000, -1.000000000000000000, -0.000000000000000000 ) ) ;
#218 = EDGE_LOOP ( 'NONE', ( #88, #239, #14, #90 ) ) ;
#219 = DIRECTION ( 'NONE',  ( -1.000000000000000000, 0.000000000000000000, 0.000000000000000000 ) ) ;
#220 = EDGE_CURVE ( 'NONE', #118, #86, #299, .T. ) ;
#221 = SURFACE_STYLE_FILL_AREA ( #269 ) ;
#222 =( CONVERSION_BASED_UNIT ( 'INCH', #143 ) LENGTH_UNIT ( ) NAMED_UNIT ( #274 ) );
#223 = DIRECTION ( 'NONE',  ( 1.224646799147352961E-16, 1.000000000000000000, -0.000000000000000000 ) ) ;
#224 =( GEOMETRIC_REPRESENTATION_CONTEXT ( 3 ) GLOBAL_UNCERTAINTY_ASSIGNED_CONTEXT ( ( #117 ) ) GLOBAL_UNIT_ASSIGNED_CONTEXT ( ( #222, #58, #56 ) ) REPRESENTATION_CONTEXT ( 'NONE', 'WORKASPACE' ) );
#225 = AXIS2_PLACEMENT_3D ( 'NONE', #161, #280, #42 ) ;
#226 = CARTESIAN_POINT ( 'NONE',  ( 0.000000000000000000, 2.000000000000000000, -0.6250000000000000000 ) ) ;
#227 = DIRECTION ( 'NONE',  ( 1.000000000000000000, 0.000000000000000000, 0.000000000000000000 ) ) ;
#228 = DIRECTION ( 'NONE',  ( -0.000000000000000000, -1.000000000000000000, -0.000000000000000000 ) ) ;
#229 = DIRECTION ( 'NONE',  ( 1.224646799147352961E-16, 1.000000000000000000, -0.000000000000000000 ) ) ;
#230 = DIMENSIONAL_EXPONENTS ( 1.000000000000000000, 0.000000000000000000, 0.000000000000000000, 0.000000000000000000, 0.000000000000000000, 0.000000000000000000, 0.000000000000000000 ) ;
#231 = CLOSED_SHELL ( 'NONE', ( #24, #264, #180, #140 ) ) ;
#232 = PRODUCT_DEFINITION_FORMATION_WITH_SPECIFIED_SOURCE ( 'ANY', '', #82, .NOT_KNOWN. ) ;
#233 = PLANE ( 'NONE',  #168 ) ;
#234 = DIRECTION ( 'NONE',  ( -0.000000000000000000, -1.000000000000000000, -0.000000000000000000 ) ) ;
#235 = DIRECTION ( 'NONE',  ( 1.224646799147352961E-16, 1.000000000000000000, -0.000000000000000000 ) ) ;
#236 = PRESENTATION_LAYER_ASSIGNMENT (  '', '', ( #147 ) ) ;
#237 = FILL_AREA_STYLE ('',( #156 ) ) ;
#238 = DIRECTION ( 'NONE',  ( -1.000000000000000000, 0.000000000000000000, 0.000000000000000000 ) ) ;
#239 = ORIENTED_EDGE ( 'NONE', *, *, #220, .T. ) ;
#240 = MECHANICAL_DESIGN_GEOMETRIC_PRESENTATION_REPRESENTATION (  '', ( #194 ), #224 ) ;
#241 = DIRECTION ( 'NONE',  ( -0.000000000000000000, -1.000000000000000000, -0.000000000000000000 ) ) ;
#242 = FACE_OUTER_BOUND ( 'NONE', #11, .T. ) ;
#243 = CARTESIAN_POINT ( 'NONE',  ( 3.061616997868382155E-16, 4.500000000000000000, 0.000000000000000000 ) ) ;
#244 = COLOUR_RGB ( '',1.000000000000000000, 0.000000000000000000, 0.000000000000000000 ) ;
#245 =( LENGTH_UNIT ( ) NAMED_UNIT ( * ) SI_UNIT ( $, .METRE. ) );
#246 = SURFACE_STYLE_USAGE ( .BOTH. , #5 ) ;
#247 = EDGE_CURVE ( 'NONE', #283, #110, #211, .T. ) ;
#248 = PRESENTATION_LAYER_ASSIGNMENT (  '', '', ( #177 ) ) ;
#249 = DIRECTION ( 'NONE',  ( 1.224646799147352961E-16, 1.000000000000000000, -0.000000000000000000 ) ) ;
#250 = SURFACE_SIDE_STYLE ('',( #221 ) ) ;
#251 = COLOUR_RGB ( '',1.000000000000000000, 0.000000000000000000, 0.000000000000000000 ) ;
#252 = DIRECTION ( 'NONE',  ( 0.000000000000000000, 0.000000000000000000, -1.000000000000000000 ) ) ;
#253 = PRESENTATION_STYLE_ASSIGNMENT (( #257 ) ) ;
#254 = DIRECTION ( 'NONE',  ( 1.000000000000000000, -1.224646799147352961E-16, 0.000000000000000000 ) ) ;
#255 = PRODUCT_RELATED_PRODUCT_CATEGORY ( 'part', '', ( #82 ) ) ;
#256 = MECHANICAL_DESIGN_GEOMETRIC_PRESENTATION_REPRESENTATION (  '', ( #43 ), #202 ) ;
#257 = SURFACE_STYLE_USAGE ( .BOTH. , #8 ) ;
#258 = CARTESIAN_POINT ( 'NONE',  ( 0.000000000000000000, 0.000000000000000000, 0.000000000000000000 ) ) ;
#259 =( NAMED_UNIT ( * ) SI_UNIT ( $, .STERADIAN. ) SOLID_ANGLE_UNIT ( ) );
#260 = COLOUR_RGB ( '',0.7921568627450980005, 0.8196078431372548767, 0.9333333333333333481 ) ;
#261 = ORIENTED_EDGE ( 'NONE', *, *, #247, .T. ) ;
#262 =( LENGTH_UNIT ( ) NAMED_UNIT ( * ) SI_UNIT ( $, .METRE. ) );
#263 = ORIENTED_EDGE ( 'NONE', *, *, #20, .T. ) ;
#264 = ADVANCED_FACE ( 'NONE', ( #165 ), #210, .F. ) ;
#265 = ORIENTED_EDGE ( 'NONE', *, *, #212, .F. ) ;
#266 = VERTEX_POINT ( 'NONE', #139 ) ;
#267 =( NAMED_UNIT ( * ) PLANE_ANGLE_UNIT ( ) SI_UNIT ( $, .RADIAN. ) );
#268 = AXIS2_PLACEMENT_3D ( 'NONE', #205, #272, #254 ) ;
#269 = FILL_AREA_STYLE ('',( #173 ) ) ;
#270 = AXIS2_PLACEMENT_3D ( 'NONE', #142, #241, #16 ) ;
#271 = SURFACE_STYLE_USAGE ( .BOTH. , #250 ) ;
#272 = DIRECTION ( 'NONE',  ( -1.224646799147352961E-16, -1.000000000000000000, 0.000000000000000000 ) ) ;
#273 = DIRECTION ( 'NONE',  ( 0.000000000000000000, -1.000000000000000000, -0.000000000000000000 ) ) ;
#274 = DIMENSIONAL_EXPONENTS ( 1.000000000000000000, 0.000000000000000000, 0.000000000000000000, 0.000000000000000000, 0.000000000000000000, 0.000000000000000000, 0.000000000000000000 ) ;
#275 = SURFACE_STYLE_FILL_AREA ( #52 ) ;
#276 = CARTESIAN_POINT ( 'NONE',  ( 0.000000000000000000, 0.000000000000000000, 0.000000000000000000 ) ) ;
#277 = FACE_OUTER_BOUND ( 'NONE', #208, .T. ) ;
#278 = ADVANCED_FACE ( 'NONE', ( #113 ), #215, .T. ) ;
#279 = CARTESIAN_POINT ( 'NONE',  ( 0.000000000000000000, 2.000000000000000000, 0.000000000000000000 ) ) ;
#280 = DIRECTION ( 'NONE',  ( 0.000000000000000000, 1.000000000000000000, 0.000000000000000000 ) ) ;
#281 = APPLICATION_CONTEXT ( 'automotive_design' ) ;
#282 = ORIENTED_EDGE ( 'NONE', *, *, #116, .F. ) ;
#283 = VERTEX_POINT ( 'NONE', #37 ) ;
#284 = AXIS2_PLACEMENT_3D ( 'NONE', #62, #235, #160 ) ;
#285 = EDGE_CURVE ( 'NONE', #44, #186, #133, .T. ) ;
#286 = DIRECTION ( 'NONE',  ( 1.224646799147352961E-16, 1.000000000000000000, -0.000000000000000000 ) ) ;
#287 = LENGTH_MEASURE_WITH_UNIT ( LENGTH_MEASURE( 0.02539999999999999897 ), #123 );
#288 =( NAMED_UNIT ( * ) PLANE_ANGLE_UNIT ( ) SI_UNIT ( $, .RADIAN. ) );
#289 = STYLED_ITEM ( 'NONE', ( #149 ), #48 ) ;
#290 =( GEOMETRIC_REPRESENTATION_CONTEXT ( 3 ) GLOBAL_UNCERTAINTY_ASSIGNED_CONTEXT ( ( #157 ) ) GLOBAL_UNIT_ASSIGNED_CONTEXT ( ( #305, #267, #12 ) ) REPRESENTATION_CONTEXT ( 'NONE', 'WORKASPACE' ) );
#291 = LINE ( 'NONE', #126, #50 ) ;
#292 =( NAMED_UNIT ( * ) SI_UNIT ( $, .STERADIAN. ) SOLID_ANGLE_UNIT ( ) );
#293 = SHAPE_DEFINITION_REPRESENTATION ( #84, #79 ) ;
#294 = DIRECTION ( 'NONE',  ( -0.000000000000000000, -1.000000000000000000, -0.000000000000000000 ) ) ;
#295 = PRESENTATION_LAYER_ASSIGNMENT (  '', '', ( #43 ) ) ;
#296 = SURFACE_STYLE_FILL_AREA ( #125 ) ;
#297 =( CONVERSION_BASED_UNIT ( 'INCH', #26 ) LENGTH_UNIT ( ) NAMED_UNIT ( #174 ) );
#298 = CIRCLE ( 'NONE', #22, 0.6250000000000000000 ) ;
#299 = CIRCLE ( 'NONE', #61, 0.6250000000000000000 ) ;
#300 =( LENGTH_UNIT ( ) NAMED_UNIT ( * ) SI_UNIT ( $, .METRE. ) );
#301 = DIRECTION ( 'NONE',  ( 1.224646799147352961E-16, 1.000000000000000000, -0.000000000000000000 ) ) ;
#302 = ORIENTED_EDGE ( 'NONE', *, *, #97, .F. ) ;
#303 = ORIENTED_EDGE ( 'NONE', *, *, #1, .T. ) ;
#304 = CARTESIAN_POINT ( 'NONE',  ( 4.686749320818303656E-33, 2.000000000000000000, 0.000000000000000000 ) ) ;
#305 =( CONVERSION_BASED_UNIT ( 'INCH', #287 ) LENGTH_UNIT ( ) NAMED_UNIT ( #230 ) );
#306 = ORIENTED_EDGE ( 'NONE', *, *, #20, .F. ) ;
#307 = SURFACE_STYLE_USAGE ( .BOTH. , #15 ) ;
#308 = CYLINDRICAL_SURFACE ( 'NONE', #92, 0.6249999999999998890 ) ;
#309 = CARTESIAN_POINT ( 'NONE',  ( 0.000000000000000000, 2.000000000000000000, 0.000000000000000000 ) ) ;
ENDSEC;
END-ISO-10303-21;
