ISO-10303-21;
HEADER;
FILE_DESCRIPTION (( 'STEP AP214' ),
    '1' );
FILE_NAME ('59733.STEP',
    '2023-07-24T15:55:12',
    ( '' ),
    ( '' ),
    'SwSTEP 2.0',
    'SolidWorks 2023',
    '' );
FILE_SCHEMA (( 'AUTOMOTIVE_DESIGN' ));
ENDSEC;

DATA;
#1 = ORIENTED_EDGE ( 'NONE', *, *, #88, .T. ) ;
#2 = DIRECTION ( 'NONE',  ( 6.774641867623654571E-17, 1.000000000000000000, -0.000000000000000000 ) ) ;
#3 = ORIENTED_EDGE ( 'NONE', *, *, #217, .T. ) ;
#4 = CIRCLE ( 'NONE', #249, 3.999999999999996447 ) ;
#5 = AXIS2_PLACEMENT_3D ( 'NONE', #61, #212, #255 ) ;
#6 = FACE_OUTER_BOUND ( 'NONE', #288, .T. ) ;
#7 = DIRECTION ( 'NONE',  ( 6.774641867623654571E-17, 1.000000000000000000, -0.000000000000000000 ) ) ;
#8 = EDGE_CURVE ( 'NONE', #90, #274, #15, .T. ) ;
#9 =( GEOMETRIC_REPRESENTATION_CONTEXT ( 3 ) GLOBAL_UNCERTAINTY_ASSIGNED_CONTEXT ( ( #215 ) ) GLOBAL_UNIT_ASSIGNED_CONTEXT ( ( #131, #225, #264 ) ) REPRESENTATION_CONTEXT ( 'NONE', 'WORKASPACE' ) );
#10 = DIRECTION ( 'NONE',  ( -0.000000000000000000, -1.000000000000000000, -0.000000000000000000 ) ) ;
#11 =( NAMED_UNIT ( * ) PLANE_ANGLE_UNIT ( ) SI_UNIT ( $, .RADIAN. ) );
#12 = ADVANCED_FACE ( 'NONE', ( #164 ), #13, .T. ) ;
#13 = PLANE ( 'NONE',  #190 ) ;
#14 = FILL_AREA_STYLE_COLOUR ( '', #96 ) ;
#15 = CIRCLE ( 'NONE', #55, 4.000000000000000000 ) ;
#16 = CIRCLE ( 'NONE', #116, 4.000000000000000000 ) ;
#17 = VECTOR ( 'NONE', #166, 1000.000000000000000 ) ;
#18 =( LENGTH_UNIT ( ) NAMED_UNIT ( * ) SI_UNIT ( .MILLI., .METRE. ) );
#19 = FACE_OUTER_BOUND ( 'NONE', #188, .T. ) ;
#20 = SURFACE_SIDE_STYLE ('',( #239 ) ) ;
#21 = ADVANCED_FACE ( 'NONE', ( #139 ), #189, .T. ) ;
#22 = CARTESIAN_POINT ( 'NONE',  ( 4.898587196589412829E-16, 0.000000000000000000, 4.000000000000000000 ) ) ;
#23 = AXIS2_PLACEMENT_3D ( 'NONE', #172, #259, #68 ) ;
#24 = FILL_AREA_STYLE ('',( #153 ) ) ;
#25 = MANIFOLD_SOLID_BREP ( 'Revolve - Tool Body (Straight Shanked)', #278 ) ;
#26 =( NAMED_UNIT ( * ) PLANE_ANGLE_UNIT ( ) SI_UNIT ( $, .RADIAN. ) );
#27 = CARTESIAN_POINT ( 'NONE',  ( 0.000000000000000000, 0.000000000000000000, 0.000000000000000000 ) ) ;
#28 = STYLED_ITEM ( 'NONE', ( #106 ), #39 ) ;
#29 = PRESENTATION_STYLE_ASSIGNMENT (( #114 ) ) ;
#30 = CARTESIAN_POINT ( 'NONE',  ( 0.000000000000000000, 16.00000000000000000, 0.000000000000000000 ) ) ;
#31 = PRODUCT_RELATED_PRODUCT_CATEGORY ( 'part', '', ( #132 ) ) ;
#32 = CARTESIAN_POINT ( 'NONE',  ( 3.184081677783117402E-15, 63.00000000000000000, 0.000000000000000000 ) ) ;
#33 = ORIENTED_EDGE ( 'NONE', *, *, #115, .F. ) ;
#34 = PRESENTATION_LAYER_ASSIGNMENT (  '', '', ( #28 ) ) ;
#35 = EDGE_LOOP ( 'NONE', ( #60, #1, #265, #69 ) ) ;
#36 = ORIENTED_EDGE ( 'NONE', *, *, #285, .F. ) ;
#37 = FILL_AREA_STYLE ('',( #251 ) ) ;
#38 = ORIENTED_EDGE ( 'NONE', *, *, #277, .T. ) ;
#39 = ADVANCED_FACE ( 'NONE', ( #240 ), #168, .T. ) ;
#40 = APPLICATION_PROTOCOL_DEFINITION ( 'draft international standard', 'automotive_design', 1998, #219 ) ;
#41 = SURFACE_STYLE_USAGE ( .BOTH. , #279 ) ;
#42 =( GEOMETRIC_REPRESENTATION_CONTEXT ( 3 ) GLOBAL_UNCERTAINTY_ASSIGNED_CONTEXT ( ( #47 ) ) GLOBAL_UNIT_ASSIGNED_CONTEXT ( ( #104, #26, #109 ) ) REPRESENTATION_CONTEXT ( 'NONE', 'WORKASPACE' ) );
#43 = DIRECTION ( 'NONE',  ( -0.000000000000000000, -1.000000000000000000, -0.000000000000000000 ) ) ;
#44 = MECHANICAL_DESIGN_GEOMETRIC_PRESENTATION_REPRESENTATION (  '', ( #135 ), #107 ) ;
#45 = DIRECTION ( 'NONE',  ( 0.000000000000000000, 0.000000000000000000, -1.000000000000000000 ) ) ;
#46 = ADVANCED_FACE ( 'NONE', ( #284 ), #174, .F. ) ;
#47 = UNCERTAINTY_MEASURE_WITH_UNIT (LENGTH_MEASURE( 1.000000000000000082E-05 ), #104, 'distance_accuracy_value', 'NONE');
#48 = ADVANCED_BREP_SHAPE_REPRESENTATION ( '59733', ( #213, #25, #5 ), #227 ) ;
#49 = SURFACE_STYLE_USAGE ( .BOTH. , #163 ) ;
#50 = CARTESIAN_POINT ( 'NONE',  ( -3.999999999999994671, 63.00000000000000000, 0.000000000000000000 ) ) ;
#51 = VECTOR ( 'NONE', #201, 1000.000000000000000 ) ;
#52 = CARTESIAN_POINT ( 'NONE',  ( 4.898587196589412829E-16, 0.000000000000000000, 4.000000000000000000 ) ) ;
#53 = ORIENTED_EDGE ( 'NONE', *, *, #165, .T. ) ;
#54 = CARTESIAN_POINT ( 'NONE',  ( 0.000000000000000000, 16.00000000000000000, -4.000000000000000000 ) ) ;
#55 = AXIS2_PLACEMENT_3D ( 'NONE', #185, #7, #94 ) ;
#56 = ORIENTED_EDGE ( 'NONE', *, *, #112, .F. ) ;
#57 = CARTESIAN_POINT ( 'NONE',  ( 4.000000000000001776, 63.00000000000000000, 4.898587196589410857E-16 ) ) ;
#58 = STYLED_ITEM ( 'NONE', ( #260 ), #25 ) ;
#59 = PRESENTATION_STYLE_ASSIGNMENT (( #253 ) ) ;
#60 = ORIENTED_EDGE ( 'NONE', *, *, #152, .F. ) ;
#61 = CARTESIAN_POINT ( 'NONE',  ( 0.000000000000000000, 0.000000000000000000, 0.000000000000000000 ) ) ;
#62 = CARTESIAN_POINT ( 'NONE',  ( 3.184081677783117402E-15, 63.00000000000000000, 0.000000000000000000 ) ) ;
#63 = CIRCLE ( 'NONE', #191, 4.000000000000000000 ) ;
#64 =( LENGTH_UNIT ( ) NAMED_UNIT ( * ) SI_UNIT ( .MILLI., .METRE. ) );
#65 = DIRECTION ( 'NONE',  ( 1.000000000000000000, -6.774641867623654571E-17, 0.000000000000000000 ) ) ;
#66 = APPLICATION_CONTEXT ( 'automotive_design' ) ;
#67 = LINE ( 'NONE', #72, #51 ) ;
#68 = DIRECTION ( 'NONE',  ( 0.000000000000000000, 0.000000000000000000, -1.000000000000000000 ) ) ;
#69 = ORIENTED_EDGE ( 'NONE', *, *, #217, .F. ) ;
#70 = MECHANICAL_DESIGN_GEOMETRIC_PRESENTATION_REPRESENTATION (  '', ( #126 ), #9 ) ;
#71 = CARTESIAN_POINT ( 'NONE',  ( -4.000000000000000000, 16.00000000000000000, 0.000000000000000000 ) ) ;
#72 = CARTESIAN_POINT ( 'NONE',  ( 0.000000000000000000, 0.000000000000000000, -4.000000000000000000 ) ) ;
#73 = VERTEX_POINT ( 'NONE', #210 ) ;
#74 = CIRCLE ( 'NONE', #134, 4.000000000000000000 ) ;
#75 = ORIENTED_EDGE ( 'NONE', *, *, #103, .T. ) ;
#76 = VERTEX_POINT ( 'NONE', #22 ) ;
#77 = SURFACE_STYLE_FILL_AREA ( #273 ) ;
#78 = UNCERTAINTY_MEASURE_WITH_UNIT (LENGTH_MEASURE( 1.000000000000000082E-05 ), #64, 'distance_accuracy_value', 'NONE');
#79 = ORIENTED_EDGE ( 'NONE', *, *, #88, .F. ) ;
#80 = PRESENTATION_LAYER_ASSIGNMENT (  '', '', ( #135 ) ) ;
#81 = ORIENTED_EDGE ( 'NONE', *, *, #103, .F. ) ;
#82 = ADVANCED_FACE ( 'NONE', ( #19 ), #257, .T. ) ;
#83 = MECHANICAL_DESIGN_GEOMETRIC_PRESENTATION_REPRESENTATION (  '', ( #28 ), #42 ) ;
#84 = UNCERTAINTY_MEASURE_WITH_UNIT (LENGTH_MEASURE( 1.000000000000000082E-05 ), #275, 'distance_accuracy_value', 'NONE');
#85 = DIRECTION ( 'NONE',  ( -1.000000000000000000, 0.000000000000000000, 0.000000000000000000 ) ) ;
#86 = EDGE_CURVE ( 'NONE', #224, #73, #4, .T. ) ;
#87 = AXIS2_PLACEMENT_3D ( 'NONE', #199, #211, #171 ) ;
#88 = EDGE_CURVE ( 'NONE', #160, #245, #93, .T. ) ;
#89 = CARTESIAN_POINT ( 'NONE',  ( -3.851859888774471706E-31, 16.00000000000000000, 0.000000000000000000 ) ) ;
#90 = VERTEX_POINT ( 'NONE', #71 ) ;
#91 = DIRECTION ( 'NONE',  ( 0.000000000000000000, 0.000000000000000000, -1.000000000000000000 ) ) ;
#92 = ORIENTED_EDGE ( 'NONE', *, *, #8, .T. ) ;
#93 = CIRCLE ( 'NONE', #23, 4.000000000000000000 ) ;
#94 = DIRECTION ( 'NONE',  ( -1.000000000000000000, 0.000000000000000000, 0.000000000000000000 ) ) ;
#95 =( GEOMETRIC_REPRESENTATION_CONTEXT ( 3 ) GLOBAL_UNCERTAINTY_ASSIGNED_CONTEXT ( ( #120 ) ) GLOBAL_UNIT_ASSIGNED_CONTEXT ( ( #123, #208, #182 ) ) REPRESENTATION_CONTEXT ( 'NONE', 'WORKASPACE' ) );
#96 = COLOUR_RGB ( '',1.000000000000000000, 0.000000000000000000, 0.000000000000000000 ) ;
#97 = SURFACE_STYLE_FILL_AREA ( #37 ) ;
#98 = ORIENTED_EDGE ( 'NONE', *, *, #277, .F. ) ;
#99 =( NAMED_UNIT ( * ) PLANE_ANGLE_UNIT ( ) SI_UNIT ( $, .RADIAN. ) );
#100 = CARTESIAN_POINT ( 'NONE',  ( 0.000000000000000000, 0.000000000000000000, 0.000000000000000000 ) ) ;
#101 = AXIS2_PLACEMENT_3D ( 'NONE', #154, #230, #244 ) ;
#102 = SURFACE_STYLE_FILL_AREA ( #234 ) ;
#103 = EDGE_CURVE ( 'NONE', #274, #90, #74, .T. ) ;
#104 =( LENGTH_UNIT ( ) NAMED_UNIT ( * ) SI_UNIT ( .MILLI., .METRE. ) );
#105 = COLOUR_RGB ( '',0.7921568627450980005, 0.8196078431372548767, 0.9333333333333333481 ) ;
#106 = PRESENTATION_STYLE_ASSIGNMENT (( #218 ) ) ;
#107 =( GEOMETRIC_REPRESENTATION_CONTEXT ( 3 ) GLOBAL_UNCERTAINTY_ASSIGNED_CONTEXT ( ( #118 ) ) GLOBAL_UNIT_ASSIGNED_CONTEXT ( ( #18, #99, #169 ) ) REPRESENTATION_CONTEXT ( 'NONE', 'WORKASPACE' ) );
#108 = PRODUCT_DEFINITION_CONTEXT ( 'detailed design', #66, 'design' ) ;
#109 =( NAMED_UNIT ( * ) SI_UNIT ( $, .STERADIAN. ) SOLID_ANGLE_UNIT ( ) );
#110 = DIRECTION ( 'NONE',  ( -1.000000000000000000, 0.000000000000000000, 0.000000000000000000 ) ) ;
#111 = COLOUR_RGB ( '',0.7921568627450980005, 0.8196078431372548767, 0.9333333333333333481 ) ;
#112 = EDGE_CURVE ( 'NONE', #245, #117, #67, .T. ) ;
#113 = ORIENTED_EDGE ( 'NONE', *, *, #165, .F. ) ;
#114 = SURFACE_STYLE_USAGE ( .BOTH. , #133 ) ;
#115 = EDGE_CURVE ( 'NONE', #73, #224, #226, .T. ) ;
#116 = AXIS2_PLACEMENT_3D ( 'NONE', #30, #158, #241 ) ;
#117 = VERTEX_POINT ( 'NONE', #155 ) ;
#118 = UNCERTAINTY_MEASURE_WITH_UNIT (LENGTH_MEASURE( 1.000000000000000082E-05 ), #18, 'distance_accuracy_value', 'NONE');
#119 =( GEOMETRIC_REPRESENTATION_CONTEXT ( 3 ) GLOBAL_UNCERTAINTY_ASSIGNED_CONTEXT ( ( #187 ) ) GLOBAL_UNIT_ASSIGNED_CONTEXT ( ( #229, #11, #146 ) ) REPRESENTATION_CONTEXT ( 'NONE', 'WORKASPACE' ) );
#120 = UNCERTAINTY_MEASURE_WITH_UNIT (LENGTH_MEASURE( 1.000000000000000082E-05 ), #123, 'distance_accuracy_value', 'NONE');
#121 = SURFACE_SIDE_STYLE ('',( #102 ) ) ;
#122 =( NAMED_UNIT ( * ) SI_UNIT ( $, .STERADIAN. ) SOLID_ANGLE_UNIT ( ) );
#123 =( LENGTH_UNIT ( ) NAMED_UNIT ( * ) SI_UNIT ( .MILLI., .METRE. ) );
#124 = DIRECTION ( 'NONE',  ( -0.000000000000000000, -1.000000000000000000, -0.000000000000000000 ) ) ;
#125 = EDGE_LOOP ( 'NONE', ( #209, #204, #36, #56 ) ) ;
#126 = STYLED_ITEM ( 'NONE', ( #29 ), #213 ) ;
#127 =( NAMED_UNIT ( * ) SI_UNIT ( $, .STERADIAN. ) SOLID_ANGLE_UNIT ( ) );
#128 = APPLICATION_PROTOCOL_DEFINITION ( 'draft international standard', 'automotive_design', 1998, #66 ) ;
#129 = SHAPE_DEFINITION_REPRESENTATION ( #159, #48 ) ;
#130 = STYLED_ITEM ( 'NONE', ( #141 ), #21 ) ;
#131 =( LENGTH_UNIT ( ) NAMED_UNIT ( * ) SI_UNIT ( .MILLI., .METRE. ) );
#132 = PRODUCT ( '59733', '59733', '', ( #194 ) ) ;
#133 = SURFACE_SIDE_STYLE ('',( #97 ) ) ;
#134 = AXIS2_PLACEMENT_3D ( 'NONE', #89, #175, #110 ) ;
#135 = STYLED_ITEM ( 'NONE', ( #220 ), #247 ) ;
#136 = LINE ( 'NONE', #50, #156 ) ;
#137 = EDGE_LOOP ( 'NONE', ( #269, #79 ) ) ;
#138 = LINE ( 'NONE', #52, #236 ) ;
#139 = FACE_OUTER_BOUND ( 'NONE', #35, .T. ) ;
#140 = DIRECTION ( 'NONE',  ( 6.774641867623654571E-17, 1.000000000000000000, -0.000000000000000000 ) ) ;
#141 = PRESENTATION_STYLE_ASSIGNMENT (( #41 ) ) ;
#142 = MECHANICAL_DESIGN_GEOMETRIC_PRESENTATION_REPRESENTATION (  '', ( #58 ), #266 ) ;
#143 = ADVANCED_FACE ( 'NONE', ( #200 ), #267, .T. ) ;
#144 = CARTESIAN_POINT ( 'NONE',  ( 0.000000000000000000, 0.000000000000000000, 0.000000000000000000 ) ) ;
#145 = ORIENTED_EDGE ( 'NONE', *, *, #115, .T. ) ;
#146 =( NAMED_UNIT ( * ) SI_UNIT ( $, .STERADIAN. ) SOLID_ANGLE_UNIT ( ) );
#147 = DIRECTION ( 'NONE',  ( -0.000000000000000000, -1.000000000000000000, -0.000000000000000000 ) ) ;
#148 = AXIS2_PLACEMENT_3D ( 'NONE', #272, #43, #205 ) ;
#149 = DIRECTION ( 'NONE',  ( 6.774641867623654571E-17, 1.000000000000000000, -0.000000000000000000 ) ) ;
#150 = DIRECTION ( 'NONE',  ( -1.000000000000000000, 0.000000000000000000, 0.000000000000000000 ) ) ;
#151 = SURFACE_STYLE_USAGE ( .BOTH. , #198 ) ;
#152 = EDGE_CURVE ( 'NONE', #160, #76, #138, .T. ) ;
#153 = FILL_AREA_STYLE_COLOUR ( '', #105 ) ;
#154 = CARTESIAN_POINT ( 'NONE',  ( 3.184081677783117402E-15, 63.00000000000000000, 0.000000000000000000 ) ) ;
#155 = CARTESIAN_POINT ( 'NONE',  ( 0.000000000000000000, 0.000000000000000000, -4.000000000000000000 ) ) ;
#156 = VECTOR ( 'NONE', #222, 1000.000000000000000 ) ;
#157 = DIRECTION ( 'NONE',  ( -1.000000000000000000, 6.774641867623654571E-17, 0.000000000000000000 ) ) ;
#158 = DIRECTION ( 'NONE',  ( -0.000000000000000000, -1.000000000000000000, -0.000000000000000000 ) ) ;
#159 = PRODUCT_DEFINITION_SHAPE ( 'NONE', 'NONE',  #203 ) ;
#160 = VERTEX_POINT ( 'NONE', #176 ) ;
#161 = EDGE_CURVE ( 'NONE', #245, #160, #16, .T. ) ;
#162 = FILL_AREA_STYLE ('',( #271 ) ) ;
#163 = SURFACE_SIDE_STYLE ('',( #77 ) ) ;
#164 = FACE_OUTER_BOUND ( 'NONE', #202, .T. ) ;
#165 = EDGE_CURVE ( 'NONE', #90, #73, #136, .T. ) ;
#166 = DIRECTION ( 'NONE',  ( 6.774641867623654571E-17, 1.000000000000000000, -0.000000000000000000 ) ) ;
#167 = AXIS2_PLACEMENT_3D ( 'NONE', #144, #147, #45 ) ;
#168 = PLANE ( 'NONE',  #87 ) ;
#169 =( NAMED_UNIT ( * ) SI_UNIT ( $, .STERADIAN. ) SOLID_ANGLE_UNIT ( ) );
#170 = COLOUR_RGB ( '',1.000000000000000000, 0.000000000000000000, 0.000000000000000000 ) ;
#171 = DIRECTION ( 'NONE',  ( 0.000000000000000000, -0.000000000000000000, 1.000000000000000000 ) ) ;
#172 = CARTESIAN_POINT ( 'NONE',  ( 0.000000000000000000, 16.00000000000000000, 0.000000000000000000 ) ) ;
#173 = AXIS2_PLACEMENT_3D ( 'NONE', #223, #140, #157 ) ;
#174 = PLANE ( 'NONE',  #281 ) ;
#175 = DIRECTION ( 'NONE',  ( 6.774641867623654571E-17, 1.000000000000000000, -0.000000000000000000 ) ) ;
#176 = CARTESIAN_POINT ( 'NONE',  ( 4.898587196589412829E-16, 16.00000000000000000, 4.000000000000000000 ) ) ;
#177 = FACE_OUTER_BOUND ( 'NONE', #125, .T. ) ;
#178 = ADVANCED_FACE ( 'NONE', ( #6 ), #246, .F. ) ;
#179 = ORIENTED_EDGE ( 'NONE', *, *, #86, .T. ) ;
#180 = CARTESIAN_POINT ( 'NONE',  ( 4.000000000000000000, 63.00000000000000000, 4.898587196589411843E-16 ) ) ;
#181 = ORIENTED_EDGE ( 'NONE', *, *, #8, .F. ) ;
#182 =( NAMED_UNIT ( * ) SI_UNIT ( $, .STERADIAN. ) SOLID_ANGLE_UNIT ( ) );
#183 = PRESENTATION_LAYER_ASSIGNMENT (  '', '', ( #130 ) ) ;
#184 = COLOUR_RGB ( '',1.000000000000000000, 0.000000000000000000, 0.000000000000000000 ) ;
#185 = CARTESIAN_POINT ( 'NONE',  ( -3.851859888774471706E-31, 16.00000000000000000, 0.000000000000000000 ) ) ;
#186 = CYLINDRICAL_SURFACE ( 'NONE', #167, 4.000000000000000000 ) ;
#187 = UNCERTAINTY_MEASURE_WITH_UNIT (LENGTH_MEASURE( 1.000000000000000082E-05 ), #229, 'distance_accuracy_value', 'NONE');
#188 = EDGE_LOOP ( 'NONE', ( #98, #75, #53, #231 ) ) ;
#189 = CYLINDRICAL_SURFACE ( 'NONE', #148, 4.000000000000000000 ) ;
#190 = AXIS2_PLACEMENT_3D ( 'NONE', #100, #206, #256 ) ;
#191 = AXIS2_PLACEMENT_3D ( 'NONE', #280, #124, #192 ) ;
#192 = DIRECTION ( 'NONE',  ( 0.000000000000000000, 0.000000000000000000, -1.000000000000000000 ) ) ;
#193 = FILL_AREA_STYLE ('',( #238 ) ) ;
#194 = PRODUCT_CONTEXT ( 'NONE', #219, 'mechanical' ) ;
#195 = CARTESIAN_POINT ( 'NONE',  ( 4.000000000000000000, 63.00000000000000000, 0.000000000000000000 ) ) ;
#196 = AXIS2_PLACEMENT_3D ( 'NONE', #27, #10, #91 ) ;
#197 = CARTESIAN_POINT ( 'NONE',  ( 3.184081677783117402E-15, 63.00000000000000000, 0.000000000000000000 ) ) ;
#198 = SURFACE_SIDE_STYLE ('',( #262 ) ) ;
#199 = CARTESIAN_POINT ( 'NONE',  ( 0.000000000000000000, 16.00000000000000000, 0.000000000000000000 ) ) ;
#200 = FACE_OUTER_BOUND ( 'NONE', #250, .T. ) ;
#201 = DIRECTION ( 'NONE',  ( -0.000000000000000000, -1.000000000000000000, -0.000000000000000000 ) ) ;
#202 = EDGE_LOOP ( 'NONE', ( #228, #3 ) ) ;
#203 = PRODUCT_DEFINITION ( 'UNKNOWN', '', #237, #108 ) ;
#204 = ORIENTED_EDGE ( 'NONE', *, *, #152, .T. ) ;
#205 = DIRECTION ( 'NONE',  ( 0.000000000000000000, 0.000000000000000000, -1.000000000000000000 ) ) ;
#206 = DIRECTION ( 'NONE',  ( 0.000000000000000000, -1.000000000000000000, -0.000000000000000000 ) ) ;
#207 = CIRCLE ( 'NONE', #196, 4.000000000000000000 ) ;
#208 =( NAMED_UNIT ( * ) PLANE_ANGLE_UNIT ( ) SI_UNIT ( $, .RADIAN. ) );
#209 = ORIENTED_EDGE ( 'NONE', *, *, #161, .T. ) ;
#210 = CARTESIAN_POINT ( 'NONE',  ( -3.999999999999993339, 63.00000000000000000, 0.000000000000000000 ) ) ;
#211 = DIRECTION ( 'NONE',  ( 0.000000000000000000, 1.000000000000000000, 0.000000000000000000 ) ) ;
#212 = DIRECTION ( 'NONE',  ( 0.000000000000000000, 0.000000000000000000, 1.000000000000000000 ) ) ;
#213 = MANIFOLD_SOLID_BREP ( 'Revolve - Cutting Edge', #243 ) ;
#214 = DIRECTION ( 'NONE',  ( -6.774641867623654571E-17, -1.000000000000000000, 0.000000000000000000 ) ) ;
#215 = UNCERTAINTY_MEASURE_WITH_UNIT (LENGTH_MEASURE( 1.000000000000000082E-05 ), #131, 'distance_accuracy_value', 'NONE');
#216 = AXIS2_PLACEMENT_3D ( 'NONE', #62, #149, #150 ) ;
#217 = EDGE_CURVE ( 'NONE', #76, #117, #207, .T. ) ;
#218 = SURFACE_STYLE_USAGE ( .BOTH. , #20 ) ;
#219 = APPLICATION_CONTEXT ( 'automotive_design' ) ;
#220 = PRESENTATION_STYLE_ASSIGNMENT (( #49 ) ) ;
#221 = PRESENTATION_LAYER_ASSIGNMENT (  '', '', ( #126 ) ) ;
#222 = DIRECTION ( 'NONE',  ( 6.774641867623654571E-17, 1.000000000000000000, -0.000000000000000000 ) ) ;
#223 = CARTESIAN_POINT ( 'NONE',  ( 9.179154486911863099E-33, 16.00000000000000000, 0.000000000000000000 ) ) ;
#224 = VERTEX_POINT ( 'NONE', #180 ) ;
#225 =( NAMED_UNIT ( * ) PLANE_ANGLE_UNIT ( ) SI_UNIT ( $, .RADIAN. ) );
#226 = CIRCLE ( 'NONE', #101, 3.999999999999996447 ) ;
#227 =( GEOMETRIC_REPRESENTATION_CONTEXT ( 3 ) GLOBAL_UNCERTAINTY_ASSIGNED_CONTEXT ( ( #84 ) ) GLOBAL_UNIT_ASSIGNED_CONTEXT ( ( #275, #233, #122 ) ) REPRESENTATION_CONTEXT ( 'NONE', 'WORKASPACE' ) );
#228 = ORIENTED_EDGE ( 'NONE', *, *, #285, .T. ) ;
#229 =( LENGTH_UNIT ( ) NAMED_UNIT ( * ) SI_UNIT ( .MILLI., .METRE. ) );
#230 = DIRECTION ( 'NONE',  ( 6.774641867623654571E-17, 1.000000000000000000, -0.000000000000000000 ) ) ;
#231 = ORIENTED_EDGE ( 'NONE', *, *, #86, .F. ) ;
#232 = COLOUR_RGB ( '',1.000000000000000000, 0.000000000000000000, 0.000000000000000000 ) ;
#233 =( NAMED_UNIT ( * ) PLANE_ANGLE_UNIT ( ) SI_UNIT ( $, .RADIAN. ) );
#234 = FILL_AREA_STYLE ('',( #14 ) ) ;
#235 = LINE ( 'NONE', #57, #17 ) ;
#236 = VECTOR ( 'NONE', #287, 1000.000000000000000 ) ;
#237 = PRODUCT_DEFINITION_FORMATION_WITH_SPECIFIED_SOURCE ( 'ANY', '', #132, .NOT_KNOWN. ) ;
#238 = FILL_AREA_STYLE_COLOUR ( '', #232 ) ;
#239 = SURFACE_STYLE_FILL_AREA ( #193 ) ;
#240 = FACE_OUTER_BOUND ( 'NONE', #137, .T. ) ;
#241 = DIRECTION ( 'NONE',  ( 0.000000000000000000, 0.000000000000000000, -1.000000000000000000 ) ) ;
#242 = PRESENTATION_LAYER_ASSIGNMENT (  '', '', ( #58 ) ) ;
#243 = CLOSED_SHELL ( 'NONE', ( #247, #39, #21, #12 ) ) ;
#244 = DIRECTION ( 'NONE',  ( -1.000000000000000000, 0.000000000000000000, 0.000000000000000000 ) ) ;
#245 = VERTEX_POINT ( 'NONE', #54 ) ;
#246 = PLANE ( 'NONE',  #173 ) ;
#247 = ADVANCED_FACE ( 'NONE', ( #177 ), #186, .T. ) ;
#248 = MECHANICAL_DESIGN_GEOMETRIC_PRESENTATION_REPRESENTATION (  '', ( #130 ), #119 ) ;
#249 = AXIS2_PLACEMENT_3D ( 'NONE', #197, #282, #85 ) ;
#250 = EDGE_LOOP ( 'NONE', ( #92, #38, #33, #113 ) ) ;
#251 = FILL_AREA_STYLE_COLOUR ( '', #111 ) ;
#252 = EDGE_LOOP ( 'NONE', ( #145, #179 ) ) ;
#253 = SURFACE_STYLE_USAGE ( .BOTH. , #121 ) ;
#254 = PRESENTATION_LAYER_ASSIGNMENT (  '', '', ( #286 ) ) ;
#255 = DIRECTION ( 'NONE',  ( 1.000000000000000000, 0.000000000000000000, 0.000000000000000000 ) ) ;
#256 = DIRECTION ( 'NONE',  ( 0.000000000000000000, 0.000000000000000000, -1.000000000000000000 ) ) ;
#257 = CYLINDRICAL_SURFACE ( 'NONE', #216, 3.999999999999998224 ) ;
#258 = CARTESIAN_POINT ( 'NONE',  ( 4.000000000000000000, 16.00000000000000000, 4.898587196589411843E-16 ) ) ;
#259 = DIRECTION ( 'NONE',  ( -0.000000000000000000, -1.000000000000000000, -0.000000000000000000 ) ) ;
#260 = PRESENTATION_STYLE_ASSIGNMENT (( #151 ) ) ;
#261 = AXIS2_PLACEMENT_3D ( 'NONE', #32, #2, #263 ) ;
#262 = SURFACE_STYLE_FILL_AREA ( #24 ) ;
#263 = DIRECTION ( 'NONE',  ( -1.000000000000000000, 0.000000000000000000, 0.000000000000000000 ) ) ;
#264 =( NAMED_UNIT ( * ) SI_UNIT ( $, .STERADIAN. ) SOLID_ANGLE_UNIT ( ) );
#265 = ORIENTED_EDGE ( 'NONE', *, *, #112, .T. ) ;
#266 =( GEOMETRIC_REPRESENTATION_CONTEXT ( 3 ) GLOBAL_UNCERTAINTY_ASSIGNED_CONTEXT ( ( #78 ) ) GLOBAL_UNIT_ASSIGNED_CONTEXT ( ( #64, #283, #127 ) ) REPRESENTATION_CONTEXT ( 'NONE', 'WORKASPACE' ) );
#267 = CYLINDRICAL_SURFACE ( 'NONE', #261, 3.999999999999998224 ) ;
#268 = FILL_AREA_STYLE_COLOUR ( '', #184 ) ;
#269 = ORIENTED_EDGE ( 'NONE', *, *, #161, .F. ) ;
#270 = MECHANICAL_DESIGN_GEOMETRIC_PRESENTATION_REPRESENTATION (  '', ( #286 ), #95 ) ;
#271 = FILL_AREA_STYLE_COLOUR ( '', #170 ) ;
#272 = CARTESIAN_POINT ( 'NONE',  ( 0.000000000000000000, 0.000000000000000000, 0.000000000000000000 ) ) ;
#273 = FILL_AREA_STYLE ('',( #268 ) ) ;
#274 = VERTEX_POINT ( 'NONE', #258 ) ;
#275 =( LENGTH_UNIT ( ) NAMED_UNIT ( * ) SI_UNIT ( .MILLI., .METRE. ) );
#276 = SURFACE_STYLE_FILL_AREA ( #162 ) ;
#277 = EDGE_CURVE ( 'NONE', #274, #224, #235, .T. ) ;
#278 = CLOSED_SHELL ( 'NONE', ( #143, #178, #82, #46 ) ) ;
#279 = SURFACE_SIDE_STYLE ('',( #276 ) ) ;
#280 = CARTESIAN_POINT ( 'NONE',  ( 0.000000000000000000, 0.000000000000000000, 0.000000000000000000 ) ) ;
#281 = AXIS2_PLACEMENT_3D ( 'NONE', #195, #214, #65 ) ;
#282 = DIRECTION ( 'NONE',  ( 6.774641867623654571E-17, 1.000000000000000000, -0.000000000000000000 ) ) ;
#283 =( NAMED_UNIT ( * ) PLANE_ANGLE_UNIT ( ) SI_UNIT ( $, .RADIAN. ) );
#284 = FACE_OUTER_BOUND ( 'NONE', #252, .T. ) ;
#285 = EDGE_CURVE ( 'NONE', #117, #76, #63, .T. ) ;
#286 = STYLED_ITEM ( 'NONE', ( #59 ), #12 ) ;
#287 = DIRECTION ( 'NONE',  ( -0.000000000000000000, -1.000000000000000000, -0.000000000000000000 ) ) ;
#288 = EDGE_LOOP ( 'NONE', ( #181, #81 ) ) ;
ENDSEC;
END-ISO-10303-21;
