ISO-10303-21;
HEADER;
FILE_DESCRIPTION (( 'STEP AP214' ),
    '1' );
FILE_NAME ('Micro_RDC-60.STEP',
    '2021-08-31T17:01:07',
    ( '' ),
    ( '' ),
    'SwSTEP 2.0',
    'SolidWorks 2020',
    '' );
FILE_SCHEMA (( 'AUTOMOTIVE_DESIGN' ));
ENDSEC;

DATA;
#1 = DIRECTION ( 'NONE',  ( -0.0000000000000000000, -0.0000000000000000000, -1.000000000000000000 ) ) ;
#2 = DIRECTION ( 'NONE',  ( 0.0000000000000000000, 0.0000000000000000000, -1.000000000000000000 ) ) ;
#3 = DIRECTION ( 'NONE',  ( -1.000000000000000000, 0.0000000000000000000, 0.0000000000000000000 ) ) ;
#4 = DIRECTION ( 'NONE',  ( -1.224646799147353207E-16, -0.0000000000000000000, -1.000000000000000000 ) ) ;
#5 = CARTESIAN_POINT ( 'NONE',  ( 0.0000000000000000000, 0.0000000000000000000, 2.000000000000000000 ) ) ;
#6 = CIRCLE ( 'NONE', #219, 0.1248749999999999999 ) ;
#7 = FACE_OUTER_BOUND ( 'NONE', #141, .T. ) ;
#8 = CARTESIAN_POINT ( 'NONE',  ( 0.0000000000000000000, 0.0000000000000000000, 0.0000000000000000000 ) ) ;
#9 =( LENGTH_UNIT ( ) NAMED_UNIT ( * ) SI_UNIT ( $, .METRE. ) );
#10 = PRESENTATION_LAYER_ASSIGNMENT (  '', '', ( #78 ) ) ;
#11 = DIRECTION ( 'NONE',  ( -1.224646799147353207E-16, -0.0000000000000000000, -1.000000000000000000 ) ) ;
#12 = CARTESIAN_POINT ( 'NONE',  ( 0.0000000000000000000, 0.0000000000000000000, 1.984999999999999432 ) ) ;
#13 = EDGE_LOOP ( 'NONE', ( #273, #63, #76, #45 ) ) ;
#14 = APPLICATION_PROTOCOL_DEFINITION ( 'draft international standard', 'automotive_design', 1998, #280 ) ;
#15 = EDGE_LOOP ( 'NONE', ( #155, #254, #297, #86 ) ) ;
#16 = ORIENTED_EDGE ( 'NONE', *, *, #258, .T. ) ;
#17 = ORIENTED_EDGE ( 'NONE', *, *, #28, .F. ) ;
#18 = VERTEX_POINT ( 'NONE', #64 ) ;
#19 = DIRECTION ( 'NONE',  ( 1.000000000000000000, 0.0000000000000000000, 0.0000000000000000000 ) ) ;
#20 = DIRECTION ( 'NONE',  ( 1.000000000000000000, 0.0000000000000000000, -0.0000000000000000000 ) ) ;
#21 = FILL_AREA_STYLE ('',( #239 ) ) ;
#22 = VECTOR ( 'NONE', #88, 39.37007874015748143 ) ;
#23 = CARTESIAN_POINT ( 'NONE',  ( -0.1248749999999999999, 0.0000000000000000000, 1.529277690435257475E-17 ) ) ;
#24 = DIRECTION ( 'NONE',  ( -1.224646799147353207E-16, -0.0000000000000000000, -1.000000000000000000 ) ) ;
#25 = ADVANCED_FACE ( 'NONE', ( #111 ), #226, .T. ) ;
#26 = CARTESIAN_POINT ( 'NONE',  ( 0.1248749999999999999, 1.529277690435257475E-17, -1.529277690435257475E-17 ) ) ;
#27 = DIRECTION ( 'NONE',  ( 0.0000000000000000000, 0.0000000000000000000, -1.000000000000000000 ) ) ;
#28 = EDGE_CURVE ( 'NONE', #40, #229, #159, .T. ) ;
#29 = DIRECTION ( 'NONE',  ( -1.000000000000000000, 0.0000000000000000000, 1.224646799147353454E-16 ) ) ;
#30 = AXIS2_PLACEMENT_3D ( 'NONE', #161, #1, #235 ) ;
#31 = AXIS2_PLACEMENT_3D ( 'NONE', #8, #296, #84 ) ;
#32 = PRODUCT_RELATED_PRODUCT_CATEGORY ( 'part', '', ( #82 ) ) ;
#33 = UNCERTAINTY_MEASURE_WITH_UNIT (LENGTH_MEASURE( 1.000000000000000082E-05 ), #131, 'distance_accuracy_value', 'NONE');
#34 = AXIS2_PLACEMENT_3D ( 'NONE', #146, #241, #147 ) ;
#35 = SURFACE_STYLE_USAGE ( .BOTH. , #242 ) ;
#36 = DIRECTION ( 'NONE',  ( -0.0000000000000000000, -0.0000000000000000000, -1.000000000000000000 ) ) ;
#37 = VERTEX_POINT ( 'NONE', #292 ) ;
#38 = EDGE_LOOP ( 'NONE', ( #215, #139, #255, #295 ) ) ;
#39 = PRODUCT_DEFINITION_FORMATION_WITH_SPECIFIED_SOURCE ( 'ANY', '', #82, .NOT_KNOWN. ) ;
#40 = VERTEX_POINT ( 'NONE', #112 ) ;
#41 = EDGE_CURVE ( 'NONE', #225, #221, #177, .T. ) ;
#42 = VERTEX_POINT ( 'NONE', #199 ) ;
#43 = ORIENTED_EDGE ( 'NONE', *, *, #91, .F. ) ;
#44 = CIRCLE ( 'NONE', #250, 0.1248749999999999999 ) ;
#45 = ORIENTED_EDGE ( 'NONE', *, *, #67, .F. ) ;
#46 =( LENGTH_UNIT ( ) NAMED_UNIT ( * ) SI_UNIT ( $, .METRE. ) );
#47 = DIRECTION ( 'NONE',  ( -1.000000000000000000, 0.0000000000000000000, 0.0000000000000000000 ) ) ;
#48 = DIRECTION ( 'NONE',  ( -1.224646799147353207E-16, -0.0000000000000000000, -1.000000000000000000 ) ) ;
#49 =( NAMED_UNIT ( * ) PLANE_ANGLE_UNIT ( ) SI_UNIT ( $, .RADIAN. ) );
#50 = DIRECTION ( 'NONE',  ( 0.7071067811865434649, 8.659560562354883554E-17, -0.7071067811865515695 ) ) ;
#51 = CARTESIAN_POINT ( 'NONE',  ( 0.1248750000000000970, 0.0000000000000000000, 0.7500000000000001110 ) ) ;
#52 = DIRECTION ( 'NONE',  ( -1.224646799147353207E-16, -0.0000000000000000000, -1.000000000000000000 ) ) ;
#53 = CARTESIAN_POINT ( 'NONE',  ( 0.0000000000000000000, 0.0000000000000000000, 2.000000000000000000 ) ) ;
#54 = PRESENTATION_STYLE_ASSIGNMENT (( #35 ) ) ;
#55 = COLOUR_RGB ( '',0.7921568627450980005, 0.8196078431372548767, 0.9333333333333333481 ) ;
#56 =( CONVERSION_BASED_UNIT ( 'INCH', #149 ) LENGTH_UNIT ( ) NAMED_UNIT ( #133 ) );
#57 = ADVANCED_FACE ( 'NONE', ( #85 ), #178, .T. ) ;
#58 = AXIS2_PLACEMENT_3D ( 'NONE', #260, #231, #129 ) ;
#59 = ORIENTED_EDGE ( 'NONE', *, *, #222, .F. ) ;
#60 = ADVANCED_FACE ( 'NONE', ( #94 ), #188, .T. ) ;
#61 = ORIENTED_EDGE ( 'NONE', *, *, #265, .F. ) ;
#62 = ORIENTED_EDGE ( 'NONE', *, *, #168, .T. ) ;
#63 = ORIENTED_EDGE ( 'NONE', *, *, #81, .T. ) ;
#64 = CARTESIAN_POINT ( 'NONE',  ( -0.1249999999999999167, 0.0000000000000000000, 0.7507089102274522308 ) ) ;
#65 = AXIS2_PLACEMENT_3D ( 'NONE', #12, #106, #98 ) ;
#66 = DIRECTION ( 'NONE',  ( 0.0000000000000000000, 0.0000000000000000000, 1.000000000000000000 ) ) ;
#67 = EDGE_CURVE ( 'NONE', #37, #272, #290, .T. ) ;
#68 = DIRECTION ( 'NONE',  ( 0.0000000000000000000, 0.0000000000000000000, -1.000000000000000000 ) ) ;
#69 = LENGTH_MEASURE_WITH_UNIT ( LENGTH_MEASURE( 0.02539999999999999897 ), #46 );
#70 = FACE_OUTER_BOUND ( 'NONE', #151, .T. ) ;
#71 = AXIS2_PLACEMENT_3D ( 'NONE', #279, #27, #261 ) ;
#72 = DIRECTION ( 'NONE',  ( -1.000000000000000000, 0.0000000000000000000, 0.0000000000000000000 ) ) ;
#73 = DIRECTION ( 'NONE',  ( -1.224646799147353207E-16, -0.0000000000000000000, -1.000000000000000000 ) ) ;
#74 = ADVANCED_FACE ( 'NONE', ( #144 ), #256, .T. ) ;
#75 = FILL_AREA_STYLE_COLOUR ( '', #55 ) ;
#76 = ORIENTED_EDGE ( 'NONE', *, *, #222, .T. ) ;
#77 = AXIS2_PLACEMENT_3D ( 'NONE', #53, #262, #3 ) ;
#78 = STYLED_ITEM ( 'NONE', ( #54 ), #173 ) ;
#79 = ORIENTED_EDGE ( 'NONE', *, *, #121, .F. ) ;
#80 = AXIS2_PLACEMENT_3D ( 'NONE', #123, #68, #47 ) ;
#81 = EDGE_CURVE ( 'NONE', #299, #245, #6, .T. ) ;
#82 = PRODUCT ( 'Micro_RDC-60', 'Micro_RDC-60', '', ( #251 ) ) ;
#83 = ORIENTED_EDGE ( 'NONE', *, *, #107, .T. ) ;
#84 = DIRECTION ( 'NONE',  ( 1.000000000000000000, 0.0000000000000000000, 0.0000000000000000000 ) ) ;
#85 = FACE_OUTER_BOUND ( 'NONE', #247, .T. ) ;
#86 = ORIENTED_EDGE ( 'NONE', *, *, #293, .F. ) ;
#87 = ORIENTED_EDGE ( 'NONE', *, *, #298, .T. ) ;
#88 = DIRECTION ( 'NONE',  ( -0.7071067811865434649, 0.0000000000000000000, -0.7071067811865515695 ) ) ;
#89 = CIRCLE ( 'NONE', #195, 0.1250000000000000000 ) ;
#90 = CARTESIAN_POINT ( 'NONE',  ( 0.0000000000000000000, 0.0000000000000000000, 0.0000000000000000000 ) ) ;
#91 = EDGE_CURVE ( 'NONE', #40, #42, #153, .T. ) ;
#92 = DIRECTION ( 'NONE',  ( -1.224646799147353207E-16, -0.0000000000000000000, -1.000000000000000000 ) ) ;
#93 = SURFACE_STYLE_FILL_AREA ( #21 ) ;
#94 = FACE_OUTER_BOUND ( 'NONE', #38, .T. ) ;
#95 = CARTESIAN_POINT ( 'NONE',  ( 0.1250000000000000000, 1.530808498934191509E-17, 1.984999999999999432 ) ) ;
#96 = DIRECTION ( 'NONE',  ( 0.0000000000000000000, 0.0000000000000000000, 1.000000000000000000 ) ) ;
#97 = VECTOR ( 'NONE', #50, 39.37007874015748143 ) ;
#98 = DIRECTION ( 'NONE',  ( 1.000000000000000000, 0.0000000000000000000, 0.0000000000000000000 ) ) ;
#99 = CARTESIAN_POINT ( 'NONE',  ( 0.0000000000000000000, 0.0000000000000000000, 2.000000000000000000 ) ) ;
#100 = DIRECTION ( 'NONE',  ( 1.000000000000000000, 0.0000000000000000000, 0.0000000000000000000 ) ) ;
#101 = MANIFOLD_SOLID_BREP ( 'Cut-Revolve1', #190 ) ;
#102 = ORIENTED_EDGE ( 'NONE', *, *, #282, .F. ) ;
#103 = SURFACE_STYLE_FILL_AREA ( #218 ) ;
#104 = VECTOR ( 'NONE', #223, 39.37007874015748143 ) ;
#105 =( NAMED_UNIT ( * ) PLANE_ANGLE_UNIT ( ) SI_UNIT ( $, .RADIAN. ) );
#106 = DIRECTION ( 'NONE',  ( 0.0000000000000000000, 0.0000000000000000000, -1.000000000000000000 ) ) ;
#107 = EDGE_CURVE ( 'NONE', #299, #37, #281, .T. ) ;
#108 = ORIENTED_EDGE ( 'NONE', *, *, #237, .T. ) ;
#109 = ADVANCED_FACE ( 'NONE', ( #70 ), #142, .F. ) ;
#110 = CONICAL_SURFACE ( 'NONE', #80, 0.1099999999999996397, 0.7853981633974426169 ) ;
#111 = FACE_OUTER_BOUND ( 'NONE', #157, .T. ) ;
#112 = CARTESIAN_POINT ( 'NONE',  ( -0.1099999999999996397, 0.0000000000000000000, 2.000000000000000000 ) ) ;
#113 = EDGE_LOOP ( 'NONE', ( #61, #43, #181, #102 ) ) ;
#114 = ADVANCED_FACE ( 'NONE', ( #120 ), #283, .T. ) ;
#115 = ORIENTED_EDGE ( 'NONE', *, *, #91, .T. ) ;
#116 = UNCERTAINTY_MEASURE_WITH_UNIT (LENGTH_MEASURE( 1.000000000000000082E-05 ), #56, 'distance_accuracy_value', 'NONE');
#117 = ORIENTED_EDGE ( 'NONE', *, *, #289, .T. ) ;
#118 = DIRECTION ( 'NONE',  ( -1.224646799147353207E-16, -0.0000000000000000000, -1.000000000000000000 ) ) ;
#119 = CARTESIAN_POINT ( 'NONE',  ( 0.0000000000000000000, 0.0000000000000000000, 2.000000000000000000 ) ) ;
#120 = FACE_OUTER_BOUND ( 'NONE', #150, .T. ) ;
#121 = EDGE_CURVE ( 'NONE', #299, #221, #125, .T. ) ;
#122 = COLOUR_RGB ( '',0.7921568627450980005, 0.8196078431372548767, 0.9333333333333333481 ) ;
#123 = CARTESIAN_POINT ( 'NONE',  ( 0.0000000000000000000, 0.0000000000000000000, 2.000000000000000000 ) ) ;
#124 = AXIS2_PLACEMENT_3D ( 'NONE', #167, #66, #20 ) ;
#125 = LINE ( 'NONE', #51, #184 ) ;
#126 = DIRECTION ( 'NONE',  ( -0.1736481776669312749, 2.126576849575784241E-17, 0.9848077530122077983 ) ) ;
#127 = DIRECTION ( 'NONE',  ( 0.0000000000000000000, 0.0000000000000000000, 1.000000000000000000 ) ) ;
#128 = LINE ( 'NONE', #277, #132 ) ;
#129 = DIRECTION ( 'NONE',  ( 1.000000000000000000, 0.0000000000000000000, 0.0000000000000000000 ) ) ;
#130 = DIRECTION ( 'NONE',  ( -1.000000000000000000, 0.0000000000000000000, 1.224646799147353454E-16 ) ) ;
#131 =( CONVERSION_BASED_UNIT ( 'INCH', #69 ) LENGTH_UNIT ( ) NAMED_UNIT ( #200 ) );
#132 = VECTOR ( 'NONE', #126, 39.37007874015748143 ) ;
#133 = DIMENSIONAL_EXPONENTS ( 1.000000000000000000, 0.0000000000000000000, 0.0000000000000000000, 0.0000000000000000000, 0.0000000000000000000, 0.0000000000000000000, 0.0000000000000000000 ) ;
#134 = CARTESIAN_POINT ( 'NONE',  ( 9.184850993605150903E-17, 0.0000000000000000000, 0.7500000000000001110 ) ) ;
#135 = AXIS2_PLACEMENT_3D ( 'NONE', #170, #192, #204 ) ;
#136 = AXIS2_PLACEMENT_3D ( 'NONE', #288, #11, #171 ) ;
#137 = ORIENTED_EDGE ( 'NONE', *, *, #271, .T. ) ;
#138 = ORIENTED_EDGE ( 'NONE', *, *, #246, .F. ) ;
#139 = ORIENTED_EDGE ( 'NONE', *, *, #282, .T. ) ;
#140 = CIRCLE ( 'NONE', #71, 0.1250000000000000000 ) ;
#141 = EDGE_LOOP ( 'NONE', ( #270, #183, #138, #17 ) ) ;
#142 = PLANE ( 'NONE',  #124 ) ;
#143 = FACE_OUTER_BOUND ( 'NONE', #13, .T. ) ;
#144 = FACE_OUTER_BOUND ( 'NONE', #15, .T. ) ;
#145 = DIRECTION ( 'NONE',  ( 1.000000000000000000, 0.0000000000000000000, 0.0000000000000000000 ) ) ;
#146 = CARTESIAN_POINT ( 'NONE',  ( 0.0000000000000000000, 0.0000000000000000000, 2.000000000000000000 ) ) ;
#147 = DIRECTION ( 'NONE',  ( 1.000000000000000000, 0.0000000000000000000, 0.0000000000000000000 ) ) ;
#148 = AXIS2_PLACEMENT_3D ( 'NONE', #119, #2, #257 ) ;
#149 = LENGTH_MEASURE_WITH_UNIT ( LENGTH_MEASURE( 0.02539999999999999897 ), #196 );
#150 = EDGE_LOOP ( 'NONE', ( #202, #274, #252, #137 ) ) ;
#151 = EDGE_LOOP ( 'NONE', ( #117, #180 ) ) ;
#152 = EDGE_LOOP ( 'NONE', ( #115, #87 ) ) ;
#153 = CIRCLE ( 'NONE', #248, 0.1099999999999996397 ) ;
#154 = CIRCLE ( 'NONE', #65, 0.1250000000000000000 ) ;
#155 = ORIENTED_EDGE ( 'NONE', *, *, #246, .T. ) ;
#156 = ADVANCED_FACE ( 'NONE', ( #236 ), #211, .T. ) ;
#157 = EDGE_LOOP ( 'NONE', ( #294, #16, #62, #79 ) ) ;
#158 = APPLICATION_CONTEXT ( 'automotive_design' ) ;
#159 = LINE ( 'NONE', #198, #22 ) ;
#160 = CONICAL_SURFACE ( 'NONE', #148, 0.1099999999999996397, 0.7853981633974426169 ) ;
#161 = CARTESIAN_POINT ( 'NONE',  ( 0.0000000000000000000, 0.0000000000000000000, 2.000000000000000000 ) ) ;
#162 = PRODUCT_DEFINITION_CONTEXT ( 'detailed design', #280, 'design' ) ;
#163 = SURFACE_SIDE_STYLE ('',( #93 ) ) ;
#164 =( NAMED_UNIT ( * ) SI_UNIT ( $, .STERADIAN. ) SOLID_ANGLE_UNIT ( ) );
#165 = AXIS2_PLACEMENT_3D ( 'NONE', #90, #73, #29 ) ;
#166 = CARTESIAN_POINT ( 'NONE',  ( 0.1099999999999996397, 1.347111479062084158E-17, 2.000000000000000000 ) ) ;
#167 = CARTESIAN_POINT ( 'NONE',  ( 0.0000000000000000000, 0.0000000000000000000, 0.0000000000000000000 ) ) ;
#168 = EDGE_CURVE ( 'NONE', #18, #221, #89, .T. ) ;
#169 = DIRECTION ( 'NONE',  ( 1.000000000000000000, 0.0000000000000000000, 0.0000000000000000000 ) ) ;
#170 = CARTESIAN_POINT ( 'NONE',  ( 1.872825028598994811E-33, 0.0000000000000000000, 1.529277690435257475E-17 ) ) ;
#171 = DIRECTION ( 'NONE',  ( -1.000000000000000000, 0.0000000000000000000, 1.224646799147353454E-16 ) ) ;
#172 = CARTESIAN_POINT ( 'NONE',  ( -0.1248749999999999999, 0.0000000000000000000, 3.058555380870514950E-17 ) ) ;
#173 = ADVANCED_BREP_SHAPE_REPRESENTATION ( 'Micro_RDC-60', ( #101, #31 ), #259 ) ;
#174 = CARTESIAN_POINT ( 'NONE',  ( 0.1248750000000000970, 0.0000000000000000000, 0.7500000000000001110 ) ) ;
#175 =( NAMED_UNIT ( * ) PLANE_ANGLE_UNIT ( ) SI_UNIT ( $, .RADIAN. ) );
#176 = STYLED_ITEM ( 'NONE', ( #278 ), #101 ) ;
#177 = LINE ( 'NONE', #249, #104 ) ;
#178 = CYLINDRICAL_SURFACE ( 'NONE', #165, 0.1248749999999999999 ) ;
#179 = AXIS2_PLACEMENT_3D ( 'NONE', #191, #52, #130 ) ;
#180 = ORIENTED_EDGE ( 'NONE', *, *, #67, .T. ) ;
#181 = ORIENTED_EDGE ( 'NONE', *, *, #28, .T. ) ;
#182 = PRODUCT_DEFINITION ( 'UNKNOWN', '', #39, #162 ) ;
#183 = ORIENTED_EDGE ( 'NONE', *, *, #265, .T. ) ;
#184 = VECTOR ( 'NONE', #206, 39.37007874015748143 ) ;
#185 = LINE ( 'NONE', #23, #228 ) ;
#186 = CARTESIAN_POINT ( 'NONE',  ( 9.184850993605150903E-17, 0.0000000000000000000, 0.7500000000000001110 ) ) ;
#187 = CARTESIAN_POINT ( 'NONE',  ( -0.1248749999999999166, 1.530043094684724646E-17, 0.7500000000000001110 ) ) ;
#188 = CYLINDRICAL_SURFACE ( 'NONE', #30, 0.1250000000000000000 ) ;
#189 = CARTESIAN_POINT ( 'NONE',  ( -0.1250000000000000000, 0.0000000000000000000, 1.984999999999999432 ) ) ;
#190 = CLOSED_SHELL ( 'NONE', ( #57, #25, #210, #74, #60, #156, #230, #114, #267, #109 ) ) ;
#191 = CARTESIAN_POINT ( 'NONE',  ( 0.0000000000000000000, 0.0000000000000000000, 0.0000000000000000000 ) ) ;
#192 = DIRECTION ( 'NONE',  ( -1.224646799147353207E-16, -0.0000000000000000000, -1.000000000000000000 ) ) ;
#193 =( NAMED_UNIT ( * ) SI_UNIT ( $, .STERADIAN. ) SOLID_ANGLE_UNIT ( ) );
#194 = LINE ( 'NONE', #287, #213 ) ;
#195 = AXIS2_PLACEMENT_3D ( 'NONE', #216, #118, #169 ) ;
#196 =( LENGTH_UNIT ( ) NAMED_UNIT ( * ) SI_UNIT ( $, .METRE. ) );
#197 = CIRCLE ( 'NONE', #34, 0.1099999999999996397 ) ;
#198 = CARTESIAN_POINT ( 'NONE',  ( -0.1099999999999996397, 0.0000000000000000000, 2.000000000000000000 ) ) ;
#199 = CARTESIAN_POINT ( 'NONE',  ( 0.1099999999999996397, 1.438959988998137757E-17, 2.000000000000000000 ) ) ;
#200 = DIMENSIONAL_EXPONENTS ( 1.000000000000000000, 0.0000000000000000000, 0.0000000000000000000, 0.0000000000000000000, 0.0000000000000000000, 0.0000000000000000000, 0.0000000000000000000 ) ;
#201 = ORIENTED_EDGE ( 'NONE', *, *, #289, .F. ) ;
#202 = ORIENTED_EDGE ( 'NONE', *, *, #258, .F. ) ;
#203 = CARTESIAN_POINT ( 'NONE',  ( 0.1250000000000000833, 1.530808498934192433E-17, 0.7507089102274522308 ) ) ;
#204 = DIRECTION ( 'NONE',  ( -1.000000000000000000, 0.0000000000000000000, 1.224646799147353454E-16 ) ) ;
#205 = AXIS2_PLACEMENT_3D ( 'NONE', #5, #96, #284 ) ;
#206 = DIRECTION ( 'NONE',  ( 0.1736481776669314969, 0.0000000000000000000, 0.9848077530122077983 ) ) ;
#207 = LINE ( 'NONE', #166, #97 ) ;
#208 = SURFACE_STYLE_USAGE ( .BOTH. , #163 ) ;
#209 = CYLINDRICAL_SURFACE ( 'NONE', #179, 0.1248749999999999999 ) ;
#210 = ADVANCED_FACE ( 'NONE', ( #7 ), #160, .T. ) ;
#211 = PLANE ( 'NONE',  #205 ) ;
#212 =( GEOMETRIC_REPRESENTATION_CONTEXT ( 3 ) GLOBAL_UNCERTAINTY_ASSIGNED_CONTEXT ( ( #33 ) ) GLOBAL_UNIT_ASSIGNED_CONTEXT ( ( #131, #49, #164 ) ) REPRESENTATION_CONTEXT ( 'NONE', 'WORKASPACE' ) );
#213 = VECTOR ( 'NONE', #36, 39.37007874015748143 ) ;
#214 = DIRECTION ( 'NONE',  ( -1.224646799147353207E-16, -0.0000000000000000000, -1.000000000000000000 ) ) ;
#215 = ORIENTED_EDGE ( 'NONE', *, *, #41, .F. ) ;
#216 = CARTESIAN_POINT ( 'NONE',  ( 9.193532640014472135E-17, 0.0000000000000000000, 0.7507089102274522308 ) ) ;
#217 = UNCERTAINTY_MEASURE_WITH_UNIT (LENGTH_MEASURE( 1.000000000000000082E-05 ), #266, 'distance_accuracy_value', 'NONE');
#218 = FILL_AREA_STYLE ('',( #75 ) ) ;
#219 = AXIS2_PLACEMENT_3D ( 'NONE', #186, #24, #276 ) ;
#220 = APPLICATION_PROTOCOL_DEFINITION ( 'draft international standard', 'automotive_design', 1998, #158 ) ;
#221 = VERTEX_POINT ( 'NONE', #203 ) ;
#222 = EDGE_CURVE ( 'NONE', #245, #272, #185, .T. ) ;
#223 = DIRECTION ( 'NONE',  ( -0.0000000000000000000, -0.0000000000000000000, -1.000000000000000000 ) ) ;
#224 = DIRECTION ( 'NONE',  ( 1.224646799147353207E-16, 0.0000000000000000000, 1.000000000000000000 ) ) ;
#225 = VERTEX_POINT ( 'NONE', #95 ) ;
#226 = CONICAL_SURFACE ( 'NONE', #232, 0.1248749999999999999, 0.1745329251994340025 ) ;
#227 = DIMENSIONAL_EXPONENTS ( 1.000000000000000000, 0.0000000000000000000, 0.0000000000000000000, 0.0000000000000000000, 0.0000000000000000000, 0.0000000000000000000, 0.0000000000000000000 ) ;
#228 = VECTOR ( 'NONE', #4, 39.37007874015748143 ) ;
#229 = VERTEX_POINT ( 'NONE', #189 ) ;
#230 = ADVANCED_FACE ( 'NONE', ( #234 ), #110, .T. ) ;
#231 = DIRECTION ( 'NONE',  ( 1.224646799147353207E-16, 0.0000000000000000000, 1.000000000000000000 ) ) ;
#232 = AXIS2_PLACEMENT_3D ( 'NONE', #134, #224, #19 ) ;
#233 =( GEOMETRIC_REPRESENTATION_CONTEXT ( 3 ) GLOBAL_UNCERTAINTY_ASSIGNED_CONTEXT ( ( #116 ) ) GLOBAL_UNIT_ASSIGNED_CONTEXT ( ( #56, #175, #268 ) ) REPRESENTATION_CONTEXT ( 'NONE', 'WORKASPACE' ) );
#234 = FACE_OUTER_BOUND ( 'NONE', #113, .T. ) ;
#235 = DIRECTION ( 'NONE',  ( -1.000000000000000000, 0.0000000000000000000, 0.0000000000000000000 ) ) ;
#236 = FACE_OUTER_BOUND ( 'NONE', #152, .T. ) ;
#237 = EDGE_CURVE ( 'NONE', #245, #299, #44, .T. ) ;
#238 = CARTESIAN_POINT ( 'NONE',  ( 9.193532640014472135E-17, 0.0000000000000000000, 0.7507089102274522308 ) ) ;
#239 = FILL_AREA_STYLE_COLOUR ( '', #122 ) ;
#240 = VECTOR ( 'NONE', #48, 39.37007874015748143 ) ;
#241 = DIRECTION ( 'NONE',  ( 0.0000000000000000000, 0.0000000000000000000, 1.000000000000000000 ) ) ;
#242 = SURFACE_SIDE_STYLE ('',( #103 ) ) ;
#243 = PRESENTATION_LAYER_ASSIGNMENT (  '', '', ( #176 ) ) ;
#244 = CIRCLE ( 'NONE', #291, 0.1250000000000000000 ) ;
#245 = VERTEX_POINT ( 'NONE', #187 ) ;
#246 = EDGE_CURVE ( 'NONE', #229, #225, #140, .T. ) ;
#247 = EDGE_LOOP ( 'NONE', ( #108, #83, #201, #59 ) ) ;
#248 = AXIS2_PLACEMENT_3D ( 'NONE', #99, #127, #145 ) ;
#249 = CARTESIAN_POINT ( 'NONE',  ( 0.1250000000000000000, 1.530808498934191509E-17, 2.000000000000000000 ) ) ;
#250 = AXIS2_PLACEMENT_3D ( 'NONE', #275, #92, #72 ) ;
#251 = PRODUCT_CONTEXT ( 'NONE', #158, 'mechanical' ) ;
#252 = ORIENTED_EDGE ( 'NONE', *, *, #121, .T. ) ;
#253 = PRODUCT_DEFINITION_SHAPE ( 'NONE', 'NONE',  #182 ) ;
#254 = ORIENTED_EDGE ( 'NONE', *, *, #41, .T. ) ;
#255 = ORIENTED_EDGE ( 'NONE', *, *, #293, .T. ) ;
#256 = CYLINDRICAL_SURFACE ( 'NONE', #77, 0.1250000000000000000 ) ;
#257 = DIRECTION ( 'NONE',  ( -1.000000000000000000, 0.0000000000000000000, 0.0000000000000000000 ) ) ;
#258 = EDGE_CURVE ( 'NONE', #245, #18, #128, .T. ) ;
#259 =( GEOMETRIC_REPRESENTATION_CONTEXT ( 3 ) GLOBAL_UNCERTAINTY_ASSIGNED_CONTEXT ( ( #217 ) ) GLOBAL_UNIT_ASSIGNED_CONTEXT ( ( #266, #105, #193 ) ) REPRESENTATION_CONTEXT ( 'NONE', 'WORKASPACE' ) );
#260 = CARTESIAN_POINT ( 'NONE',  ( 9.184850993605150903E-17, 0.0000000000000000000, 0.7500000000000001110 ) ) ;
#261 = DIRECTION ( 'NONE',  ( 1.000000000000000000, 0.0000000000000000000, 0.0000000000000000000 ) ) ;
#262 = DIRECTION ( 'NONE',  ( -0.0000000000000000000, -0.0000000000000000000, -1.000000000000000000 ) ) ;
#263 = LENGTH_MEASURE_WITH_UNIT ( LENGTH_MEASURE( 0.02539999999999999897 ), #9 );
#264 = CIRCLE ( 'NONE', #136, 0.1248749999999999999 ) ;
#265 = EDGE_CURVE ( 'NONE', #42, #225, #207, .T. ) ;
#266 =( CONVERSION_BASED_UNIT ( 'INCH', #263 ) LENGTH_UNIT ( ) NAMED_UNIT ( #227 ) );
#267 = ADVANCED_FACE ( 'NONE', ( #143 ), #209, .T. ) ;
#268 =( NAMED_UNIT ( * ) SI_UNIT ( $, .STERADIAN. ) SOLID_ANGLE_UNIT ( ) );
#269 = SHAPE_DEFINITION_REPRESENTATION ( #253, #173 ) ;
#270 = ORIENTED_EDGE ( 'NONE', *, *, #298, .F. ) ;
#271 = EDGE_CURVE ( 'NONE', #221, #18, #244, .T. ) ;
#272 = VERTEX_POINT ( 'NONE', #172 ) ;
#273 = ORIENTED_EDGE ( 'NONE', *, *, #107, .F. ) ;
#274 = ORIENTED_EDGE ( 'NONE', *, *, #81, .F. ) ;
#275 = CARTESIAN_POINT ( 'NONE',  ( 9.184850993605150903E-17, 0.0000000000000000000, 0.7500000000000001110 ) ) ;
#276 = DIRECTION ( 'NONE',  ( -1.000000000000000000, 0.0000000000000000000, 0.0000000000000000000 ) ) ;
#277 = CARTESIAN_POINT ( 'NONE',  ( -0.1248749999999999166, 1.529277690435257475E-17, 0.7500000000000001110 ) ) ;
#278 = PRESENTATION_STYLE_ASSIGNMENT (( #208 ) ) ;
#279 = CARTESIAN_POINT ( 'NONE',  ( 0.0000000000000000000, 0.0000000000000000000, 1.984999999999999432 ) ) ;
#280 = APPLICATION_CONTEXT ( 'automotive_design' ) ;
#281 = LINE ( 'NONE', #26, #240 ) ;
#282 = EDGE_CURVE ( 'NONE', #225, #229, #154, .T. ) ;
#283 = CONICAL_SURFACE ( 'NONE', #58, 0.1248749999999999999, 0.1745329251994340025 ) ;
#284 = DIRECTION ( 'NONE',  ( 1.000000000000000000, 0.0000000000000000000, -0.0000000000000000000 ) ) ;
#285 = MECHANICAL_DESIGN_GEOMETRIC_PRESENTATION_REPRESENTATION (  '', ( #176 ), #212 ) ;
#286 = MECHANICAL_DESIGN_GEOMETRIC_PRESENTATION_REPRESENTATION (  '', ( #78 ), #233 ) ;
#287 = CARTESIAN_POINT ( 'NONE',  ( -0.1250000000000000000, 0.0000000000000000000, 2.000000000000000000 ) ) ;
#288 = CARTESIAN_POINT ( 'NONE',  ( 1.872825028598994811E-33, 0.0000000000000000000, 1.529277690435257475E-17 ) ) ;
#289 = EDGE_CURVE ( 'NONE', #272, #37, #264, .T. ) ;
#290 = CIRCLE ( 'NONE', #135, 0.1248749999999999999 ) ;
#291 = AXIS2_PLACEMENT_3D ( 'NONE', #238, #214, #100 ) ;
#292 = CARTESIAN_POINT ( 'NONE',  ( 0.1248749999999999999, 1.529277690435257475E-17, 0.0000000000000000000 ) ) ;
#293 = EDGE_CURVE ( 'NONE', #229, #18, #194, .T. ) ;
#294 = ORIENTED_EDGE ( 'NONE', *, *, #237, .F. ) ;
#295 = ORIENTED_EDGE ( 'NONE', *, *, #271, .F. ) ;
#296 = DIRECTION ( 'NONE',  ( 0.0000000000000000000, 0.0000000000000000000, 1.000000000000000000 ) ) ;
#297 = ORIENTED_EDGE ( 'NONE', *, *, #168, .F. ) ;
#298 = EDGE_CURVE ( 'NONE', #42, #40, #197, .T. ) ;
#299 = VERTEX_POINT ( 'NONE', #174 ) ;
ENDSEC;
END-ISO-10303-21;
