ISO-10303-21;
HEADER;
FILE_DESCRIPTION (( 'STEP AP214' ),
    '1' );
FILE_NAME ('Micro_BEMM-100-2.STEP',
    '2021-09-03T13:31:25',
    ( '' ),
    ( '' ),
    'SwSTEP 2.0',
    'SolidWorks 2020',
    '' );
FILE_SCHEMA (( 'AUTOMOTIVE_DESIGN' ));
ENDSEC;

DATA;
#1 = CARTESIAN_POINT ( 'NONE',  ( 1.206728250503578783E-16, 0.0000000000000000000, 0.9853683946618323475 ) ) ;
#2 = DIRECTION ( 'NONE',  ( -1.000000000000000000, 0.0000000000000000000, 0.0000000000000000000 ) ) ;
#3 = PRESENTATION_STYLE_ASSIGNMENT (( #277 ) ) ;
#4 = EDGE_CURVE ( 'NONE', #232, #190, #62, .T. ) ;
#5 = DIRECTION ( 'NONE',  ( 1.000000000000000000, 0.0000000000000000000, 0.0000000000000000000 ) ) ;
#6 = DIRECTION ( 'NONE',  ( 1.224646799147353207E-16, 1.000000000000000000, -0.0000000000000000000 ) ) ;
#7 = CARTESIAN_POINT ( 'NONE',  ( 1.205361061354380629E-16, 0.0000000000000000000, 0.9842519999999999047 ) ) ;
#8 = ADVANCED_FACE ( 'NONE', ( #93 ), #149, .T. ) ;
#9 = CONICAL_SURFACE ( 'NONE', #65, 0.1818505000000002481, 0.7853981633974312926 ) ;
#10 = CARTESIAN_POINT ( 'NONE',  ( 0.0000000000000000000, 0.0000000000000000000, 0.0000000000000000000 ) ) ;
#11 = ORIENTED_EDGE ( 'NONE', *, *, #17, .T. ) ;
#12 = ORIENTED_EDGE ( 'NONE', *, *, #299, .T. ) ;
#13 = ADVANCED_BREP_SHAPE_REPRESENTATION ( 'Micro_BEMM-100-2', ( #109, #264 ), #97 ) ;
#14 = ADVANCED_FACE ( 'NONE', ( #19 ), #237, .T. ) ;
#15 = DIRECTION ( 'NONE',  ( -1.224646799147353207E-16, -0.0000000000000000000, -1.000000000000000000 ) ) ;
#16 = ORIENTED_EDGE ( 'NONE', *, *, #316, .T. ) ;
#17 = EDGE_CURVE ( 'NONE', #33, #232, #288, .T. ) ;
#18 = DIRECTION ( 'NONE',  ( 0.0000000000000000000, 0.0000000000000000000, -1.000000000000000000 ) ) ;
#19 = FACE_OUTER_BOUND ( 'NONE', #205, .T. ) ;
#20 = AXIS2_PLACEMENT_3D ( 'NONE', #197, #324, #100 ) ;
#21 = DIRECTION ( 'NONE',  ( 0.0000000000000000000, 0.0000000000000000000, -1.000000000000000000 ) ) ;
#22 = DIRECTION ( 'NONE',  ( 1.000000000000000000, 0.0000000000000000000, 0.0000000000000000000 ) ) ;
#23 = PRODUCT ( 'Micro_BEMM-100-2', 'Micro_BEMM-100-2', '', ( #212 ) ) ;
#24 = ORIENTED_EDGE ( 'NONE', *, *, #32, .T. ) ;
#25 = CIRCLE ( 'NONE', #285, 0.1966536495000000273 ) ;
#26 = CARTESIAN_POINT ( 'NONE',  ( 2.408312624008205170E-17, 0.0000000000000000000, 0.1966536494999999996 ) ) ;
#27 = DIRECTION ( 'NONE',  ( 0.7071067811865354713, 8.659560562354783714E-17, -0.7071067811865594521 ) ) ;
#28 =( LENGTH_UNIT ( ) NAMED_UNIT ( * ) SI_UNIT ( $, .METRE. ) );
#29 = FILL_AREA_STYLE_COLOUR ( '', #214 ) ;
#30 = AXIS2_PLACEMENT_3D ( 'NONE', #48, #165, #147 ) ;
#31 = CARTESIAN_POINT ( 'NONE',  ( 3.612468936012307139E-17, 0.0000000000000000000, 0.0000000000000000000 ) ) ;
#32 = EDGE_CURVE ( 'NONE', #162, #187, #78, .T. ) ;
#33 = VERTEX_POINT ( 'NONE', #244 ) ;
#34 = SURFACE_STYLE_USAGE ( .BOTH. , #201 ) ;
#35 = ADVANCED_FACE ( 'NONE', ( #42 ), #191, .T. ) ;
#36 = LENGTH_MEASURE_WITH_UNIT ( LENGTH_MEASURE( 0.02539999999999999897 ), #128 );
#37 = ORIENTED_EDGE ( 'NONE', *, *, #139, .T. ) ;
#38 = ORIENTED_EDGE ( 'NONE', *, *, #144, .T. ) ;
#39 = ORIENTED_EDGE ( 'NONE', *, *, #57, .T. ) ;
#40 = AXIS2_PLACEMENT_3D ( 'NONE', #43, #319, #119 ) ;
#41 = CARTESIAN_POINT ( 'NONE',  ( 2.408312624008205170E-17, 0.0000000000000000000, 0.1966536494999999996 ) ) ;
#42 = FACE_OUTER_BOUND ( 'NONE', #136, .T. ) ;
#43 = CARTESIAN_POINT ( 'NONE',  ( 1.206728250503578783E-16, 0.0000000000000000000, 0.9853683946618323475 ) ) ;
#44 = ADVANCED_FACE ( 'NONE', ( #217 ), #321, .T. ) ;
#45 = AXIS2_PLACEMENT_3D ( 'NONE', #68, #170, #22 ) ;
#46 = ORIENTED_EDGE ( 'NONE', *, *, #297, .T. ) ;
#47 = EDGE_CURVE ( 'NONE', #140, #160, #102, .T. ) ;
#48 = CARTESIAN_POINT ( 'NONE',  ( 0.0000000000000000000, 0.0000000000000000000, 2.834646000000000665 ) ) ;
#49 = LENGTH_MEASURE_WITH_UNIT ( LENGTH_MEASURE( 0.02539999999999999897 ), #28 );
#50 = VECTOR ( 'NONE', #176, 39.37007874015748143 ) ;
#51 = DIRECTION ( 'NONE',  ( -1.224646799147353207E-16, -0.0000000000000000000, -1.000000000000000000 ) ) ;
#52 = LINE ( 'NONE', #194, #195 ) ;
#53 =( NAMED_UNIT ( * ) PLANE_ANGLE_UNIT ( ) SI_UNIT ( $, .RADIAN. ) );
#54 = ORIENTED_EDGE ( 'NONE', *, *, #183, .T. ) ;
#55 = FACE_OUTER_BOUND ( 'NONE', #323, .T. ) ;
#56 = VERTEX_POINT ( 'NONE', #213 ) ;
#57 = EDGE_CURVE ( 'NONE', #160, #106, #25, .T. ) ;
#58 = DIRECTION ( 'NONE',  ( -0.0000000000000000000, -0.0000000000000000000, -1.000000000000000000 ) ) ;
#59 = AXIS2_PLACEMENT_3D ( 'NONE', #210, #142, #143 ) ;
#60 = DIRECTION ( 'NONE',  ( -0.0000000000000000000, -0.0000000000000000000, -1.000000000000000000 ) ) ;
#61 = ORIENTED_EDGE ( 'NONE', *, *, #297, .F. ) ;
#62 = CIRCLE ( 'NONE', #40, 0.1968504999999999838 ) ;
#63 = DIRECTION ( 'NONE',  ( 1.000000000000000000, 0.0000000000000000000, 0.0000000000000000000 ) ) ;
#64 = ADVANCED_FACE ( 'NONE', ( #292 ), #9, .T. ) ;
#65 = AXIS2_PLACEMENT_3D ( 'NONE', #315, #21, #88 ) ;
#66 = EDGE_LOOP ( 'NONE', ( #182, #16, #103, #180 ) ) ;
#67 = DIRECTION ( 'NONE',  ( -0.0000000000000000000, -0.0000000000000000000, -1.000000000000000000 ) ) ;
#68 = CARTESIAN_POINT ( 'NONE',  ( 0.0000000000000000000, 0.0000000000000000000, 2.834646000000000665 ) ) ;
#69 = AXIS2_PLACEMENT_3D ( 'NONE', #70, #272, #265 ) ;
#70 = CARTESIAN_POINT ( 'NONE',  ( 2.408312624008205170E-17, 0.0000000000000000000, 0.1966536494999999996 ) ) ;
#71 = LINE ( 'NONE', #124, #50 ) ;
#72 = EDGE_CURVE ( 'NONE', #187, #162, #263, .T. ) ;
#73 = DIRECTION ( 'NONE',  ( 0.0000000000000000000, 1.000000000000000000, 0.0000000000000000000 ) ) ;
#74 =( GEOMETRIC_REPRESENTATION_CONTEXT ( 3 ) GLOBAL_UNCERTAINTY_ASSIGNED_CONTEXT ( ( #151 ) ) GLOBAL_UNIT_ASSIGNED_CONTEXT ( ( #246, #152, #99 ) ) REPRESENTATION_CONTEXT ( 'NONE', 'WORKASPACE' ) );
#75 = CARTESIAN_POINT ( 'NONE',  ( -0.1818505000000002481, 0.0000000000000000000, 2.834646000000000665 ) ) ;
#76 = SPHERICAL_SURFACE ( 'NONE', #271, 0.1966536494999999996 ) ;
#77 = CARTESIAN_POINT ( 'NONE',  ( -0.1968504999999999838, 0.0000000000000000000, 2.834646000000000665 ) ) ;
#78 = CIRCLE ( 'NONE', #45, 0.1818505000000002481 ) ;
#79 = AXIS2_PLACEMENT_3D ( 'NONE', #96, #266, #245 ) ;
#80 = ADVANCED_FACE ( 'NONE', ( #317 ), #216, .T. ) ;
#81 = ORIENTED_EDGE ( 'NONE', *, *, #144, .F. ) ;
#82 = FACE_OUTER_BOUND ( 'NONE', #129, .T. ) ;
#83 = CARTESIAN_POINT ( 'NONE',  ( -0.1966536494999999163, 2.408312624008205478E-17, 0.9842519999999999047 ) ) ;
#84 = ORIENTED_EDGE ( 'NONE', *, *, #127, .F. ) ;
#85 = AXIS2_PLACEMENT_3D ( 'NONE', #218, #220, #221 ) ;
#86 = DIRECTION ( 'NONE',  ( -1.000000000000000000, 0.0000000000000000000, 1.736458998224860523E-16 ) ) ;
#87 = EDGE_LOOP ( 'NONE', ( #312, #186, #235 ) ) ;
#88 = DIRECTION ( 'NONE',  ( -1.000000000000000000, 0.0000000000000000000, 0.0000000000000000000 ) ) ;
#89 = LENGTH_MEASURE_WITH_UNIT ( LENGTH_MEASURE( 0.02539999999999999897 ), #161 );
#90 = CARTESIAN_POINT ( 'NONE',  ( 0.0000000000000000000, 0.0000000000000000000, 2.834646000000000665 ) ) ;
#91 = CONICAL_SURFACE ( 'NONE', #318, 0.1966536495000000273, 0.1745329251994339470 ) ;
#92 = CIRCLE ( 'NONE', #223, 0.1966536494999999996 ) ;
#93 = FACE_OUTER_BOUND ( 'NONE', #134, .T. ) ;
#94 = DIRECTION ( 'NONE',  ( 1.000000000000000000, 0.0000000000000000000, 0.0000000000000000000 ) ) ;
#95 = DIRECTION ( 'NONE',  ( -0.0000000000000000000, -0.0000000000000000000, -1.000000000000000000 ) ) ;
#96 = CARTESIAN_POINT ( 'NONE',  ( 0.0000000000000000000, 0.0000000000000000000, 0.0000000000000000000 ) ) ;
#97 =( GEOMETRIC_REPRESENTATION_CONTEXT ( 3 ) GLOBAL_UNCERTAINTY_ASSIGNED_CONTEXT ( ( #171 ) ) GLOBAL_UNIT_ASSIGNED_CONTEXT ( ( #255, #53, #202 ) ) REPRESENTATION_CONTEXT ( 'NONE', 'WORKASPACE' ) );
#98 = SURFACE_SIDE_STYLE ('',( #148 ) ) ;
#99 =( NAMED_UNIT ( * ) SI_UNIT ( $, .STERADIAN. ) SOLID_ANGLE_UNIT ( ) );
#100 = DIRECTION ( 'NONE',  ( 1.000000000000000000, 0.0000000000000000000, 0.0000000000000000000 ) ) ;
#101 = DIRECTION ( 'NONE',  ( -1.000000000000000000, 1.224646799147353207E-16, 0.0000000000000000000 ) ) ;
#102 = CIRCLE ( 'NONE', #306, 0.1966536494999999996 ) ;
#103 = ORIENTED_EDGE ( 'NONE', *, *, #155, .T. ) ;
#104 =( GEOMETRIC_REPRESENTATION_CONTEXT ( 3 ) GLOBAL_UNCERTAINTY_ASSIGNED_CONTEXT ( ( #168 ) ) GLOBAL_UNIT_ASSIGNED_CONTEXT ( ( #209, #135, #322 ) ) REPRESENTATION_CONTEXT ( 'NONE', 'WORKASPACE' ) );
#105 = EDGE_CURVE ( 'NONE', #131, #268, #145, .T. ) ;
#106 = VERTEX_POINT ( 'NONE', #123 ) ;
#107 = FACE_OUTER_BOUND ( 'NONE', #117, .T. ) ;
#108 = ORIENTED_EDGE ( 'NONE', *, *, #57, .F. ) ;
#109 = MANIFOLD_SOLID_BREP ( 'Fillet1', #199 ) ;
#110 = ORIENTED_EDGE ( 'NONE', *, *, #240, .F. ) ;
#111 = AXIS2_PLACEMENT_3D ( 'NONE', #10, #15, #185 ) ;
#112 = ORIENTED_EDGE ( 'NONE', *, *, #72, .F. ) ;
#113 = DIRECTION ( 'NONE',  ( 1.224646799147353207E-16, 0.0000000000000000000, 1.000000000000000000 ) ) ;
#114 = DIRECTION ( 'NONE',  ( 0.0000000000000000000, -1.000000000000000000, 0.0000000000000000000 ) ) ;
#115 = EDGE_CURVE ( 'NONE', #187, #33, #254, .T. ) ;
#116 = VECTOR ( 'NONE', #204, 39.37007874015748143 ) ;
#117 = EDGE_LOOP ( 'NONE', ( #84, #46, #167, #164 ) ) ;
#118 = PRODUCT_DEFINITION ( 'UNKNOWN', '', #275, #189 ) ;
#119 = DIRECTION ( 'NONE',  ( 1.000000000000000000, 0.0000000000000000000, 0.0000000000000000000 ) ) ;
#120 = CARTESIAN_POINT ( 'NONE',  ( 2.408312624008205170E-17, 0.0000000000000000000, 0.1966536494999999996 ) ) ;
#121 = VECTOR ( 'NONE', #95, 39.37007874015748143 ) ;
#122 = ADVANCED_FACE ( 'NONE', ( #192 ), #91, .T. ) ;
#123 = CARTESIAN_POINT ( 'NONE',  ( -0.1966536494999999996, 0.0000000000000000000, 0.1966536495000000273 ) ) ;
#124 = CARTESIAN_POINT ( 'NONE',  ( 0.1966536495000000273, 2.408312624008205478E-17, -2.408312624008205478E-17 ) ) ;
#125 = LINE ( 'NONE', #193, #257 ) ;
#126 = CARTESIAN_POINT ( 'NONE',  ( 0.1966536495000001661, 0.0000000000000000000, 0.9842519999999999047 ) ) ;
#127 = EDGE_CURVE ( 'NONE', #268, #160, #71, .T. ) ;
#128 =( LENGTH_UNIT ( ) NAMED_UNIT ( * ) SI_UNIT ( $, .METRE. ) );
#129 = EDGE_LOOP ( 'NONE', ( #280, #54, #283, #241 ) ) ;
#130 = PRESENTATION_STYLE_ASSIGNMENT (( #34 ) ) ;
#131 = VERTEX_POINT ( 'NONE', #278 ) ;
#132 = VECTOR ( 'NONE', #58, 39.37007874015748143 ) ;
#133 = CARTESIAN_POINT ( 'NONE',  ( 2.408312624008205170E-17, 0.0000000000000000000, 0.1966536494999999996 ) ) ;
#134 = EDGE_LOOP ( 'NONE', ( #178, #61, #12, #203 ) ) ;
#135 =( NAMED_UNIT ( * ) PLANE_ANGLE_UNIT ( ) SI_UNIT ( $, .RADIAN. ) );
#136 = EDGE_LOOP ( 'NONE', ( #24, #228 ) ) ;
#137 = CIRCLE ( 'NONE', #325, 0.1968504999999999838 ) ;
#138 = EDGE_CURVE ( 'NONE', #131, #106, #52, .T. ) ;
#139 = EDGE_CURVE ( 'NONE', #162, #56, #125, .T. ) ;
#140 = VERTEX_POINT ( 'NONE', #31 ) ;
#141 = DIMENSIONAL_EXPONENTS ( 1.000000000000000000, 0.0000000000000000000, 0.0000000000000000000, 0.0000000000000000000, 0.0000000000000000000, 0.0000000000000000000, 0.0000000000000000000 ) ;
#142 = DIRECTION ( 'NONE',  ( 1.224646799147353207E-16, 0.0000000000000000000, 1.000000000000000000 ) ) ;
#143 = DIRECTION ( 'NONE',  ( 1.000000000000000000, 0.0000000000000000000, 0.0000000000000000000 ) ) ;
#144 = EDGE_CURVE ( 'NONE', #56, #33, #219, .T. ) ;
#145 = CIRCLE ( 'NONE', #247, 0.1966536495000000273 ) ;
#146 = CARTESIAN_POINT ( 'NONE',  ( 0.1968504999999999838, 2.410723347355560646E-17, 2.834646000000000665 ) ) ;
#147 = DIRECTION ( 'NONE',  ( 1.000000000000000000, 0.0000000000000000000, -0.0000000000000000000 ) ) ;
#148 = SURFACE_STYLE_FILL_AREA ( #249 ) ;
#149 = CONICAL_SURFACE ( 'NONE', #59, 0.1966536495000000273, 0.1745329251994339470 ) ;
#150 = DIRECTION ( 'NONE',  ( 1.000000000000000000, 0.0000000000000000000, 0.0000000000000000000 ) ) ;
#151 = UNCERTAINTY_MEASURE_WITH_UNIT (LENGTH_MEASURE( 1.000000000000000082E-05 ), #246, 'distance_accuracy_value', 'NONE');
#152 =( NAMED_UNIT ( * ) PLANE_ANGLE_UNIT ( ) SI_UNIT ( $, .RADIAN. ) );
#153 = CARTESIAN_POINT ( 'NONE',  ( 1.205361061354380629E-16, 0.0000000000000000000, 0.9842519999999999047 ) ) ;
#154 = VECTOR ( 'NONE', #231, 39.37007874015748143 ) ;
#155 = EDGE_CURVE ( 'NONE', #190, #232, #137, .T. ) ;
#156 = DIRECTION ( 'NONE',  ( 1.224646799147353207E-16, 0.0000000000000000000, 1.000000000000000000 ) ) ;
#157 = ORIENTED_EDGE ( 'NONE', *, *, #127, .T. ) ;
#158 = EDGE_LOOP ( 'NONE', ( #38, #11, #184, #110 ) ) ;
#159 = LINE ( 'NONE', #206, #116 ) ;
#160 = VERTEX_POINT ( 'NONE', #300 ) ;
#161 =( LENGTH_UNIT ( ) NAMED_UNIT ( * ) SI_UNIT ( $, .METRE. ) );
#162 = VERTEX_POINT ( 'NONE', #75 ) ;
#163 = DIRECTION ( 'NONE',  ( -1.000000000000000000, 0.0000000000000000000, 0.0000000000000000000 ) ) ;
#164 = ORIENTED_EDGE ( 'NONE', *, *, #273, .T. ) ;
#165 = DIRECTION ( 'NONE',  ( 0.0000000000000000000, 0.0000000000000000000, 1.000000000000000000 ) ) ;
#166 = STYLED_ITEM ( 'NONE', ( #130 ), #13 ) ;
#167 = ORIENTED_EDGE ( 'NONE', *, *, #138, .T. ) ;
#168 = UNCERTAINTY_MEASURE_WITH_UNIT (LENGTH_MEASURE( 1.000000000000000082E-05 ), #209, 'distance_accuracy_value', 'NONE');
#169 = DIRECTION ( 'NONE',  ( -1.000000000000000000, 0.0000000000000000000, 1.736458998224860523E-16 ) ) ;
#170 = DIRECTION ( 'NONE',  ( 0.0000000000000000000, 0.0000000000000000000, 1.000000000000000000 ) ) ;
#171 = UNCERTAINTY_MEASURE_WITH_UNIT (LENGTH_MEASURE( 1.000000000000000082E-05 ), #255, 'distance_accuracy_value', 'NONE');
#172 = PRODUCT_DEFINITION_SHAPE ( 'NONE', 'NONE',  #118 ) ;
#173 = ORIENTED_EDGE ( 'NONE', *, *, #183, .F. ) ;
#174 = CARTESIAN_POINT ( 'NONE',  ( -0.1968504999999998450, 0.0000000000000000000, 0.9853683946618323475 ) ) ;
#175 = DIRECTION ( 'NONE',  ( 1.224646799147353207E-16, 0.0000000000000000000, 1.000000000000000000 ) ) ;
#176 = DIRECTION ( 'NONE',  ( -1.224646799147353207E-16, -0.0000000000000000000, -1.000000000000000000 ) ) ;
#177 = DIRECTION ( 'NONE',  ( 1.000000000000000000, 0.0000000000000000000, 0.0000000000000000000 ) ) ;
#178 = ORIENTED_EDGE ( 'NONE', *, *, #316, .F. ) ;
#179 = FILL_AREA_STYLE_COLOUR ( '', #248 ) ;
#180 = ORIENTED_EDGE ( 'NONE', *, *, #299, .F. ) ;
#181 = CARTESIAN_POINT ( 'NONE',  ( 0.0000000000000000000, 0.0000000000000000000, 2.834646000000000665 ) ) ;
#182 = ORIENTED_EDGE ( 'NONE', *, *, #105, .F. ) ;
#183 = EDGE_CURVE ( 'NONE', #33, #56, #301, .T. ) ;
#184 = ORIENTED_EDGE ( 'NONE', *, *, #155, .F. ) ;
#185 = DIRECTION ( 'NONE',  ( -1.000000000000000000, 0.0000000000000000000, 1.224646799147353207E-16 ) ) ;
#186 = ORIENTED_EDGE ( 'NONE', *, *, #47, .T. ) ;
#187 = VERTEX_POINT ( 'NONE', #276 ) ;
#188 = ORIENTED_EDGE ( 'NONE', *, *, #105, .T. ) ;
#189 = PRODUCT_DEFINITION_CONTEXT ( 'detailed design', #313, 'design' ) ;
#190 = VERTEX_POINT ( 'NONE', #174 ) ;
#191 = PLANE ( 'NONE',  #30 ) ;
#192 = FACE_OUTER_BOUND ( 'NONE', #66, .T. ) ;
#193 = CARTESIAN_POINT ( 'NONE',  ( -0.1818505000000002481, 0.0000000000000000000, 2.834646000000000665 ) ) ;
#194 = CARTESIAN_POINT ( 'NONE',  ( -0.1966536495000000273, 0.0000000000000000000, 2.408312624008205478E-17 ) ) ;
#195 = VECTOR ( 'NONE', #296, 39.37007874015748143 ) ;
#196 = AXIS2_PLACEMENT_3D ( 'NONE', #305, #60, #310 ) ;
#197 = CARTESIAN_POINT ( 'NONE',  ( 0.0000000000000000000, 0.0000000000000000000, 2.819646000000000097 ) ) ;
#198 = LINE ( 'NONE', #83, #154 ) ;
#199 = CLOSED_SHELL ( 'NONE', ( #211, #14, #122, #64, #80, #236, #35, #281, #8, #233, #44 ) ) ;
#200 = CONICAL_SURFACE ( 'NONE', #215, 0.1818505000000002481, 0.7853981633974312926 ) ;
#201 = SURFACE_SIDE_STYLE ('',( #314 ) ) ;
#202 =( NAMED_UNIT ( * ) SI_UNIT ( $, .STERADIAN. ) SOLID_ANGLE_UNIT ( ) );
#203 = ORIENTED_EDGE ( 'NONE', *, *, #4, .T. ) ;
#204 = DIRECTION ( 'NONE',  ( 0.1736481776669314414, 0.0000000000000000000, 0.9848077530122077983 ) ) ;
#205 = EDGE_LOOP ( 'NONE', ( #188, #157, #39, #256 ) ) ;
#206 = CARTESIAN_POINT ( 'NONE',  ( 0.1966536495000001661, 0.0000000000000000000, 0.9842519999999999047 ) ) ;
#207 = EDGE_LOOP ( 'NONE', ( #230, #259, #108 ) ) ;
#208 = DIMENSIONAL_EXPONENTS ( 1.000000000000000000, 0.0000000000000000000, 0.0000000000000000000, 0.0000000000000000000, 0.0000000000000000000, 0.0000000000000000000, 0.0000000000000000000 ) ;
#209 =( CONVERSION_BASED_UNIT ( 'INCH', #89 ) LENGTH_UNIT ( ) NAMED_UNIT ( #234 ) );
#210 = CARTESIAN_POINT ( 'NONE',  ( 1.205361061354380629E-16, 0.0000000000000000000, 0.9842519999999999047 ) ) ;
#211 = ADVANCED_FACE ( 'NONE', ( #298 ), #76, .T. ) ;
#212 = PRODUCT_CONTEXT ( 'NONE', #243, 'mechanical' ) ;
#213 = CARTESIAN_POINT ( 'NONE',  ( -0.1968504999999999838, 0.0000000000000000000, 2.819646000000000097 ) ) ;
#214 = COLOUR_RGB ( '',0.7921568627450980005, 0.8196078431372548767, 0.9333333333333333481 ) ;
#215 = AXIS2_PLACEMENT_3D ( 'NONE', #181, #282, #163 ) ;
#216 = CYLINDRICAL_SURFACE ( 'NONE', #295, 0.1968504999999999838 ) ;
#217 = FACE_OUTER_BOUND ( 'NONE', #87, .T. ) ;
#218 = CARTESIAN_POINT ( 'NONE',  ( 0.0000000000000000000, 0.0000000000000000000, 2.819646000000000097 ) ) ;
#219 = CIRCLE ( 'NONE', #85, 0.1968504999999999838 ) ;
#220 = DIRECTION ( 'NONE',  ( 0.0000000000000000000, 0.0000000000000000000, -1.000000000000000000 ) ) ;
#221 = DIRECTION ( 'NONE',  ( 1.000000000000000000, 0.0000000000000000000, 0.0000000000000000000 ) ) ;
#222 = DIRECTION ( 'NONE',  ( -1.224646799147353207E-16, -0.0000000000000000000, -1.000000000000000000 ) ) ;
#223 = AXIS2_PLACEMENT_3D ( 'NONE', #133, #6, #101 ) ;
#224 = CARTESIAN_POINT ( 'NONE',  ( 1.205361061354380629E-16, 0.0000000000000000000, 0.9842519999999999047 ) ) ;
#225 = LINE ( 'NONE', #77, #132 ) ;
#226 = VECTOR ( 'NONE', #27, 39.37007874015748854 ) ;
#227 = APPLICATION_PROTOCOL_DEFINITION ( 'draft international standard', 'automotive_design', 1998, #243 ) ;
#228 = ORIENTED_EDGE ( 'NONE', *, *, #72, .T. ) ;
#229 = DIRECTION ( 'NONE',  ( -1.224646799147353207E-16, -0.0000000000000000000, -1.000000000000000000 ) ) ;
#230 = ORIENTED_EDGE ( 'NONE', *, *, #47, .F. ) ;
#231 = DIRECTION ( 'NONE',  ( -0.1736481776669312194, 2.126576849575783625E-17, 0.9848077530122077983 ) ) ;
#232 = VERTEX_POINT ( 'NONE', #304 ) ;
#233 = ADVANCED_FACE ( 'NONE', ( #107 ), #261, .T. ) ;
#234 = DIMENSIONAL_EXPONENTS ( 1.000000000000000000, 0.0000000000000000000, 0.0000000000000000000, 0.0000000000000000000, 0.0000000000000000000, 0.0000000000000000000, 0.0000000000000000000 ) ;
#235 = ORIENTED_EDGE ( 'NONE', *, *, #273, .F. ) ;
#236 = ADVANCED_FACE ( 'NONE', ( #82 ), #287, .T. ) ;
#237 = CYLINDRICAL_SURFACE ( 'NONE', #79, 0.1966536495000000273 ) ;
#238 = DIRECTION ( 'NONE',  ( 0.0000000000000000000, 0.0000000000000000000, 1.000000000000000000 ) ) ;
#239 = DIRECTION ( 'NONE',  ( 0.0000000000000000000, 0.0000000000000000000, 1.000000000000000000 ) ) ;
#240 = EDGE_CURVE ( 'NONE', #56, #190, #225, .T. ) ;
#241 = ORIENTED_EDGE ( 'NONE', *, *, #4, .F. ) ;
#242 = CIRCLE ( 'NONE', #307, 0.1966536495000000273 ) ;
#243 = APPLICATION_CONTEXT ( 'automotive_design' ) ;
#244 = CARTESIAN_POINT ( 'NONE',  ( 0.1968504999999999838, 2.410723347355560646E-17, 2.819646000000000097 ) ) ;
#245 = DIRECTION ( 'NONE',  ( -1.000000000000000000, 0.0000000000000000000, 1.224646799147353207E-16 ) ) ;
#246 =( CONVERSION_BASED_UNIT ( 'INCH', #49 ) LENGTH_UNIT ( ) NAMED_UNIT ( #141 ) );
#247 = AXIS2_PLACEMENT_3D ( 'NONE', #224, #51, #2 ) ;
#248 = COLOUR_RGB ( '',0.7921568627450980005, 0.8196078431372548767, 0.9333333333333333481 ) ;
#249 = FILL_AREA_STYLE ('',( #29 ) ) ;
#250 = CARTESIAN_POINT ( 'NONE',  ( 0.1818505000000002481, 2.227026327483460228E-17, 2.834646000000000665 ) ) ;
#251 = DIRECTION ( 'NONE',  ( -0.7071067811865354713, 0.0000000000000000000, -0.7071067811865594521 ) ) ;
#252 = AXIS2_PLACEMENT_3D ( 'NONE', #294, #239, #63 ) ;
#253 = PRESENTATION_LAYER_ASSIGNMENT (  '', '', ( #166 ) ) ;
#254 = LINE ( 'NONE', #250, #226 ) ;
#255 =( CONVERSION_BASED_UNIT ( 'INCH', #36 ) LENGTH_UNIT ( ) NAMED_UNIT ( #208 ) );
#256 = ORIENTED_EDGE ( 'NONE', *, *, #138, .F. ) ;
#257 = VECTOR ( 'NONE', #251, 39.37007874015748854 ) ;
#258 = CIRCLE ( 'NONE', #290, 0.1966536495000000273 ) ;
#259 = ORIENTED_EDGE ( 'NONE', *, *, #303, .T. ) ;
#260 = EDGE_LOOP ( 'NONE', ( #112, #291, #81, #262 ) ) ;
#261 = CYLINDRICAL_SURFACE ( 'NONE', #111, 0.1966536495000000273 ) ;
#262 = ORIENTED_EDGE ( 'NONE', *, *, #139, .F. ) ;
#263 = CIRCLE ( 'NONE', #252, 0.1818505000000002481 ) ;
#264 = AXIS2_PLACEMENT_3D ( 'NONE', #267, #238, #94 ) ;
#265 = DIRECTION ( 'NONE',  ( 1.000000000000000000, 0.0000000000000000000, 0.0000000000000000000 ) ) ;
#266 = DIRECTION ( 'NONE',  ( -1.224646799147353207E-16, -0.0000000000000000000, -1.000000000000000000 ) ) ;
#267 = CARTESIAN_POINT ( 'NONE',  ( 0.0000000000000000000, 0.0000000000000000000, 0.0000000000000000000 ) ) ;
#268 = VERTEX_POINT ( 'NONE', #126 ) ;
#269 = DIRECTION ( 'NONE',  ( -1.000000000000000000, 0.0000000000000000000, 0.0000000000000000000 ) ) ;
#270 = PRODUCT_RELATED_PRODUCT_CATEGORY ( 'part', '', ( #23 ) ) ;
#271 = AXIS2_PLACEMENT_3D ( 'NONE', #26, #73, #150 ) ;
#272 = DIRECTION ( 'NONE',  ( 0.0000000000000000000, 1.000000000000000000, 0.0000000000000000000 ) ) ;
#273 = EDGE_CURVE ( 'NONE', #106, #160, #242, .T. ) ;
#274 = PRESENTATION_LAYER_ASSIGNMENT (  '', '', ( #279 ) ) ;
#275 = PRODUCT_DEFINITION_FORMATION_WITH_SPECIFIED_SOURCE ( 'ANY', '', #23, .NOT_KNOWN. ) ;
#276 = CARTESIAN_POINT ( 'NONE',  ( 0.1818505000000002481, 2.318874837419510283E-17, 2.834646000000000665 ) ) ;
#277 = SURFACE_STYLE_USAGE ( .BOTH. , #98 ) ;
#278 = CARTESIAN_POINT ( 'NONE',  ( -0.1966536494999999163, 2.409517985681882908E-17, 0.9842519999999999047 ) ) ;
#279 = STYLED_ITEM ( 'NONE', ( #3 ), #109 ) ;
#280 = ORIENTED_EDGE ( 'NONE', *, *, #17, .F. ) ;
#281 = ADVANCED_FACE ( 'NONE', ( #55 ), #200, .T. ) ;
#282 = DIRECTION ( 'NONE',  ( 0.0000000000000000000, 0.0000000000000000000, -1.000000000000000000 ) ) ;
#283 = ORIENTED_EDGE ( 'NONE', *, *, #240, .T. ) ;
#284 = CARTESIAN_POINT ( 'NONE',  ( 2.408312624008205170E-17, 0.0000000000000000000, 0.1966536494999999996 ) ) ;
#285 = AXIS2_PLACEMENT_3D ( 'NONE', #41, #113, #169 ) ;
#286 = FILL_AREA_STYLE ('',( #179 ) ) ;
#287 = CYLINDRICAL_SURFACE ( 'NONE', #196, 0.1968504999999999838 ) ;
#288 = LINE ( 'NONE', #146, #121 ) ;
#289 = MECHANICAL_DESIGN_GEOMETRIC_PRESENTATION_REPRESENTATION (  '', ( #279 ), #74 ) ;
#290 = AXIS2_PLACEMENT_3D ( 'NONE', #7, #229, #308 ) ;
#291 = ORIENTED_EDGE ( 'NONE', *, *, #115, .T. ) ;
#292 = FACE_OUTER_BOUND ( 'NONE', #260, .T. ) ;
#293 = SHAPE_DEFINITION_REPRESENTATION ( #172, #13 ) ;
#294 = CARTESIAN_POINT ( 'NONE',  ( 0.0000000000000000000, 0.0000000000000000000, 2.834646000000000665 ) ) ;
#295 = AXIS2_PLACEMENT_3D ( 'NONE', #90, #67, #269 ) ;
#296 = DIRECTION ( 'NONE',  ( -1.224646799147353207E-16, -0.0000000000000000000, -1.000000000000000000 ) ) ;
#297 = EDGE_CURVE ( 'NONE', #268, #131, #258, .T. ) ;
#298 = FACE_OUTER_BOUND ( 'NONE', #207, .T. ) ;
#299 = EDGE_CURVE ( 'NONE', #268, #232, #159, .T. ) ;
#300 = CARTESIAN_POINT ( 'NONE',  ( 0.1966536495000000828, 2.408312624008205478E-17, 0.1966536494999999718 ) ) ;
#301 = CIRCLE ( 'NONE', #20, 0.1968504999999999838 ) ;
#302 = MECHANICAL_DESIGN_GEOMETRIC_PRESENTATION_REPRESENTATION (  '', ( #166 ), #104 ) ;
#303 = EDGE_CURVE ( 'NONE', #140, #106, #92, .T. ) ;
#304 = CARTESIAN_POINT ( 'NONE',  ( 0.1968505000000001226, 2.410723347355561878E-17, 0.9853683946618323475 ) ) ;
#305 = CARTESIAN_POINT ( 'NONE',  ( 0.0000000000000000000, 0.0000000000000000000, 2.834646000000000665 ) ) ;
#306 = AXIS2_PLACEMENT_3D ( 'NONE', #120, #114, #18 ) ;
#307 = AXIS2_PLACEMENT_3D ( 'NONE', #284, #156, #86 ) ;
#308 = DIRECTION ( 'NONE',  ( -1.000000000000000000, 0.0000000000000000000, 0.0000000000000000000 ) ) ;
#309 = ORIENTED_EDGE ( 'NONE', *, *, #32, .F. ) ;
#310 = DIRECTION ( 'NONE',  ( -1.000000000000000000, 0.0000000000000000000, 0.0000000000000000000 ) ) ;
#311 = ORIENTED_EDGE ( 'NONE', *, *, #115, .F. ) ;
#312 = ORIENTED_EDGE ( 'NONE', *, *, #303, .F. ) ;
#313 = APPLICATION_CONTEXT ( 'automotive_design' ) ;
#314 = SURFACE_STYLE_FILL_AREA ( #286 ) ;
#315 = CARTESIAN_POINT ( 'NONE',  ( 0.0000000000000000000, 0.0000000000000000000, 2.834646000000000665 ) ) ;
#316 = EDGE_CURVE ( 'NONE', #131, #190, #198, .T. ) ;
#317 = FACE_OUTER_BOUND ( 'NONE', #158, .T. ) ;
#318 = AXIS2_PLACEMENT_3D ( 'NONE', #153, #175, #177 ) ;
#319 = DIRECTION ( 'NONE',  ( -1.224646799147353207E-16, -0.0000000000000000000, -1.000000000000000000 ) ) ;
#320 = APPLICATION_PROTOCOL_DEFINITION ( 'draft international standard', 'automotive_design', 1998, #313 ) ;
#321 = SPHERICAL_SURFACE ( 'NONE', #69, 0.1966536494999999996 ) ;
#322 =( NAMED_UNIT ( * ) SI_UNIT ( $, .STERADIAN. ) SOLID_ANGLE_UNIT ( ) );
#323 = EDGE_LOOP ( 'NONE', ( #311, #309, #37, #173 ) ) ;
#324 = DIRECTION ( 'NONE',  ( 0.0000000000000000000, 0.0000000000000000000, -1.000000000000000000 ) ) ;
#325 = AXIS2_PLACEMENT_3D ( 'NONE', #1, #222, #5 ) ;
ENDSEC;
END-ISO-10303-21;
