ISO-10303-21;
HEADER;
FILE_DESCRIPTION (( 'STEP AP214' ),
    '1' );
FILE_NAME ('59611.STEP',
    '2023-07-24T15:15:16',
    ( '' ),
    ( '' ),
    'SwSTEP 2.0',
    'SolidWorks 2023',
    '' );
FILE_SCHEMA (( 'AUTOMOTIVE_DESIGN' ));
ENDSEC;

DATA;
#1 = COLOUR_RGB ( '',1.000000000000000000, 0.000000000000000000, 0.000000000000000000 ) ;
#2 = AXIS2_PLACEMENT_3D ( 'NONE', #91, #145, #331 ) ;
#3 = DIRECTION ( 'NONE',  ( -0.000000000000000000, -1.000000000000000000, -0.000000000000000000 ) ) ;
#4 = SURFACE_SIDE_STYLE ('',( #316 ) ) ;
#5 = DIRECTION ( 'NONE',  ( 1.000000000000000000, 0.000000000000000000, 0.000000000000000000 ) ) ;
#6 = EDGE_LOOP ( 'NONE', ( #243, #241, #292, #151 ) ) ;
#7 = ORIENTED_EDGE ( 'NONE', *, *, #296, .F. ) ;
#8 = CIRCLE ( 'NONE', #223, 11.50000000000000000 ) ;
#9 = ORIENTED_EDGE ( 'NONE', *, *, #258, .F. ) ;
#10 = DIRECTION ( 'NONE',  ( -0.000000000000000000, -1.000000000000000000, -0.000000000000000000 ) ) ;
#11 = CARTESIAN_POINT ( 'NONE',  ( -3.061616997868379493E-15, 124.9999999999999858, 0.000000000000000000 ) ) ;
#12 = PLANE ( 'NONE',  #249 ) ;
#13 = COLOUR_RGB ( '',1.000000000000000000, 0.000000000000000000, 0.000000000000000000 ) ;
#14 = ADVANCED_FACE ( 'NONE', ( #321 ), #104, .F. ) ;
#15 = MANIFOLD_SOLID_BREP ( 'Revolve - Cutting Edge', #20 ) ;
#16 = MECHANICAL_DESIGN_GEOMETRIC_PRESENTATION_REPRESENTATION (  '', ( #354 ), #116 ) ;
#17 = SURFACE_STYLE_FILL_AREA ( #359 ) ;
#18 = MANIFOLD_SOLID_BREP ( 'Revolve - Tool Body (Straight Shanked)', #113 ) ;
#19 = FACE_OUTER_BOUND ( 'NONE', #194, .T. ) ;
#20 = CLOSED_SHELL ( 'NONE', ( #170, #66, #332, #106, #367, #227 ) ) ;
#21 =( GEOMETRIC_REPRESENTATION_CONTEXT ( 3 ) GLOBAL_UNCERTAINTY_ASSIGNED_CONTEXT ( ( #73 ) ) GLOBAL_UNIT_ASSIGNED_CONTEXT ( ( #157, #344, #184 ) ) REPRESENTATION_CONTEXT ( 'NONE', 'WORKASPACE' ) );
#22 = ADVANCED_FACE ( 'NONE', ( #90 ), #135, .T. ) ;
#23 =( NAMED_UNIT ( * ) SI_UNIT ( $, .STERADIAN. ) SOLID_ANGLE_UNIT ( ) );
#24 = PRESENTATION_STYLE_ASSIGNMENT (( #174 ) ) ;
#25 = EDGE_CURVE ( 'NONE', #180, #246, #245, .T. ) ;
#26 = CIRCLE ( 'NONE', #305, 12.50000000000000000 ) ;
#27 = SHAPE_DEFINITION_REPRESENTATION ( #271, #281 ) ;
#28 = VERTEX_POINT ( 'NONE', #173 ) ;
#29 = CARTESIAN_POINT ( 'NONE',  ( 0.000000000000000000, 0.000000000000000000, 0.000000000000000000 ) ) ;
#30 =( LENGTH_UNIT ( ) NAMED_UNIT ( * ) SI_UNIT ( .MILLI., .METRE. ) );
#31 = VERTEX_POINT ( 'NONE', #220 ) ;
#32 = FILL_AREA_STYLE ('',( #161 ) ) ;
#33 = CARTESIAN_POINT ( 'NONE',  ( -12.50000000000000711, 124.9999999999999858, 0.000000000000000000 ) ) ;
#34 = PRODUCT_CONTEXT ( 'NONE', #92, 'mechanical' ) ;
#35 = UNCERTAINTY_MEASURE_WITH_UNIT (LENGTH_MEASURE( 1.000000000000000082E-05 ), #327, 'distance_accuracy_value', 'NONE');
#36 = PRESENTATION_LAYER_ASSIGNMENT (  '', '', ( #346 ) ) ;
#37 = PRESENTATION_LAYER_ASSIGNMENT (  '', '', ( #86 ) ) ;
#38 = ADVANCED_FACE ( 'NONE', ( #322 ), #198, .T. ) ;
#39 = DIRECTION ( 'NONE',  ( 0.000000000000000000, 0.000000000000000000, -1.000000000000000000 ) ) ;
#40 = PRESENTATION_STYLE_ASSIGNMENT (( #189 ) ) ;
#41 = SURFACE_STYLE_USAGE ( .BOTH. , #4 ) ;
#42 = DIRECTION ( 'NONE',  ( 1.000000000000000000, 1.217753221838294133E-16, 0.000000000000000000 ) ) ;
#43 = EDGE_LOOP ( 'NONE', ( #160, #195, #256, #89 ) ) ;
#44 = FACE_OUTER_BOUND ( 'NONE', #218, .T. ) ;
#45 =( NAMED_UNIT ( * ) PLANE_ANGLE_UNIT ( ) SI_UNIT ( $, .RADIAN. ) );
#46 = AXIS2_PLACEMENT_3D ( 'NONE', #172, #52, #138 ) ;
#47 = VECTOR ( 'NONE', #260, 1000.000000000000000 ) ;
#48 =( NAMED_UNIT ( * ) SI_UNIT ( $, .STERADIAN. ) SOLID_ANGLE_UNIT ( ) );
#49 = FILL_AREA_STYLE_COLOUR ( '', #236 ) ;
#50 = LINE ( 'NONE', #312, #47 ) ;
#51 = DIRECTION ( 'NONE',  ( -1.000000000000000000, 0.000000000000000000, 0.000000000000000000 ) ) ;
#52 = DIRECTION ( 'NONE',  ( -0.000000000000000000, -1.000000000000000000, -0.000000000000000000 ) ) ;
#53 = PRODUCT_RELATED_PRODUCT_CATEGORY ( 'part', '', ( #88 ) ) ;
#54 = CARTESIAN_POINT ( 'NONE',  ( 12.50000000000000000, 50.00000000000000000, 1.530808498934192113E-15 ) ) ;
#55 = CIRCLE ( 'NONE', #148, 12.49999999999999645 ) ;
#56 = DIRECTION ( 'NONE',  ( 0.000000000000000000, 0.000000000000000000, -1.000000000000000000 ) ) ;
#57 =( NAMED_UNIT ( * ) SI_UNIT ( $, .STERADIAN. ) SOLID_ANGLE_UNIT ( ) );
#58 = EDGE_CURVE ( 'NONE', #162, #68, #273, .T. ) ;
#59 = DIRECTION ( 'NONE',  ( -0.000000000000000000, -1.000000000000000000, -0.000000000000000000 ) ) ;
#60 = STYLED_ITEM ( 'NONE', ( #156 ), #15 ) ;
#61 = VECTOR ( 'NONE', #279, 1000.000000000000000 ) ;
#62 = DIRECTION ( 'NONE',  ( -1.000000000000000000, 0.000000000000000000, 0.000000000000000000 ) ) ;
#63 = ORIENTED_EDGE ( 'NONE', *, *, #150, .F. ) ;
#64 = APPLICATION_CONTEXT ( 'automotive_design' ) ;
#65 = FILL_AREA_STYLE_COLOUR ( '', #82 ) ;
#66 = ADVANCED_FACE ( 'NONE', ( #19 ), #259, .T. ) ;
#67 = SURFACE_STYLE_USAGE ( .BOTH. , #207 ) ;
#68 = VERTEX_POINT ( 'NONE', #254 ) ;
#69 = CIRCLE ( 'NONE', #282, 11.50000000000000000 ) ;
#70 = AXIS2_PLACEMENT_3D ( 'NONE', #272, #197, #39 ) ;
#71 = SURFACE_STYLE_FILL_AREA ( #213 ) ;
#72 = ORIENTED_EDGE ( 'NONE', *, *, #289, .F. ) ;
#73 = UNCERTAINTY_MEASURE_WITH_UNIT (LENGTH_MEASURE( 1.000000000000000082E-05 ), #157, 'distance_accuracy_value', 'NONE');
#74 = CARTESIAN_POINT ( 'NONE',  ( 0.000000000000000000, 0.000000000000000000, -11.50000000000000000 ) ) ;
#75 = DIRECTION ( 'NONE',  ( 0.000000000000000000, 0.000000000000000000, -1.000000000000000000 ) ) ;
#76 = FACE_OUTER_BOUND ( 'NONE', #318, .T. ) ;
#77 = CIRCLE ( 'NONE', #365, 1.000000000000000888 ) ;
#78 = CIRCLE ( 'NONE', #293, 12.50000000000000000 ) ;
#79 = SURFACE_SIDE_STYLE ('',( #118 ) ) ;
#80 =( NAMED_UNIT ( * ) SI_UNIT ( $, .STERADIAN. ) SOLID_ANGLE_UNIT ( ) );
#81 = EDGE_LOOP ( 'NONE', ( #125, #146, #320, #72 ) ) ;
#82 = COLOUR_RGB ( '',1.000000000000000000, 0.000000000000000000, 0.000000000000000000 ) ;
#83 = PRODUCT_DEFINITION_FORMATION_WITH_SPECIFIED_SOURCE ( 'ANY', '', #88, .NOT_KNOWN. ) ;
#84 = SURFACE_STYLE_USAGE ( .BOTH. , #288 ) ;
#85 = AXIS2_PLACEMENT_3D ( 'NONE', #267, #10, #244 ) ;
#86 = STYLED_ITEM ( 'NONE', ( #237 ), #367 ) ;
#87 =( LENGTH_UNIT ( ) NAMED_UNIT ( * ) SI_UNIT ( .MILLI., .METRE. ) );
#88 = PRODUCT ( '59611', '59611', '', ( #34 ) ) ;
#89 = ORIENTED_EDGE ( 'NONE', *, *, #274, .F. ) ;
#90 = FACE_OUTER_BOUND ( 'NONE', #81, .T. ) ;
#91 = CARTESIAN_POINT ( 'NONE',  ( 0.000000000000000000, 50.00000000000000000, 0.000000000000000000 ) ) ;
#92 = APPLICATION_CONTEXT ( 'automotive_design' ) ;
#93 = PLANE ( 'NONE',  #70 ) ;
#94 = PRESENTATION_LAYER_ASSIGNMENT (  '', '', ( #354 ) ) ;
#95 = SURFACE_STYLE_FILL_AREA ( #355 ) ;
#96 = DIRECTION ( 'NONE',  ( 0.000000000000000000, 0.000000000000000000, -1.000000000000000000 ) ) ;
#97 =( GEOMETRIC_REPRESENTATION_CONTEXT ( 3 ) GLOBAL_UNCERTAINTY_ASSIGNED_CONTEXT ( ( #35 ) ) GLOBAL_UNIT_ASSIGNED_CONTEXT ( ( #327, #225, #23 ) ) REPRESENTATION_CONTEXT ( 'NONE', 'WORKASPACE' ) );
#98 = DIRECTION ( 'NONE',  ( 0.000000000000000000, 0.000000000000000000, -1.000000000000000000 ) ) ;
#99 = ORIENTED_EDGE ( 'NONE', *, *, #208, .T. ) ;
#100 = FACE_OUTER_BOUND ( 'NONE', #120, .T. ) ;
#101 = DIRECTION ( 'NONE',  ( -0.000000000000000000, -1.000000000000000000, -0.000000000000000000 ) ) ;
#102 = EDGE_LOOP ( 'NONE', ( #99, #144 ) ) ;
#103 =( NAMED_UNIT ( * ) SI_UNIT ( $, .STERADIAN. ) SOLID_ANGLE_UNIT ( ) );
#104 = PLANE ( 'NONE',  #169 ) ;
#105 = AXIS2_PLACEMENT_3D ( 'NONE', #339, #336, #98 ) ;
#106 = ADVANCED_FACE ( 'NONE', ( #44 ), #229, .T. ) ;
#107 = ORIENTED_EDGE ( 'NONE', *, *, #199, .T. ) ;
#108 = CARTESIAN_POINT ( 'NONE',  ( 0.000000000000000000, 1.000000000000000000, 0.000000000000000000 ) ) ;
#109 = VECTOR ( 'NONE', #200, 1000.000000000000000 ) ;
#110 = MECHANICAL_DESIGN_GEOMETRIC_PRESENTATION_REPRESENTATION (  '', ( #114 ), #283 ) ;
#111 = EDGE_CURVE ( 'NONE', #246, #31, #77, .T. ) ;
#112 = DIRECTION ( 'NONE',  ( 0.000000000000000000, 0.000000000000000000, 1.000000000000000000 ) ) ;
#113 = CLOSED_SHELL ( 'NONE', ( #22, #280, #38, #14 ) ) ;
#114 = STYLED_ITEM ( 'NONE', ( #158 ), #227 ) ;
#115 = PRESENTATION_STYLE_ASSIGNMENT (( #84 ) ) ;
#116 =( GEOMETRIC_REPRESENTATION_CONTEXT ( 3 ) GLOBAL_UNCERTAINTY_ASSIGNED_CONTEXT ( ( #363 ) ) GLOBAL_UNIT_ASSIGNED_CONTEXT ( ( #87, #361, #57 ) ) REPRESENTATION_CONTEXT ( 'NONE', 'WORKASPACE' ) );
#117 = FILL_AREA_STYLE_COLOUR ( '', #155 ) ;
#118 = SURFACE_STYLE_FILL_AREA ( #149 ) ;
#119 = DIRECTION ( 'NONE',  ( -1.000000000000000000, -1.217753221838294133E-16, 0.000000000000000000 ) ) ;
#120 = EDGE_LOOP ( 'NONE', ( #9, #298 ) ) ;
#121 = DIRECTION ( 'NONE',  ( -0.000000000000000000, -1.000000000000000000, -0.000000000000000000 ) ) ;
#122 = APPLICATION_PROTOCOL_DEFINITION ( 'draft international standard', 'automotive_design', 1998, #64 ) ;
#123 = UNCERTAINTY_MEASURE_WITH_UNIT (LENGTH_MEASURE( 1.000000000000000082E-05 ), #326, 'distance_accuracy_value', 'NONE');
#124 =( NAMED_UNIT ( * ) PLANE_ANGLE_UNIT ( ) SI_UNIT ( $, .RADIAN. ) );
#125 = ORIENTED_EDGE ( 'NONE', *, *, #311, .T. ) ;
#126 = CARTESIAN_POINT ( 'NONE',  ( 6.071532165918824830E-15, 50.00000000000000000, 0.000000000000000000 ) ) ;
#127 = CARTESIAN_POINT ( 'NONE',  ( 0.000000000000000000, 0.000000000000000000, 0.000000000000000000 ) ) ;
#128 =( LENGTH_UNIT ( ) NAMED_UNIT ( * ) SI_UNIT ( .MILLI., .METRE. ) );
#129 =( LENGTH_UNIT ( ) NAMED_UNIT ( * ) SI_UNIT ( .MILLI., .METRE. ) );
#130 = EDGE_LOOP ( 'NONE', ( #343, #191 ) ) ;
#131 = SURFACE_STYLE_USAGE ( .BOTH. , #342 ) ;
#132 = CIRCLE ( 'NONE', #264, 1.000000000000000888 ) ;
#133 = EDGE_CURVE ( 'NONE', #28, #180, #306, .T. ) ;
#134 = CARTESIAN_POINT ( 'NONE',  ( 0.000000000000000000, 50.00000000000000000, 0.000000000000000000 ) ) ;
#135 = CYLINDRICAL_SURFACE ( 'NONE', #141, 12.49999999999999822 ) ;
#136 =( GEOMETRIC_REPRESENTATION_CONTEXT ( 3 ) GLOBAL_UNCERTAINTY_ASSIGNED_CONTEXT ( ( #123 ) ) GLOBAL_UNIT_ASSIGNED_CONTEXT ( ( #326, #324, #252 ) ) REPRESENTATION_CONTEXT ( 'NONE', 'WORKASPACE' ) );
#137 =( GEOMETRIC_REPRESENTATION_CONTEXT ( 3 ) GLOBAL_UNCERTAINTY_ASSIGNED_CONTEXT ( ( #178 ) ) GLOBAL_UNIT_ASSIGNED_CONTEXT ( ( #129, #287, #337 ) ) REPRESENTATION_CONTEXT ( 'NONE', 'WORKASPACE' ) );
#138 = DIRECTION ( 'NONE',  ( 0.000000000000000000, 0.000000000000000000, -1.000000000000000000 ) ) ;
#139 = DIRECTION ( 'NONE',  ( -1.000000000000000000, 0.000000000000000000, 0.000000000000000000 ) ) ;
#140 = CARTESIAN_POINT ( 'NONE',  ( 0.000000000000000000, 0.000000000000000000, -12.50000000000000000 ) ) ;
#141 = AXIS2_PLACEMENT_3D ( 'NONE', #11, #351, #139 ) ;
#142 = FACE_OUTER_BOUND ( 'NONE', #102, .T. ) ;
#143 = DIRECTION ( 'NONE',  ( -1.217753221838294133E-16, 1.000000000000000000, -0.000000000000000000 ) ) ;
#144 = ORIENTED_EDGE ( 'NONE', *, *, #182, .T. ) ;
#145 = DIRECTION ( 'NONE',  ( 0.000000000000000000, 1.000000000000000000, 0.000000000000000000 ) ) ;
#146 = ORIENTED_EDGE ( 'NONE', *, *, #58, .T. ) ;
#147 = MECHANICAL_DESIGN_GEOMETRIC_PRESENTATION_REPRESENTATION (  '', ( #346 ), #136 ) ;
#148 = AXIS2_PLACEMENT_3D ( 'NONE', #177, #284, #228 ) ;
#149 = FILL_AREA_STYLE ('',( #117 ) ) ;
#150 = EDGE_CURVE ( 'NONE', #180, #211, #132, .T. ) ;
#151 = ORIENTED_EDGE ( 'NONE', *, *, #133, .F. ) ;
#152 = UNCERTAINTY_MEASURE_WITH_UNIT (LENGTH_MEASURE( 1.000000000000000082E-05 ), #323, 'distance_accuracy_value', 'NONE');
#153 = FILL_AREA_STYLE_COLOUR ( '', #1 ) ;
#154 = PRESENTATION_LAYER_ASSIGNMENT (  '', '', ( #60 ) ) ;
#155 = COLOUR_RGB ( '',1.000000000000000000, 0.000000000000000000, 0.000000000000000000 ) ;
#156 = PRESENTATION_STYLE_ASSIGNMENT (( #131 ) ) ;
#157 =( LENGTH_UNIT ( ) NAMED_UNIT ( * ) SI_UNIT ( .MILLI., .METRE. ) );
#158 = PRESENTATION_STYLE_ASSIGNMENT (( #41 ) ) ;
#159 = ORIENTED_EDGE ( 'NONE', *, *, #150, .T. ) ;
#160 = ORIENTED_EDGE ( 'NONE', *, *, #58, .F. ) ;
#161 = FILL_AREA_STYLE_COLOUR ( '', #13 ) ;
#162 = VERTEX_POINT ( 'NONE', #54 ) ;
#163 = MECHANICAL_DESIGN_GEOMETRIC_PRESENTATION_REPRESENTATION (  '', ( #333 ), #21 ) ;
#164 =( GEOMETRIC_REPRESENTATION_CONTEXT ( 3 ) GLOBAL_UNCERTAINTY_ASSIGNED_CONTEXT ( ( #224 ) ) GLOBAL_UNIT_ASSIGNED_CONTEXT ( ( #30, #124, #103 ) ) REPRESENTATION_CONTEXT ( 'NONE', 'WORKASPACE' ) );
#165 = DIRECTION ( 'NONE',  ( -1.224646799147353454E-16, 0.000000000000000000, -1.000000000000000000 ) ) ;
#166 = DIRECTION ( 'NONE',  ( 1.217753221838294133E-16, -1.000000000000000000, 0.000000000000000000 ) ) ;
#167 = PRESENTATION_STYLE_ASSIGNMENT (( #330 ) ) ;
#168 = CARTESIAN_POINT ( 'NONE',  ( -3.061616997868379493E-15, 124.9999999999999858, 0.000000000000000000 ) ) ;
#169 = AXIS2_PLACEMENT_3D ( 'NONE', #297, #166, #42 ) ;
#170 = ADVANCED_FACE ( 'NONE', ( #222 ), #240, .T. ) ;
#171 = FILL_AREA_STYLE_COLOUR ( '', #276 ) ;
#172 = CARTESIAN_POINT ( 'NONE',  ( 0.000000000000000000, 1.000000000000000000, 0.000000000000000000 ) ) ;
#173 = CARTESIAN_POINT ( 'NONE',  ( 0.000000000000000000, 50.00000000000000000, -12.50000000000000000 ) ) ;
#174 = SURFACE_STYLE_USAGE ( .BOTH. , #308 ) ;
#175 = DIRECTION ( 'NONE',  ( -1.217753221838294133E-16, 1.000000000000000000, -0.000000000000000000 ) ) ;
#176 = CIRCLE ( 'NONE', #291, 12.50000000000000000 ) ;
#177 = CARTESIAN_POINT ( 'NONE',  ( 6.071532165918824830E-15, 50.00000000000000000, 0.000000000000000000 ) ) ;
#178 = UNCERTAINTY_MEASURE_WITH_UNIT (LENGTH_MEASURE( 1.000000000000000082E-05 ), #129, 'distance_accuracy_value', 'NONE');
#179 = CARTESIAN_POINT ( 'NONE',  ( -3.061616997868379493E-15, 124.9999999999999858, 0.000000000000000000 ) ) ;
#180 = VERTEX_POINT ( 'NONE', #368 ) ;
#181 = CIRCLE ( 'NONE', #304, 12.49999999999999645 ) ;
#182 = EDGE_CURVE ( 'NONE', #31, #211, #69, .T. ) ;
#183 = ORIENTED_EDGE ( 'NONE', *, *, #111, .F. ) ;
#184 =( NAMED_UNIT ( * ) SI_UNIT ( $, .STERADIAN. ) SOLID_ANGLE_UNIT ( ) );
#185 = SURFACE_SIDE_STYLE ('',( #71 ) ) ;
#186 = SURFACE_STYLE_FILL_AREA ( #349 ) ;
#187 = DIRECTION ( 'NONE',  ( 0.000000000000000000, 0.000000000000000000, -1.000000000000000000 ) ) ;
#188 = ORIENTED_EDGE ( 'NONE', *, *, #182, .F. ) ;
#189 = SURFACE_STYLE_USAGE ( .BOTH. , #79 ) ;
#190 = CIRCLE ( 'NONE', #360, 12.50000000000000355 ) ;
#191 = ORIENTED_EDGE ( 'NONE', *, *, #274, .T. ) ;
#192 = EDGE_CURVE ( 'NONE', #162, #242, #181, .T. ) ;
#193 = DIRECTION ( 'NONE',  ( 0.000000000000000000, 0.000000000000000000, 1.000000000000000000 ) ) ;
#194 = EDGE_LOOP ( 'NONE', ( #196, #338, #232, #63 ) ) ;
#195 = ORIENTED_EDGE ( 'NONE', *, *, #192, .T. ) ;
#196 = ORIENTED_EDGE ( 'NONE', *, *, #25, .T. ) ;
#197 = DIRECTION ( 'NONE',  ( 0.000000000000000000, -1.000000000000000000, -0.000000000000000000 ) ) ;
#198 = CYLINDRICAL_SURFACE ( 'NONE', #353, 12.49999999999999822 ) ;
#199 = EDGE_CURVE ( 'NONE', #246, #180, #176, .T. ) ;
#200 = DIRECTION ( 'NONE',  ( -0.000000000000000000, -1.000000000000000000, -0.000000000000000000 ) ) ;
#201 = PRESENTATION_LAYER_ASSIGNMENT (  '', '', ( #333 ) ) ;
#202 = SURFACE_STYLE_FILL_AREA ( #253 ) ;
#203 = LINE ( 'NONE', #335, #270 ) ;
#204 = MECHANICAL_DESIGN_GEOMETRIC_PRESENTATION_REPRESENTATION (  '', ( #328 ), #97 ) ;
#205 = DIRECTION ( 'NONE',  ( -1.000000000000000000, 0.000000000000000000, 0.000000000000000000 ) ) ;
#206 = AXIS2_PLACEMENT_3D ( 'NONE', #369, #193, #5 ) ;
#207 = SURFACE_SIDE_STYLE ('',( #95 ) ) ;
#208 = EDGE_CURVE ( 'NONE', #211, #31, #8, .T. ) ;
#209 = APPLICATION_PROTOCOL_DEFINITION ( 'draft international standard', 'automotive_design', 1998, #92 ) ;
#210 = COLOUR_RGB ( '',1.000000000000000000, 0.000000000000000000, 0.000000000000000000 ) ;
#211 = VERTEX_POINT ( 'NONE', #74 ) ;
#212 = PLANE ( 'NONE',  #2 ) ;
#213 = FILL_AREA_STYLE ('',( #341 ) ) ;
#214 = VERTEX_POINT ( 'NONE', #33 ) ;
#215 = ORIENTED_EDGE ( 'NONE', *, *, #345, .T. ) ;
#216 = PRESENTATION_LAYER_ASSIGNMENT (  '', '', ( #328 ) ) ;
#217 = ORIENTED_EDGE ( 'NONE', *, *, #199, .F. ) ;
#218 = EDGE_LOOP ( 'NONE', ( #183, #107, #159, #188 ) ) ;
#219 =( LENGTH_UNIT ( ) NAMED_UNIT ( * ) SI_UNIT ( .MILLI., .METRE. ) );
#220 = CARTESIAN_POINT ( 'NONE',  ( 1.469576158976823947E-15, 0.000000000000000000, 11.50000000000000000 ) ) ;
#221 = PRESENTATION_LAYER_ASSIGNMENT (  '', '', ( #114 ) ) ;
#222 = FACE_OUTER_BOUND ( 'NONE', #6, .T. ) ;
#223 = AXIS2_PLACEMENT_3D ( 'NONE', #319, #313, #235 ) ;
#224 = UNCERTAINTY_MEASURE_WITH_UNIT (LENGTH_MEASURE( 1.000000000000000082E-05 ), #30, 'distance_accuracy_value', 'NONE');
#225 =( NAMED_UNIT ( * ) PLANE_ANGLE_UNIT ( ) SI_UNIT ( $, .RADIAN. ) );
#226 = CARTESIAN_POINT ( 'NONE',  ( 1.530808498934191521E-15, 1.000000000000000000, 12.50000000000000000 ) ) ;
#227 = ADVANCED_FACE ( 'NONE', ( #100 ), #212, .T. ) ;
#228 = DIRECTION ( 'NONE',  ( -1.000000000000000000, 0.000000000000000000, 0.000000000000000000 ) ) ;
#229 = TOROIDAL_SURFACE ( 'NONE', #46, 11.50000000000000000, 1.000000000000000444 ) ;
#230 = CIRCLE ( 'NONE', #250, 12.50000000000000355 ) ;
#231 = DIRECTION ( 'NONE',  ( -0.000000000000000000, -1.000000000000000000, -0.000000000000000000 ) ) ;
#232 = ORIENTED_EDGE ( 'NONE', *, *, #208, .F. ) ;
#233 = CARTESIAN_POINT ( 'NONE',  ( 0.000000000000000000, 1.000000000000000000, 0.000000000000000000 ) ) ;
#234 = EDGE_LOOP ( 'NONE', ( #266, #314 ) ) ;
#235 = DIRECTION ( 'NONE',  ( 0.000000000000000000, 0.000000000000000000, -1.000000000000000000 ) ) ;
#236 = COLOUR_RGB ( '',0.7921568627450980005, 0.8196078431372548767, 0.9333333333333333481 ) ;
#237 = PRESENTATION_STYLE_ASSIGNMENT (( #317 ) ) ;
#238 = MECHANICAL_DESIGN_GEOMETRIC_PRESENTATION_REPRESENTATION (  '', ( #286 ), #352 ) ;
#239 = COLOUR_RGB ( '',1.000000000000000000, 0.000000000000000000, 0.000000000000000000 ) ;
#240 = CYLINDRICAL_SURFACE ( 'NONE', #105, 12.50000000000000000 ) ;
#241 = ORIENTED_EDGE ( 'NONE', *, *, #296, .T. ) ;
#242 = VERTEX_POINT ( 'NONE', #300 ) ;
#243 = ORIENTED_EDGE ( 'NONE', *, *, #258, .T. ) ;
#244 = DIRECTION ( 'NONE',  ( 0.000000000000000000, 0.000000000000000000, -1.000000000000000000 ) ) ;
#245 = CIRCLE ( 'NONE', #340, 12.50000000000000000 ) ;
#246 = VERTEX_POINT ( 'NONE', #226 ) ;
#247 =( NAMED_UNIT ( * ) PLANE_ANGLE_UNIT ( ) SI_UNIT ( $, .RADIAN. ) );
#248 = CARTESIAN_POINT ( 'NONE',  ( 1.530808498934191521E-15, 50.00000000000000000, 12.50000000000000000 ) ) ;
#249 = AXIS2_PLACEMENT_3D ( 'NONE', #255, #362, #119 ) ;
#250 = AXIS2_PLACEMENT_3D ( 'NONE', #309, #143, #62 ) ;
#251 = EDGE_CURVE ( 'NONE', #214, #68, #190, .T. ) ;
#252 =( NAMED_UNIT ( * ) SI_UNIT ( $, .STERADIAN. ) SOLID_ANGLE_UNIT ( ) );
#253 = FILL_AREA_STYLE ('',( #65 ) ) ;
#254 = CARTESIAN_POINT ( 'NONE',  ( 12.50000000000000000, 124.9999999999999858, 1.530808498934191719E-15 ) ) ;
#255 = CARTESIAN_POINT ( 'NONE',  ( 6.071532165918824830E-15, 50.00000000000000000, 0.000000000000000000 ) ) ;
#256 = ORIENTED_EDGE ( 'NONE', *, *, #289, .T. ) ;
#257 = DIRECTION ( 'NONE',  ( -0.000000000000000000, -1.000000000000000000, -0.000000000000000000 ) ) ;
#258 = EDGE_CURVE ( 'NONE', #28, #261, #26, .T. ) ;
#259 = TOROIDAL_SURFACE ( 'NONE', #85, 11.50000000000000000, 1.000000000000000444 ) ;
#260 = DIRECTION ( 'NONE',  ( -1.217753221838294133E-16, 1.000000000000000000, -0.000000000000000000 ) ) ;
#261 = VERTEX_POINT ( 'NONE', #248 ) ;
#262 = CYLINDRICAL_SURFACE ( 'NONE', #334, 12.50000000000000000 ) ;
#263 = FILL_AREA_STYLE ('',( #153 ) ) ;
#264 = AXIS2_PLACEMENT_3D ( 'NONE', #356, #303, #112 ) ;
#265 = UNCERTAINTY_MEASURE_WITH_UNIT (LENGTH_MEASURE( 1.000000000000000082E-05 ), #128, 'distance_accuracy_value', 'NONE');
#266 = ORIENTED_EDGE ( 'NONE', *, *, #311, .F. ) ;
#267 = CARTESIAN_POINT ( 'NONE',  ( 0.000000000000000000, 1.000000000000000000, 0.000000000000000000 ) ) ;
#268 = PRODUCT_DEFINITION ( 'UNKNOWN', '', #83, #278 ) ;
#269 = SURFACE_STYLE_FILL_AREA ( #32 ) ;
#270 = VECTOR ( 'NONE', #59, 1000.000000000000000 ) ;
#271 = PRODUCT_DEFINITION_SHAPE ( 'NONE', 'NONE',  #268 ) ;
#272 = CARTESIAN_POINT ( 'NONE',  ( 0.000000000000000000, 0.000000000000000000, 0.000000000000000000 ) ) ;
#273 = LINE ( 'NONE', #302, #61 ) ;
#274 = EDGE_CURVE ( 'NONE', #68, #214, #230, .T. ) ;
#275 =( NAMED_UNIT ( * ) PLANE_ANGLE_UNIT ( ) SI_UNIT ( $, .RADIAN. ) );
#276 = COLOUR_RGB ( '',0.7921568627450980005, 0.8196078431372548767, 0.9333333333333333481 ) ;
#277 = SURFACE_SIDE_STYLE ('',( #17 ) ) ;
#278 = PRODUCT_DEFINITION_CONTEXT ( 'detailed design', #64, 'design' ) ;
#279 = DIRECTION ( 'NONE',  ( -1.217753221838294133E-16, 1.000000000000000000, -0.000000000000000000 ) ) ;
#280 = ADVANCED_FACE ( 'NONE', ( #329 ), #12, .F. ) ;
#281 = ADVANCED_BREP_SHAPE_REPRESENTATION ( '59611', ( #15, #18, #206 ), #164 ) ;
#282 = AXIS2_PLACEMENT_3D ( 'NONE', #29, #121, #370 ) ;
#283 =( GEOMETRIC_REPRESENTATION_CONTEXT ( 3 ) GLOBAL_UNCERTAINTY_ASSIGNED_CONTEXT ( ( #265 ) ) GLOBAL_UNIT_ASSIGNED_CONTEXT ( ( #128, #247, #80 ) ) REPRESENTATION_CONTEXT ( 'NONE', 'WORKASPACE' ) );
#284 = DIRECTION ( 'NONE',  ( -1.217753221838294133E-16, 1.000000000000000000, -0.000000000000000000 ) ) ;
#285 = PRESENTATION_STYLE_ASSIGNMENT (( #67 ) ) ;
#286 = STYLED_ITEM ( 'NONE', ( #115 ), #106 ) ;
#287 =( NAMED_UNIT ( * ) PLANE_ANGLE_UNIT ( ) SI_UNIT ( $, .RADIAN. ) );
#288 = SURFACE_SIDE_STYLE ('',( #269 ) ) ;
#289 = EDGE_CURVE ( 'NONE', #242, #214, #50, .T. ) ;
#290 = DIRECTION ( 'NONE',  ( -1.000000000000000000, 0.000000000000000000, 0.000000000000000000 ) ) ;
#291 = AXIS2_PLACEMENT_3D ( 'NONE', #233, #231, #96 ) ;
#292 = ORIENTED_EDGE ( 'NONE', *, *, #25, .F. ) ;
#293 = AXIS2_PLACEMENT_3D ( 'NONE', #295, #101, #187 ) ;
#294 =( NAMED_UNIT ( * ) SI_UNIT ( $, .STERADIAN. ) SOLID_ANGLE_UNIT ( ) );
#295 = CARTESIAN_POINT ( 'NONE',  ( 0.000000000000000000, 50.00000000000000000, 0.000000000000000000 ) ) ;
#296 = EDGE_CURVE ( 'NONE', #261, #246, #203, .T. ) ;
#297 = CARTESIAN_POINT ( 'NONE',  ( 12.50000000000000000, 124.9999999999999858, 0.000000000000000000 ) ) ;
#298 = ORIENTED_EDGE ( 'NONE', *, *, #345, .F. ) ;
#299 =( GEOMETRIC_REPRESENTATION_CONTEXT ( 3 ) GLOBAL_UNCERTAINTY_ASSIGNED_CONTEXT ( ( #315 ) ) GLOBAL_UNIT_ASSIGNED_CONTEXT ( ( #219, #45, #294 ) ) REPRESENTATION_CONTEXT ( 'NONE', 'WORKASPACE' ) );
#300 = CARTESIAN_POINT ( 'NONE',  ( -12.49999999999999112, 50.00000000000000000, 0.000000000000000000 ) ) ;
#301 = DIRECTION ( 'NONE',  ( -1.217753221838294133E-16, 1.000000000000000000, -0.000000000000000000 ) ) ;
#302 = CARTESIAN_POINT ( 'NONE',  ( 12.49999999999999467, 124.9999999999999858, 1.530808498934191324E-15 ) ) ;
#303 = DIRECTION ( 'NONE',  ( -1.000000000000000000, 0.000000000000000000, 0.000000000000000000 ) ) ;
#304 = AXIS2_PLACEMENT_3D ( 'NONE', #126, #366, #290 ) ;
#305 = AXIS2_PLACEMENT_3D ( 'NONE', #134, #257, #364 ) ;
#306 = LINE ( 'NONE', #140, #109 ) ;
#307 = FILL_AREA_STYLE_COLOUR ( '', #210 ) ;
#308 = SURFACE_SIDE_STYLE ('',( #202 ) ) ;
#309 = CARTESIAN_POINT ( 'NONE',  ( -3.061616997868379493E-15, 124.9999999999999858, 0.000000000000000000 ) ) ;
#310 = MECHANICAL_DESIGN_GEOMETRIC_PRESENTATION_REPRESENTATION (  '', ( #60 ), #299 ) ;
#311 = EDGE_CURVE ( 'NONE', #242, #162, #55, .T. ) ;
#312 = CARTESIAN_POINT ( 'NONE',  ( -12.50000000000000178, 124.9999999999999858, 0.000000000000000000 ) ) ;
#313 = DIRECTION ( 'NONE',  ( -0.000000000000000000, -1.000000000000000000, -0.000000000000000000 ) ) ;
#314 = ORIENTED_EDGE ( 'NONE', *, *, #192, .F. ) ;
#315 = UNCERTAINTY_MEASURE_WITH_UNIT (LENGTH_MEASURE( 1.000000000000000082E-05 ), #219, 'distance_accuracy_value', 'NONE');
#316 = SURFACE_STYLE_FILL_AREA ( #263 ) ;
#317 = SURFACE_STYLE_USAGE ( .BOTH. , #185 ) ;
#318 = EDGE_LOOP ( 'NONE', ( #7, #215, #350, #217 ) ) ;
#319 = CARTESIAN_POINT ( 'NONE',  ( 0.000000000000000000, 0.000000000000000000, 0.000000000000000000 ) ) ;
#320 = ORIENTED_EDGE ( 'NONE', *, *, #251, .F. ) ;
#321 = FACE_OUTER_BOUND ( 'NONE', #130, .T. ) ;
#322 = FACE_OUTER_BOUND ( 'NONE', #43, .T. ) ;
#323 =( LENGTH_UNIT ( ) NAMED_UNIT ( * ) SI_UNIT ( .MILLI., .METRE. ) );
#324 =( NAMED_UNIT ( * ) PLANE_ANGLE_UNIT ( ) SI_UNIT ( $, .RADIAN. ) );
#325 = DIRECTION ( 'NONE',  ( 1.000000000000000000, 0.000000000000000000, -1.224646799147353207E-16 ) ) ;
#326 =( LENGTH_UNIT ( ) NAMED_UNIT ( * ) SI_UNIT ( .MILLI., .METRE. ) );
#327 =( LENGTH_UNIT ( ) NAMED_UNIT ( * ) SI_UNIT ( .MILLI., .METRE. ) );
#328 = STYLED_ITEM ( 'NONE', ( #24 ), #170 ) ;
#329 = FACE_OUTER_BOUND ( 'NONE', #234, .T. ) ;
#330 = SURFACE_STYLE_USAGE ( .BOTH. , #277 ) ;
#331 = DIRECTION ( 'NONE',  ( 0.000000000000000000, -0.000000000000000000, 1.000000000000000000 ) ) ;
#332 = ADVANCED_FACE ( 'NONE', ( #142 ), #93, .T. ) ;
#333 = STYLED_ITEM ( 'NONE', ( #40 ), #66 ) ;
#334 = AXIS2_PLACEMENT_3D ( 'NONE', #127, #3, #75 ) ;
#335 = CARTESIAN_POINT ( 'NONE',  ( 1.530808498934191521E-15, 0.000000000000000000, 12.50000000000000000 ) ) ;
#336 = DIRECTION ( 'NONE',  ( -0.000000000000000000, -1.000000000000000000, -0.000000000000000000 ) ) ;
#337 =( NAMED_UNIT ( * ) SI_UNIT ( $, .STERADIAN. ) SOLID_ANGLE_UNIT ( ) );
#338 = ORIENTED_EDGE ( 'NONE', *, *, #111, .T. ) ;
#339 = CARTESIAN_POINT ( 'NONE',  ( 0.000000000000000000, 0.000000000000000000, 0.000000000000000000 ) ) ;
#340 = AXIS2_PLACEMENT_3D ( 'NONE', #108, #357, #56 ) ;
#341 = FILL_AREA_STYLE_COLOUR ( '', #239 ) ;
#342 = SURFACE_SIDE_STYLE ('',( #186 ) ) ;
#343 = ORIENTED_EDGE ( 'NONE', *, *, #251, .T. ) ;
#344 =( NAMED_UNIT ( * ) PLANE_ANGLE_UNIT ( ) SI_UNIT ( $, .RADIAN. ) );
#345 = EDGE_CURVE ( 'NONE', #261, #28, #78, .T. ) ;
#346 = STYLED_ITEM ( 'NONE', ( #167 ), #18 ) ;
#347 = MECHANICAL_DESIGN_GEOMETRIC_PRESENTATION_REPRESENTATION (  '', ( #86 ), #137 ) ;
#348 = CARTESIAN_POINT ( 'NONE',  ( 1.408343819019456176E-15, 1.000000000000000000, 11.50000000000000000 ) ) ;
#349 = FILL_AREA_STYLE ('',( #49 ) ) ;
#350 = ORIENTED_EDGE ( 'NONE', *, *, #133, .T. ) ;
#351 = DIRECTION ( 'NONE',  ( -1.217753221838294133E-16, 1.000000000000000000, -0.000000000000000000 ) ) ;
#352 =( GEOMETRIC_REPRESENTATION_CONTEXT ( 3 ) GLOBAL_UNCERTAINTY_ASSIGNED_CONTEXT ( ( #152 ) ) GLOBAL_UNIT_ASSIGNED_CONTEXT ( ( #323, #275, #48 ) ) REPRESENTATION_CONTEXT ( 'NONE', 'WORKASPACE' ) );
#353 = AXIS2_PLACEMENT_3D ( 'NONE', #168, #301, #51 ) ;
#354 = STYLED_ITEM ( 'NONE', ( #285 ), #332 ) ;
#355 = FILL_AREA_STYLE ('',( #307 ) ) ;
#356 = CARTESIAN_POINT ( 'NONE',  ( 0.000000000000000000, 1.000000000000000000, -11.50000000000000000 ) ) ;
#357 = DIRECTION ( 'NONE',  ( -0.000000000000000000, -1.000000000000000000, -0.000000000000000000 ) ) ;
#358 = PRESENTATION_LAYER_ASSIGNMENT (  '', '', ( #286 ) ) ;
#359 = FILL_AREA_STYLE ('',( #171 ) ) ;
#360 = AXIS2_PLACEMENT_3D ( 'NONE', #179, #175, #205 ) ;
#361 =( NAMED_UNIT ( * ) PLANE_ANGLE_UNIT ( ) SI_UNIT ( $, .RADIAN. ) );
#362 = DIRECTION ( 'NONE',  ( -1.217753221838294133E-16, 1.000000000000000000, 0.000000000000000000 ) ) ;
#363 = UNCERTAINTY_MEASURE_WITH_UNIT (LENGTH_MEASURE( 1.000000000000000082E-05 ), #87, 'distance_accuracy_value', 'NONE');
#364 = DIRECTION ( 'NONE',  ( 0.000000000000000000, 0.000000000000000000, -1.000000000000000000 ) ) ;
#365 = AXIS2_PLACEMENT_3D ( 'NONE', #348, #325, #165 ) ;
#366 = DIRECTION ( 'NONE',  ( -1.217753221838294133E-16, 1.000000000000000000, -0.000000000000000000 ) ) ;
#367 = ADVANCED_FACE ( 'NONE', ( #76 ), #262, .T. ) ;
#368 = CARTESIAN_POINT ( 'NONE',  ( 0.000000000000000000, 1.000000000000000000, -12.50000000000000000 ) ) ;
#369 = CARTESIAN_POINT ( 'NONE',  ( 0.000000000000000000, 0.000000000000000000, 0.000000000000000000 ) ) ;
#370 = DIRECTION ( 'NONE',  ( 0.000000000000000000, 0.000000000000000000, -1.000000000000000000 ) ) ;
ENDSEC;
END-ISO-10303-21;
