ISO-10303-21;
HEADER;
FILE_DESCRIPTION (( 'STEP AP214' ),
    '1' );
FILE_NAME ('Micro_BEM-031-03X.STEP',
    '2021-09-03T12:57:12',
    ( '' ),
    ( '' ),
    'SwSTEP 2.0',
    'SolidWorks 2020',
    '' );
FILE_SCHEMA (( 'AUTOMOTIVE_DESIGN' ));
ENDSEC;

DATA;
#1 =( NAMED_UNIT ( * ) SI_UNIT ( $, .STERADIAN. ) SOLID_ANGLE_UNIT ( ) );
#2 = EDGE_LOOP ( 'NONE', ( #256, #298, #151, #194 ) ) ;
#3 = CIRCLE ( 'NONE', #28, 0.06250000000000002776 ) ;
#4 = CARTESIAN_POINT ( 'NONE',  ( 0.04750000000000064587, 5.817072295950006528E-18, 1.500000000000000222 ) ) ;
#5 = EDGE_CURVE ( 'NONE', #189, #131, #18, .T. ) ;
#6 = CARTESIAN_POINT ( 'NONE',  ( 4.210192519679162135E-17, 0.0000000000000000000, 0.3437883088095654016 ) ) ;
#7 = SURFACE_STYLE_USAGE ( .BOTH. , #104 ) ;
#8 = LENGTH_MEASURE_WITH_UNIT ( LENGTH_MEASURE( 0.02539999999999999897 ), #148 );
#9 =( NAMED_UNIT ( * ) SI_UNIT ( $, .STERADIAN. ) SOLID_ANGLE_UNIT ( ) );
#10 = SHAPE_DEFINITION_REPRESENTATION ( #44, #244 ) ;
#11 = CARTESIAN_POINT ( 'NONE',  ( 0.0000000000000000000, 0.0000000000000000000, 1.500000000000000222 ) ) ;
#12 = CARTESIAN_POINT ( 'NONE',  ( 9.552245033349369302E-18, 0.0000000000000000000, 0.07800000000000009703 ) ) ;
#13 = FILL_AREA_STYLE ('',( #59 ) ) ;
#14 = CARTESIAN_POINT ( 'NONE',  ( 0.0000000000000000000, 0.0000000000000000000, 0.0000000000000000000 ) ) ;
#15 = ORIENTED_EDGE ( 'NONE', *, *, #262, .T. ) ;
#16 = ADVANCED_FACE ( 'NONE', ( #318 ), #243, .T. ) ;
#17 = ORIENTED_EDGE ( 'NONE', *, *, #216, .T. ) ;
#18 = LINE ( 'NONE', #112, #136 ) ;
#19 = AXIS2_PLACEMENT_3D ( 'NONE', #12, #129, #58 ) ;
#20 = ORIENTED_EDGE ( 'NONE', *, *, #262, .F. ) ;
#21 = STYLED_ITEM ( 'NONE', ( #258 ), #244 ) ;
#22 = LINE ( 'NONE', #4, #48 ) ;
#23 = CARTESIAN_POINT ( 'NONE',  ( 0.01563435000000001560, 1.914655668424943751E-18, 0.01563434999999999825 ) ) ;
#24 = EDGE_LOOP ( 'NONE', ( #41, #121, #312, #218 ) ) ;
#25 = DIMENSIONAL_EXPONENTS ( 1.000000000000000000, 0.0000000000000000000, 0.0000000000000000000, 0.0000000000000000000, 0.0000000000000000000, 0.0000000000000000000, 0.0000000000000000000 ) ;
#26 = CARTESIAN_POINT ( 'NONE',  ( -0.06250000000000002776, 0.0000000000000000000, 1.485000000000000764 ) ) ;
#27 = EDGE_LOOP ( 'NONE', ( #20, #293, #211 ) ) ;
#28 = AXIS2_PLACEMENT_3D ( 'NONE', #82, #80, #213 ) ;
#29 = ADVANCED_FACE ( 'NONE', ( #140 ), #292, .T. ) ;
#30 = CONICAL_SURFACE ( 'NONE', #95, 0.01563435000000000866, 0.1745329251994338915 ) ;
#31 = CARTESIAN_POINT ( 'NONE',  ( -0.01563435000000000172, 4.784349081547952189E-18, 0.07800000000000009703 ) ) ;
#32 = CARTESIAN_POINT ( 'NONE',  ( 0.01563435000000001907, 0.0000000000000000000, 0.07800000000000009703 ) ) ;
#33 = AXIS2_PLACEMENT_3D ( 'NONE', #295, #223, #268 ) ;
#34 = PRODUCT_DEFINITION_FORMATION_WITH_SPECIFIED_SOURCE ( 'ANY', '', #116, .NOT_KNOWN. ) ;
#35 = CARTESIAN_POINT ( 'NONE',  ( 1.914655668424943366E-18, 0.0000000000000000000, 0.01563435000000000172 ) ) ;
#36 =( NAMED_UNIT ( * ) PLANE_ANGLE_UNIT ( ) SI_UNIT ( $, .RADIAN. ) );
#37 = CARTESIAN_POINT ( 'NONE',  ( -0.04750000000000064587, 0.0000000000000000000, 1.500000000000000222 ) ) ;
#38 = EDGE_CURVE ( 'NONE', #219, #169, #139, .T. ) ;
#39 = CIRCLE ( 'NONE', #137, 0.01563435000000000866 ) ;
#40 = ORIENTED_EDGE ( 'NONE', *, *, #245, .F. ) ;
#41 = ORIENTED_EDGE ( 'NONE', *, *, #269, .F. ) ;
#42 = VERTEX_POINT ( 'NONE', #37 ) ;
#43 = AXIS2_PLACEMENT_3D ( 'NONE', #57, #289, #155 ) ;
#44 = PRODUCT_DEFINITION_SHAPE ( 'NONE', 'NONE',  #108 ) ;
#45 = EDGE_CURVE ( 'NONE', #219, #131, #323, .T. ) ;
#46 = CARTESIAN_POINT ( 'NONE',  ( 0.0000000000000000000, 0.0000000000000000000, 1.500000000000000222 ) ) ;
#47 = AXIS2_PLACEMENT_3D ( 'NONE', #255, #257, #309 ) ;
#48 = VECTOR ( 'NONE', #203, 39.37007874015748854 ) ;
#49 = CARTESIAN_POINT ( 'NONE',  ( 1.914655668424943366E-18, 0.0000000000000000000, 0.01563435000000000172 ) ) ;
#50 = PLANE ( 'NONE',  #81 ) ;
#51 = EDGE_CURVE ( 'NONE', #99, #305, #242, .T. ) ;
#52 = FACE_OUTER_BOUND ( 'NONE', #135, .T. ) ;
#53 = ORIENTED_EDGE ( 'NONE', *, *, #45, .F. ) ;
#54 = ORIENTED_EDGE ( 'NONE', *, *, #237, .T. ) ;
#55 = CIRCLE ( 'NONE', #124, 0.01563435000000001560 ) ;
#56 = DIRECTION ( 'NONE',  ( 0.0000000000000000000, 0.0000000000000000000, 1.000000000000000000 ) ) ;
#57 = CARTESIAN_POINT ( 'NONE',  ( 1.914655668424943366E-18, 0.0000000000000000000, 0.01563435000000000172 ) ) ;
#58 = DIRECTION ( 'NONE',  ( 1.000000000000000000, 0.0000000000000000000, 0.0000000000000000000 ) ) ;
#59 = FILL_AREA_STYLE_COLOUR ( '', #253 ) ;
#60 = FACE_OUTER_BOUND ( 'NONE', #85, .T. ) ;
#61 = LENGTH_MEASURE_WITH_UNIT ( LENGTH_MEASURE( 0.02539999999999999897 ), #208 );
#62 = FILL_AREA_STYLE ('',( #182 ) ) ;
#63 = ORIENTED_EDGE ( 'NONE', *, *, #237, .F. ) ;
#64 = CYLINDRICAL_SURFACE ( 'NONE', #286, 0.01563435000000001560 ) ;
#65 = EDGE_CURVE ( 'NONE', #42, #189, #291, .T. ) ;
#66 = ADVANCED_FACE ( 'NONE', ( #161 ), #266, .T. ) ;
#67 = ORIENTED_EDGE ( 'NONE', *, *, #65, .F. ) ;
#68 = ORIENTED_EDGE ( 'NONE', *, *, #38, .F. ) ;
#69 = EDGE_LOOP ( 'NONE', ( #304, #143, #238, #320 ) ) ;
#70 = CIRCLE ( 'NONE', #294, 0.06250000000000002776 ) ;
#71 = ORIENTED_EDGE ( 'NONE', *, *, #226, .T. ) ;
#72 = LINE ( 'NONE', #279, #325 ) ;
#73 = MECHANICAL_DESIGN_GEOMETRIC_PRESENTATION_REPRESENTATION (  '', ( #21 ), #111 ) ;
#74 = CARTESIAN_POINT ( 'NONE',  ( 0.06250000000000006939, 7.654042494670963708E-18, 0.3437883088095654016 ) ) ;
#75 = DIMENSIONAL_EXPONENTS ( 1.000000000000000000, 0.0000000000000000000, 0.0000000000000000000, 0.0000000000000000000, 0.0000000000000000000, 0.0000000000000000000, 0.0000000000000000000 ) ;
#76 = CARTESIAN_POINT ( 'NONE',  ( 2.871983502637414086E-18, 0.0000000000000000000, 0.0000000000000000000 ) ) ;
#77 = VERTEX_POINT ( 'NONE', #126 ) ;
#78 = DIRECTION ( 'NONE',  ( 1.000000000000000000, 0.0000000000000000000, 0.0000000000000000000 ) ) ;
#79 = ORIENTED_EDGE ( 'NONE', *, *, #269, .T. ) ;
#80 = DIRECTION ( 'NONE',  ( 0.0000000000000000000, 0.0000000000000000000, -1.000000000000000000 ) ) ;
#81 = AXIS2_PLACEMENT_3D ( 'NONE', #280, #154, #122 ) ;
#82 = CARTESIAN_POINT ( 'NONE',  ( 0.0000000000000000000, 0.0000000000000000000, 1.485000000000000764 ) ) ;
#83 = CARTESIAN_POINT ( 'NONE',  ( 0.06250000000000002776, 7.654042494670959086E-18, 1.485000000000000764 ) ) ;
#84 = CARTESIAN_POINT ( 'NONE',  ( 9.552245033349369302E-18, 0.0000000000000000000, 0.07800000000000009703 ) ) ;
#85 = EDGE_LOOP ( 'NONE', ( #270, #54, #71, #68 ) ) ;
#86 = DIRECTION ( 'NONE',  ( 1.000000000000000000, 0.0000000000000000000, 0.0000000000000000000 ) ) ;
#87 = EDGE_CURVE ( 'NONE', #77, #305, #236, .T. ) ;
#88 = DIRECTION ( 'NONE',  ( -1.000000000000000000, 0.0000000000000000000, 0.0000000000000000000 ) ) ;
#89 = CARTESIAN_POINT ( 'NONE',  ( 1.914655668424943366E-18, 0.0000000000000000000, 0.01563435000000000172 ) ) ;
#90 = DIRECTION ( 'NONE',  ( 0.0000000000000000000, 1.000000000000000000, 0.0000000000000000000 ) ) ;
#91 = CIRCLE ( 'NONE', #273, 0.04750000000000064587 ) ;
#92 = DIRECTION ( 'NONE',  ( -0.0000000000000000000, -0.0000000000000000000, -1.000000000000000000 ) ) ;
#93 = CARTESIAN_POINT ( 'NONE',  ( -0.01563435000000000172, 1.914655668424943366E-18, 0.07800000000000009703 ) ) ;
#94 = ADVANCED_FACE ( 'NONE', ( #205 ), #144, .T. ) ;
#95 = AXIS2_PLACEMENT_3D ( 'NONE', #84, #184, #275 ) ;
#96 =( CONVERSION_BASED_UNIT ( 'INCH', #8 ) LENGTH_UNIT ( ) NAMED_UNIT ( #75 ) );
#97 = FACE_OUTER_BOUND ( 'NONE', #69, .T. ) ;
#98 = CIRCLE ( 'NONE', #117, 0.01563435000000000172 ) ;
#99 = VERTEX_POINT ( 'NONE', #83 ) ;
#100 = CARTESIAN_POINT ( 'NONE',  ( 0.0000000000000000000, 0.0000000000000000000, 1.485000000000000764 ) ) ;
#101 = CARTESIAN_POINT ( 'NONE',  ( 9.552245033349369302E-18, 0.0000000000000000000, 0.07800000000000009703 ) ) ;
#102 =( LENGTH_UNIT ( ) NAMED_UNIT ( * ) SI_UNIT ( $, .METRE. ) );
#103 = MANIFOLD_SOLID_BREP ( 'Fillet1', #214 ) ;
#104 = SURFACE_SIDE_STYLE ('',( #234 ) ) ;
#105 = SURFACE_STYLE_FILL_AREA ( #13 ) ;
#106 =( CONVERSION_BASED_UNIT ( 'INCH', #261 ) LENGTH_UNIT ( ) NAMED_UNIT ( #25 ) );
#107 = ADVANCED_FACE ( 'NONE', ( #60 ), #206, .T. ) ;
#108 = PRODUCT_DEFINITION ( 'UNKNOWN', '', #34, #186 ) ;
#109 = SURFACE_SIDE_STYLE ('',( #105 ) ) ;
#110 = DIRECTION ( 'NONE',  ( -1.000000000000000000, 0.0000000000000000000, 1.224646799147353454E-16 ) ) ;
#111 =( GEOMETRIC_REPRESENTATION_CONTEXT ( 3 ) GLOBAL_UNCERTAINTY_ASSIGNED_CONTEXT ( ( #192 ) ) GLOBAL_UNIT_ASSIGNED_CONTEXT ( ( #260, #313, #283 ) ) REPRESENTATION_CONTEXT ( 'NONE', 'WORKASPACE' ) );
#112 = CARTESIAN_POINT ( 'NONE',  ( -0.06250000000000002776, 0.0000000000000000000, 1.500000000000000222 ) ) ;
#113 = ORIENTED_EDGE ( 'NONE', *, *, #287, .T. ) ;
#114 = DIRECTION ( 'NONE',  ( -0.1736481776669311916, 2.126576849575783316E-17, 0.9848077530122080203 ) ) ;
#115 = ADVANCED_FACE ( 'NONE', ( #134 ), #64, .T. ) ;
#116 = PRODUCT ( 'Micro_BEM-031-03X', 'Micro_BEM-031-03X', '', ( #285 ) ) ;
#117 = AXIS2_PLACEMENT_3D ( 'NONE', #49, #145, #201 ) ;
#118 = DIRECTION ( 'NONE',  ( 1.000000000000000000, 0.0000000000000000000, 0.0000000000000000000 ) ) ;
#119 = EDGE_CURVE ( 'NONE', #189, #99, #3, .T. ) ;
#120 = AXIS2_PLACEMENT_3D ( 'NONE', #247, #303, #299 ) ;
#121 = ORIENTED_EDGE ( 'NONE', *, *, #127, .F. ) ;
#122 = DIRECTION ( 'NONE',  ( 1.000000000000000000, 0.0000000000000000000, -0.0000000000000000000 ) ) ;
#123 = DIRECTION ( 'NONE',  ( -1.224646799147353700E-16, -0.0000000000000000000, -1.000000000000000000 ) ) ;
#124 = AXIS2_PLACEMENT_3D ( 'NONE', #198, #225, #278 ) ;
#125 = DIRECTION ( 'NONE',  ( 1.000000000000000000, 0.0000000000000000000, 0.0000000000000000000 ) ) ;
#126 = CARTESIAN_POINT ( 'NONE',  ( 0.01563435000000001907, 0.0000000000000000000, 0.07800000000000009703 ) ) ;
#127 = EDGE_CURVE ( 'NONE', #42, #200, #251, .T. ) ;
#128 = DIRECTION ( 'NONE',  ( 1.224646799147353700E-16, 0.0000000000000000000, 1.000000000000000000 ) ) ;
#129 = DIRECTION ( 'NONE',  ( 1.224646799147353700E-16, 0.0000000000000000000, 1.000000000000000000 ) ) ;
#130 = FACE_OUTER_BOUND ( 'NONE', #164, .T. ) ;
#131 = VERTEX_POINT ( 'NONE', #284 ) ;
#132 = CIRCLE ( 'NONE', #120, 0.01563435000000000866 ) ;
#133 = UNCERTAINTY_MEASURE_WITH_UNIT (LENGTH_MEASURE( 1.000000000000000082E-05 ), #96, 'distance_accuracy_value', 'NONE');
#134 = FACE_OUTER_BOUND ( 'NONE', #254, .T. ) ;
#135 = EDGE_LOOP ( 'NONE', ( #178, #113 ) ) ;
#136 = VECTOR ( 'NONE', #221, 39.37007874015748143 ) ;
#137 = AXIS2_PLACEMENT_3D ( 'NONE', #101, #277, #174 ) ;
#138 = CARTESIAN_POINT ( 'NONE',  ( 0.0000000000000000000, 0.0000000000000000000, 1.500000000000000222 ) ) ;
#139 = LINE ( 'NONE', #191, #222 ) ;
#140 = FACE_OUTER_BOUND ( 'NONE', #315, .T. ) ;
#141 = AXIS2_PLACEMENT_3D ( 'NONE', #180, #160, #317 ) ;
#142 = ADVANCED_FACE ( 'NONE', ( #185 ), #159, .T. ) ;
#143 = ORIENTED_EDGE ( 'NONE', *, *, #51, .T. ) ;
#144 = CONICAL_SURFACE ( 'NONE', #324, 0.04750000000000064587, 0.7853981633974466137 ) ;
#145 = DIRECTION ( 'NONE',  ( 0.0000000000000000000, -1.000000000000000000, 0.0000000000000000000 ) ) ;
#146 = AXIS2_PLACEMENT_3D ( 'NONE', #157, #212, #86 ) ;
#147 = CYLINDRICAL_SURFACE ( 'NONE', #240, 0.06250000000000002776 ) ;
#148 =( LENGTH_UNIT ( ) NAMED_UNIT ( * ) SI_UNIT ( $, .METRE. ) );
#149 = ORIENTED_EDGE ( 'NONE', *, *, #87, .F. ) ;
#150 = DIRECTION ( 'NONE',  ( -1.000000000000000000, 0.0000000000000000000, 1.365107116733476959E-16 ) ) ;
#151 = ORIENTED_EDGE ( 'NONE', *, *, #5, .T. ) ;
#152 = ORIENTED_EDGE ( 'NONE', *, *, #216, .F. ) ;
#153 = APPLICATION_CONTEXT ( 'automotive_design' ) ;
#154 = DIRECTION ( 'NONE',  ( 0.0000000000000000000, 0.0000000000000000000, 1.000000000000000000 ) ) ;
#155 = DIRECTION ( 'NONE',  ( -1.000000000000000000, 1.224646799147353207E-16, 0.0000000000000000000 ) ) ;
#156 = UNCERTAINTY_MEASURE_WITH_UNIT (LENGTH_MEASURE( 1.000000000000000082E-05 ), #106, 'distance_accuracy_value', 'NONE');
#157 = CARTESIAN_POINT ( 'NONE',  ( 0.0000000000000000000, 0.0000000000000000000, 0.0000000000000000000 ) ) ;
#158 = DIRECTION ( 'NONE',  ( -1.224646799147353700E-16, -0.0000000000000000000, -1.000000000000000000 ) ) ;
#159 = CONICAL_SURFACE ( 'NONE', #19, 0.01563435000000000866, 0.1745329251994338915 ) ;
#160 = DIRECTION ( 'NONE',  ( 0.0000000000000000000, 0.0000000000000000000, 1.000000000000000000 ) ) ;
#161 = FACE_OUTER_BOUND ( 'NONE', #2, .T. ) ;
#162 =( GEOMETRIC_REPRESENTATION_CONTEXT ( 3 ) GLOBAL_UNCERTAINTY_ASSIGNED_CONTEXT ( ( #156 ) ) GLOBAL_UNIT_ASSIGNED_CONTEXT ( ( #106, #36, #9 ) ) REPRESENTATION_CONTEXT ( 'NONE', 'WORKASPACE' ) );
#163 = EDGE_CURVE ( 'NONE', #319, #169, #301, .T. ) ;
#164 = EDGE_LOOP ( 'NONE', ( #53, #152, #204, #175 ) ) ;
#165 = CARTESIAN_POINT ( 'NONE',  ( 0.06250000000000002776, 7.654042494670959086E-18, 1.500000000000000222 ) ) ;
#166 = ADVANCED_FACE ( 'NONE', ( #265 ), #235, .T. ) ;
#167 = ADVANCED_FACE ( 'NONE', ( #130 ), #30, .T. ) ;
#168 = EDGE_LOOP ( 'NONE', ( #190, #15, #220 ) ) ;
#169 = VERTEX_POINT ( 'NONE', #300 ) ;
#170 =( NAMED_UNIT ( * ) PLANE_ANGLE_UNIT ( ) SI_UNIT ( $, .RADIAN. ) );
#171 = DIRECTION ( 'NONE',  ( -1.224646799147353700E-16, -0.0000000000000000000, -1.000000000000000000 ) ) ;
#172 = CIRCLE ( 'NONE', #224, 0.06250000000000002776 ) ;
#173 = CARTESIAN_POINT ( 'NONE',  ( 1.914655668424943366E-18, 0.0000000000000000000, 0.01563435000000000172 ) ) ;
#174 = DIRECTION ( 'NONE',  ( -1.000000000000000000, 0.0000000000000000000, 0.0000000000000000000 ) ) ;
#175 = ORIENTED_EDGE ( 'NONE', *, *, #217, .T. ) ;
#176 = ADVANCED_FACE ( 'NONE', ( #97 ), #147, .T. ) ;
#177 = DIRECTION ( 'NONE',  ( 1.000000000000000000, 0.0000000000000000000, 0.0000000000000000000 ) ) ;
#178 = ORIENTED_EDGE ( 'NONE', *, *, #127, .T. ) ;
#179 = COLOUR_RGB ( '',0.7921568627450980005, 0.8196078431372548767, 0.9333333333333333481 ) ;
#180 = CARTESIAN_POINT ( 'NONE',  ( 0.0000000000000000000, 0.0000000000000000000, 1.500000000000000222 ) ) ;
#181 = CIRCLE ( 'NONE', #196, 0.01563435000000001560 ) ;
#182 = FILL_AREA_STYLE_COLOUR ( '', #179 ) ;
#183 = APPLICATION_PROTOCOL_DEFINITION ( 'draft international standard', 'automotive_design', 1998, #271 ) ;
#184 = DIRECTION ( 'NONE',  ( 1.224646799147353700E-16, 0.0000000000000000000, 1.000000000000000000 ) ) ;
#185 = FACE_OUTER_BOUND ( 'NONE', #282, .T. ) ;
#186 = PRODUCT_DEFINITION_CONTEXT ( 'detailed design', #153, 'design' ) ;
#187 = DIRECTION ( 'NONE',  ( -1.224646799147353700E-16, -0.0000000000000000000, -1.000000000000000000 ) ) ;
#188 = EDGE_CURVE ( 'NONE', #99, #189, #70, .T. ) ;
#189 = VERTEX_POINT ( 'NONE', #26 ) ;
#190 = ORIENTED_EDGE ( 'NONE', *, *, #163, .F. ) ;
#191 = CARTESIAN_POINT ( 'NONE',  ( -0.01563435000000001560, 0.0000000000000000000, 1.914655668424944522E-18 ) ) ;
#192 = UNCERTAINTY_MEASURE_WITH_UNIT (LENGTH_MEASURE( 1.000000000000000082E-05 ), #260, 'distance_accuracy_value', 'NONE');
#193 = PRESENTATION_LAYER_ASSIGNMENT (  '', '', ( #267 ) ) ;
#194 = ORIENTED_EDGE ( 'NONE', *, *, #217, .F. ) ;
#195 = DIRECTION ( 'NONE',  ( -0.0000000000000000000, -0.0000000000000000000, -1.000000000000000000 ) ) ;
#196 = AXIS2_PLACEMENT_3D ( 'NONE', #173, #128, #150 ) ;
#197 = DIMENSIONAL_EXPONENTS ( 1.000000000000000000, 0.0000000000000000000, 0.0000000000000000000, 0.0000000000000000000, 0.0000000000000000000, 0.0000000000000000000, 0.0000000000000000000 ) ;
#198 = CARTESIAN_POINT ( 'NONE',  ( 1.914655668424943366E-18, 0.0000000000000000000, 0.01563435000000000172 ) ) ;
#199 = DIRECTION ( 'NONE',  ( -0.0000000000000000000, -0.0000000000000000000, -1.000000000000000000 ) ) ;
#200 = VERTEX_POINT ( 'NONE', #231 ) ;
#201 = DIRECTION ( 'NONE',  ( 0.0000000000000000000, 0.0000000000000000000, -1.000000000000000000 ) ) ;
#202 = ORIENTED_EDGE ( 'NONE', *, *, #308, .T. ) ;
#203 = DIRECTION ( 'NONE',  ( 0.7071067811865462405, 8.659560562354916834E-17, -0.7071067811865486830 ) ) ;
#204 = ORIENTED_EDGE ( 'NONE', *, *, #87, .T. ) ;
#205 = FACE_OUTER_BOUND ( 'NONE', #24, .T. ) ;
#206 = CYLINDRICAL_SURFACE ( 'NONE', #47, 0.01563435000000001560 ) ;
#207 = PRESENTATION_LAYER_ASSIGNMENT (  '', '', ( #21 ) ) ;
#208 =( LENGTH_UNIT ( ) NAMED_UNIT ( * ) SI_UNIT ( $, .METRE. ) );
#209 = PRESENTATION_STYLE_ASSIGNMENT (( #7 ) ) ;
#210 = DIRECTION ( 'NONE',  ( 0.0000000000000000000, 1.000000000000000000, 0.0000000000000000000 ) ) ;
#211 = ORIENTED_EDGE ( 'NONE', *, *, #226, .F. ) ;
#212 = DIRECTION ( 'NONE',  ( 0.0000000000000000000, 0.0000000000000000000, 1.000000000000000000 ) ) ;
#213 = DIRECTION ( 'NONE',  ( 1.000000000000000000, 0.0000000000000000000, 0.0000000000000000000 ) ) ;
#214 = CLOSED_SHELL ( 'NONE', ( #166, #107, #142, #29, #176, #66, #321, #94, #167, #115, #16 ) ) ;
#215 = CIRCLE ( 'NONE', #281, 0.06250000000000002776 ) ;
#216 = EDGE_CURVE ( 'NONE', #77, #219, #132, .T. ) ;
#217 = EDGE_CURVE ( 'NONE', #305, #131, #215, .T. ) ;
#218 = ORIENTED_EDGE ( 'NONE', *, *, #188, .F. ) ;
#219 = VERTEX_POINT ( 'NONE', #31 ) ;
#220 = ORIENTED_EDGE ( 'NONE', *, *, #308, .F. ) ;
#221 = DIRECTION ( 'NONE',  ( -0.0000000000000000000, -0.0000000000000000000, -1.000000000000000000 ) ) ;
#222 = VECTOR ( 'NONE', #187, 39.37007874015748143 ) ;
#223 = DIRECTION ( 'NONE',  ( 0.0000000000000000000, 0.0000000000000000000, -1.000000000000000000 ) ) ;
#224 = AXIS2_PLACEMENT_3D ( 'NONE', #306, #248, #78 ) ;
#225 = DIRECTION ( 'NONE',  ( 1.224646799147353700E-16, 0.0000000000000000000, 1.000000000000000000 ) ) ;
#226 = EDGE_CURVE ( 'NONE', #307, #169, #181, .T. ) ;
#227 = AXIS2_PLACEMENT_3D ( 'NONE', #35, #210, #314 ) ;
#228 = DIRECTION ( 'NONE',  ( 1.000000000000000000, 0.0000000000000000000, 0.0000000000000000000 ) ) ;
#229 = ORIENTED_EDGE ( 'NONE', *, *, #287, .F. ) ;
#230 = ORIENTED_EDGE ( 'NONE', *, *, #119, .F. ) ;
#231 = CARTESIAN_POINT ( 'NONE',  ( 0.04750000000000064587, 6.735557395310483192E-18, 1.500000000000000222 ) ) ;
#232 = DIRECTION ( 'NONE',  ( 0.1736481776669313859, 0.0000000000000000000, 0.9848077530122077983 ) ) ;
#233 = ORIENTED_EDGE ( 'NONE', *, *, #274, .T. ) ;
#234 = SURFACE_STYLE_FILL_AREA ( #62 ) ;
#235 = SPHERICAL_SURFACE ( 'NONE', #227, 0.01563435000000000172 ) ;
#236 = LINE ( 'NONE', #32, #246 ) ;
#237 = EDGE_CURVE ( 'NONE', #77, #307, #72, .T. ) ;
#238 = ORIENTED_EDGE ( 'NONE', *, *, #274, .F. ) ;
#239 = AXIS2_PLACEMENT_3D ( 'NONE', #138, #92, #241 ) ;
#240 = AXIS2_PLACEMENT_3D ( 'NONE', #46, #199, #252 ) ;
#241 = DIRECTION ( 'NONE',  ( -1.000000000000000000, 0.0000000000000000000, 0.0000000000000000000 ) ) ;
#242 = LINE ( 'NONE', #165, #276 ) ;
#243 = SPHERICAL_SURFACE ( 'NONE', #297, 0.01563435000000000172 ) ;
#244 = ADVANCED_BREP_SHAPE_REPRESENTATION ( 'Micro_BEM-031-03X', ( #103, #146 ), #310 ) ;
#245 = EDGE_CURVE ( 'NONE', #219, #77, #39, .T. ) ;
#246 = VECTOR ( 'NONE', #232, 39.37007874015748143 ) ;
#247 = CARTESIAN_POINT ( 'NONE',  ( 9.552245033349369302E-18, 0.0000000000000000000, 0.07800000000000009703 ) ) ;
#248 = DIRECTION ( 'NONE',  ( -1.224646799147353700E-16, -0.0000000000000000000, -1.000000000000000000 ) ) ;
#249 = DIRECTION ( 'NONE',  ( 0.0000000000000000000, 0.0000000000000000000, -1.000000000000000000 ) ) ;
#250 = ORIENTED_EDGE ( 'NONE', *, *, #45, .T. ) ;
#251 = CIRCLE ( 'NONE', #141, 0.04750000000000064587 ) ;
#252 = DIRECTION ( 'NONE',  ( -1.000000000000000000, 0.0000000000000000000, 0.0000000000000000000 ) ) ;
#253 = COLOUR_RGB ( '',0.7921568627450980005, 0.8196078431372548767, 0.9333333333333333481 ) ;
#254 = EDGE_LOOP ( 'NONE', ( #63, #17, #290, #202 ) ) ;
#255 = CARTESIAN_POINT ( 'NONE',  ( 0.0000000000000000000, 0.0000000000000000000, 0.0000000000000000000 ) ) ;
#256 = ORIENTED_EDGE ( 'NONE', *, *, #51, .F. ) ;
#257 = DIRECTION ( 'NONE',  ( -1.224646799147353700E-16, -0.0000000000000000000, -1.000000000000000000 ) ) ;
#258 = PRESENTATION_STYLE_ASSIGNMENT (( #264 ) ) ;
#259 = MECHANICAL_DESIGN_GEOMETRIC_PRESENTATION_REPRESENTATION (  '', ( #267 ), #162 ) ;
#260 =( CONVERSION_BASED_UNIT ( 'INCH', #61 ) LENGTH_UNIT ( ) NAMED_UNIT ( #197 ) );
#261 = LENGTH_MEASURE_WITH_UNIT ( LENGTH_MEASURE( 0.02539999999999999897 ), #102 );
#262 = EDGE_CURVE ( 'NONE', #319, #307, #98, .T. ) ;
#263 = PRODUCT_RELATED_PRODUCT_CATEGORY ( 'part', '', ( #116 ) ) ;
#264 = SURFACE_STYLE_USAGE ( .BOTH. , #109 ) ;
#265 = FACE_OUTER_BOUND ( 'NONE', #27, .T. ) ;
#266 = CYLINDRICAL_SURFACE ( 'NONE', #239, 0.06250000000000002776 ) ;
#267 = STYLED_ITEM ( 'NONE', ( #209 ), #103 ) ;
#268 = DIRECTION ( 'NONE',  ( -1.000000000000000000, 0.0000000000000000000, 0.0000000000000000000 ) ) ;
#269 = EDGE_CURVE ( 'NONE', #200, #99, #22, .T. ) ;
#270 = ORIENTED_EDGE ( 'NONE', *, *, #245, .T. ) ;
#271 = APPLICATION_CONTEXT ( 'automotive_design' ) ;
#272 = VECTOR ( 'NONE', #322, 39.37007874015748854 ) ;
#273 = AXIS2_PLACEMENT_3D ( 'NONE', #302, #56, #177 ) ;
#274 = EDGE_CURVE ( 'NONE', #131, #305, #172, .T. ) ;
#275 = DIRECTION ( 'NONE',  ( 1.000000000000000000, 0.0000000000000000000, 0.0000000000000000000 ) ) ;
#276 = VECTOR ( 'NONE', #195, 39.37007874015748143 ) ;
#277 = DIRECTION ( 'NONE',  ( -1.224646799147353700E-16, -0.0000000000000000000, -1.000000000000000000 ) ) ;
#278 = DIRECTION ( 'NONE',  ( -1.000000000000000000, 0.0000000000000000000, 1.365107116733476959E-16 ) ) ;
#279 = CARTESIAN_POINT ( 'NONE',  ( 0.01563435000000001560, 1.914655668424943751E-18, -1.914655668424944522E-18 ) ) ;
#280 = CARTESIAN_POINT ( 'NONE',  ( 0.0000000000000000000, 0.0000000000000000000, 1.500000000000000222 ) ) ;
#281 = AXIS2_PLACEMENT_3D ( 'NONE', #6, #123, #228 ) ;
#282 = EDGE_LOOP ( 'NONE', ( #40, #250, #233, #149 ) ) ;
#283 =( NAMED_UNIT ( * ) SI_UNIT ( $, .STERADIAN. ) SOLID_ANGLE_UNIT ( ) );
#284 = CARTESIAN_POINT ( 'NONE',  ( -0.06249999999999997918, 0.0000000000000000000, 0.3437883088095654016 ) ) ;
#285 = PRODUCT_CONTEXT ( 'NONE', #271, 'mechanical' ) ;
#286 = AXIS2_PLACEMENT_3D ( 'NONE', #14, #158, #110 ) ;
#287 = EDGE_CURVE ( 'NONE', #200, #42, #91, .T. ) ;
#288 = APPLICATION_PROTOCOL_DEFINITION ( 'draft international standard', 'automotive_design', 1998, #153 ) ;
#289 = DIRECTION ( 'NONE',  ( 1.224646799147353207E-16, 1.000000000000000000, -0.0000000000000000000 ) ) ;
#290 = ORIENTED_EDGE ( 'NONE', *, *, #38, .T. ) ;
#291 = LINE ( 'NONE', #296, #272 ) ;
#292 = CONICAL_SURFACE ( 'NONE', #33, 0.04750000000000064587, 0.7853981633974466137 ) ;
#293 = ORIENTED_EDGE ( 'NONE', *, *, #163, .T. ) ;
#294 = AXIS2_PLACEMENT_3D ( 'NONE', #100, #249, #125 ) ;
#295 = CARTESIAN_POINT ( 'NONE',  ( 0.0000000000000000000, 0.0000000000000000000, 1.500000000000000222 ) ) ;
#296 = CARTESIAN_POINT ( 'NONE',  ( -0.04750000000000064587, 0.0000000000000000000, 1.500000000000000222 ) ) ;
#297 = AXIS2_PLACEMENT_3D ( 'NONE', #89, #90, #118 ) ;
#298 = ORIENTED_EDGE ( 'NONE', *, *, #188, .T. ) ;
#299 = DIRECTION ( 'NONE',  ( -1.000000000000000000, 0.0000000000000000000, 0.0000000000000000000 ) ) ;
#300 = CARTESIAN_POINT ( 'NONE',  ( -0.01563435000000001213, 0.0000000000000000000, 0.01563435000000000519 ) ) ;
#301 = CIRCLE ( 'NONE', #43, 0.01563435000000000172 ) ;
#302 = CARTESIAN_POINT ( 'NONE',  ( 0.0000000000000000000, 0.0000000000000000000, 1.500000000000000222 ) ) ;
#303 = DIRECTION ( 'NONE',  ( -1.224646799147353700E-16, -0.0000000000000000000, -1.000000000000000000 ) ) ;
#304 = ORIENTED_EDGE ( 'NONE', *, *, #119, .T. ) ;
#305 = VERTEX_POINT ( 'NONE', #74 ) ;
#306 = CARTESIAN_POINT ( 'NONE',  ( 4.210192519679162135E-17, 0.0000000000000000000, 0.3437883088095654016 ) ) ;
#307 = VERTEX_POINT ( 'NONE', #23 ) ;
#308 = EDGE_CURVE ( 'NONE', #169, #307, #55, .T. ) ;
#309 = DIRECTION ( 'NONE',  ( -1.000000000000000000, 0.0000000000000000000, 1.224646799147353454E-16 ) ) ;
#310 =( GEOMETRIC_REPRESENTATION_CONTEXT ( 3 ) GLOBAL_UNCERTAINTY_ASSIGNED_CONTEXT ( ( #133 ) ) GLOBAL_UNIT_ASSIGNED_CONTEXT ( ( #96, #170, #1 ) ) REPRESENTATION_CONTEXT ( 'NONE', 'WORKASPACE' ) );
#311 = DIRECTION ( 'NONE',  ( 0.0000000000000000000, 0.0000000000000000000, -1.000000000000000000 ) ) ;
#312 = ORIENTED_EDGE ( 'NONE', *, *, #65, .T. ) ;
#313 =( NAMED_UNIT ( * ) PLANE_ANGLE_UNIT ( ) SI_UNIT ( $, .RADIAN. ) );
#314 = DIRECTION ( 'NONE',  ( 1.000000000000000000, 0.0000000000000000000, 0.0000000000000000000 ) ) ;
#315 = EDGE_LOOP ( 'NONE', ( #229, #79, #230, #67 ) ) ;
#316 = VECTOR ( 'NONE', #114, 39.37007874015747433 ) ;
#317 = DIRECTION ( 'NONE',  ( 1.000000000000000000, 0.0000000000000000000, 0.0000000000000000000 ) ) ;
#318 = FACE_OUTER_BOUND ( 'NONE', #168, .T. ) ;
#319 = VERTEX_POINT ( 'NONE', #76 ) ;
#320 = ORIENTED_EDGE ( 'NONE', *, *, #5, .F. ) ;
#321 = ADVANCED_FACE ( 'NONE', ( #52 ), #50, .T. ) ;
#322 = DIRECTION ( 'NONE',  ( -0.7071067811865462405, 0.0000000000000000000, -0.7071067811865486830 ) ) ;
#323 = LINE ( 'NONE', #93, #316 ) ;
#324 = AXIS2_PLACEMENT_3D ( 'NONE', #11, #311, #88 ) ;
#325 = VECTOR ( 'NONE', #171, 39.37007874015748143 ) ;
ENDSEC;
END-ISO-10303-21;
