ISO-10303-21;
HEADER;
FILE_DESCRIPTION (( 'STEP AP214' ),
    '1' );
FILE_NAME ('Micro_BEMM-030-4X.STEP',
    '2021-09-03T13:22:52',
    ( '' ),
    ( '' ),
    'SwSTEP 2.0',
    'SolidWorks 2020',
    '' );
FILE_SCHEMA (( 'AUTOMOTIVE_DESIGN' ));
ENDSEC;

DATA;
#1 = ORIENTED_EDGE ( 'NONE', *, *, #17, .F. ) ;
#2 = VERTEX_POINT ( 'NONE', #46 ) ;
#3 = CARTESIAN_POINT ( 'NONE',  ( 0.05899594500000004266, 0.0000000000000000000, 0.5905510000000000481 ) ) ;
#4 = ORIENTED_EDGE ( 'NONE', *, *, #114, .F. ) ;
#5 = DIRECTION ( 'NONE',  ( -1.000000000000000000, 0.0000000000000000000, 0.0000000000000000000 ) ) ;
#6 = ORIENTED_EDGE ( 'NONE', *, *, #186, .T. ) ;
#7 = ADVANCED_FACE ( 'NONE', ( #18 ), #247, .T. ) ;
#8 = DIRECTION ( 'NONE',  ( 0.0000000000000000000, 1.000000000000000000, 0.0000000000000000000 ) ) ;
#9 = PRODUCT ( 'Micro_BEMM-030-4X', 'Micro_BEMM-030-4X', '', ( #67 ) ) ;
#10 = CARTESIAN_POINT ( 'NONE',  ( 7.224919520692328148E-18, 0.0000000000000000000, 0.05899594499999999409 ) ) ;
#11 = FACE_OUTER_BOUND ( 'NONE', #230, .T. ) ;
#12 = PLANE ( 'NONE',  #201 ) ;
#13 = CARTESIAN_POINT ( 'NONE',  ( -0.04405500000000001082, 0.0000000000000000000, 1.496062999999999921 ) ) ;
#14 = LINE ( 'NONE', #185, #64 ) ;
#15 = DIRECTION ( 'NONE',  ( -1.000000000000000000, 0.0000000000000000000, 0.0000000000000000000 ) ) ;
#16 = AXIS2_PLACEMENT_3D ( 'NONE', #294, #246, #15 ) ;
#17 = EDGE_CURVE ( 'NONE', #124, #103, #21, .T. ) ;
#18 = FACE_OUTER_BOUND ( 'NONE', #171, .T. ) ;
#19 = DIRECTION ( 'NONE',  ( -1.000000000000000000, 0.0000000000000000000, 0.0000000000000000000 ) ) ;
#20 = DIRECTION ( 'NONE',  ( -0.0000000000000000000, -0.0000000000000000000, -1.000000000000000000 ) ) ;
#21 = CIRCLE ( 'NONE', #142, 0.04405500000000001082 ) ;
#22 = ORIENTED_EDGE ( 'NONE', *, *, #99, .T. ) ;
#23 = EDGE_LOOP ( 'NONE', ( #1, #172, #71, #208 ) ) ;
#24 = SPHERICAL_SURFACE ( 'NONE', #121, 0.05899594499999999409 ) ;
#25 = AXIS2_PLACEMENT_3D ( 'NONE', #210, #135, #239 ) ;
#26 = AXIS2_PLACEMENT_3D ( 'NONE', #33, #236, #115 ) ;
#27 = ORIENTED_EDGE ( 'NONE', *, *, #91, .T. ) ;
#28 = CARTESIAN_POINT ( 'NONE',  ( -0.05905499999999991312, 0.0000000000000000000, 0.5908859175478575754 ) ) ;
#29 = CARTESIAN_POINT ( 'NONE',  ( 0.0000000000000000000, 0.0000000000000000000, 1.481063000000000240 ) ) ;
#30 = EDGE_LOOP ( 'NONE', ( #27, #222, #4, #75 ) ) ;
#31 = EDGE_CURVE ( 'NONE', #147, #73, #166, .T. ) ;
#32 = DIRECTION ( 'NONE',  ( -1.000000000000000000, 0.0000000000000000000, 1.224646799147352714E-16 ) ) ;
#33 = CARTESIAN_POINT ( 'NONE',  ( 0.0000000000000000000, 0.0000000000000000000, 1.496062999999999921 ) ) ;
#34 = DIRECTION ( 'NONE',  ( 0.0000000000000000000, 0.0000000000000000000, 1.000000000000000000 ) ) ;
#35 = CARTESIAN_POINT ( 'NONE',  ( 0.05905499999999998251, 7.232151672364692341E-18, 1.481063000000000240 ) ) ;
#36 = CYLINDRICAL_SURFACE ( 'NONE', #25, 0.05899594499999997327 ) ;
#37 = UNCERTAINTY_MEASURE_WITH_UNIT (LENGTH_MEASURE( 1.000000000000000082E-05 ), #255, 'distance_accuracy_value', 'NONE');
#38 =( NAMED_UNIT ( * ) SI_UNIT ( $, .STERADIAN. ) SOLID_ANGLE_UNIT ( ) );
#39 = DIRECTION ( 'NONE',  ( -1.224646799147352961E-16, -0.0000000000000000000, -1.000000000000000000 ) ) ;
#40 = CIRCLE ( 'NONE', #123, 0.05905499999999998251 ) ;
#41 = AXIS2_PLACEMENT_3D ( 'NONE', #248, #275, #253 ) ;
#42 = CIRCLE ( 'NONE', #282, 0.04405500000000001082 ) ;
#43 = ORIENTED_EDGE ( 'NONE', *, *, #80, .T. ) ;
#44 = ORIENTED_EDGE ( 'NONE', *, *, #31, .F. ) ;
#45 = CARTESIAN_POINT ( 'NONE',  ( 0.0000000000000000000, 0.0000000000000000000, 1.496062999999999921 ) ) ;
#46 = CARTESIAN_POINT ( 'NONE',  ( -0.05905499999999998251, 0.0000000000000000000, 1.481063000000000240 ) ) ;
#47 = FACE_OUTER_BOUND ( 'NONE', #50, .T. ) ;
#48 = DIRECTION ( 'NONE',  ( 1.224646799147352961E-16, 0.0000000000000000000, 1.000000000000000000 ) ) ;
#49 = STYLED_ITEM ( 'NONE', ( #194 ), #66 ) ;
#50 = EDGE_LOOP ( 'NONE', ( #211, #174, #321 ) ) ;
#51 = FACE_OUTER_BOUND ( 'NONE', #23, .T. ) ;
#52 = CARTESIAN_POINT ( 'NONE',  ( 0.0000000000000000000, 0.0000000000000000000, 0.0000000000000000000 ) ) ;
#53 = CARTESIAN_POINT ( 'NONE',  ( 7.224919520692328148E-18, 0.0000000000000000000, 0.05899594499999999409 ) ) ;
#54 = CARTESIAN_POINT ( 'NONE',  ( 0.05899594499999997327, 7.224919520692326607E-18, -7.224919520692323526E-18 ) ) ;
#55 = VECTOR ( 'NONE', #266, 39.37007874015748143 ) ;
#56 = PRESENTATION_LAYER_ASSIGNMENT (  '', '', ( #203 ) ) ;
#57 = DIRECTION ( 'NONE',  ( 0.0000000000000000000, 0.0000000000000000000, -1.000000000000000000 ) ) ;
#58 = ADVANCED_FACE ( 'NONE', ( #143 ), #59, .T. ) ;
#59 = CYLINDRICAL_SURFACE ( 'NONE', #16, 0.05905499999999998251 ) ;
#60 = CARTESIAN_POINT ( 'NONE',  ( 7.236265475862304269E-17, 0.0000000000000000000, 0.5908859175478575754 ) ) ;
#61 = SURFACE_SIDE_STYLE ('',( #118 ) ) ;
#62 =( NAMED_UNIT ( * ) PLANE_ANGLE_UNIT ( ) SI_UNIT ( $, .RADIAN. ) );
#63 = EDGE_LOOP ( 'NONE', ( #280, #307 ) ) ;
#64 = VECTOR ( 'NONE', #259, 39.37007874015748143 ) ;
#65 = CONICAL_SURFACE ( 'NONE', #26, 0.04405500000000001082, 0.7853981633974570498 ) ;
#66 = MANIFOLD_SOLID_BREP ( 'Fillet1', #220 ) ;
#67 = PRODUCT_CONTEXT ( 'NONE', #196, 'mechanical' ) ;
#68 =( LENGTH_UNIT ( ) NAMED_UNIT ( * ) SI_UNIT ( $, .METRE. ) );
#69 = PRODUCT_RELATED_PRODUCT_CATEGORY ( 'part', '', ( #9 ) ) ;
#70 = CIRCLE ( 'NONE', #128, 0.05899594499999997327 ) ;
#71 = ORIENTED_EDGE ( 'NONE', *, *, #91, .F. ) ;
#72 = CARTESIAN_POINT ( 'NONE',  ( 1.083737928103849376E-17, 0.0000000000000000000, 0.0000000000000000000 ) ) ;
#73 = VERTEX_POINT ( 'NONE', #120 ) ;
#74 = LINE ( 'NONE', #54, #244 ) ;
#75 = ORIENTED_EDGE ( 'NONE', *, *, #322, .F. ) ;
#76 = AXIS2_PLACEMENT_3D ( 'NONE', #53, #48, #113 ) ;
#77 = ORIENTED_EDGE ( 'NONE', *, *, #186, .F. ) ;
#78 = CARTESIAN_POINT ( 'NONE',  ( -0.05899594499999997327, 0.0000000000000000000, 7.224919520692323526E-18 ) ) ;
#79 = UNCERTAINTY_MEASURE_WITH_UNIT (LENGTH_MEASURE( 1.000000000000000082E-05 ), #251, 'distance_accuracy_value', 'NONE');
#80 = EDGE_CURVE ( 'NONE', #301, #254, #252, .T. ) ;
#81 = DIRECTION ( 'NONE',  ( 0.0000000000000000000, -1.000000000000000000, 0.0000000000000000000 ) ) ;
#82 = DIRECTION ( 'NONE',  ( -0.0000000000000000000, -0.0000000000000000000, -1.000000000000000000 ) ) ;
#83 = AXIS2_PLACEMENT_3D ( 'NONE', #183, #214, #235 ) ;
#84 = CIRCLE ( 'NONE', #273, 0.05899594499999999409 ) ;
#85 = ADVANCED_FACE ( 'NONE', ( #141 ), #86, .T. ) ;
#86 = CYLINDRICAL_SURFACE ( 'NONE', #289, 0.05905499999999998251 ) ;
#87 = EDGE_CURVE ( 'NONE', #124, #258, #219, .T. ) ;
#88 = CARTESIAN_POINT ( 'NONE',  ( 7.224919520692328148E-18, 0.0000000000000000000, 0.05899594499999999409 ) ) ;
#89 = CIRCLE ( 'NONE', #169, 0.05905499999999998251 ) ;
#90 = PRODUCT_DEFINITION_SHAPE ( 'NONE', 'NONE',  #107 ) ;
#91 = EDGE_CURVE ( 'NONE', #2, #258, #40, .T. ) ;
#92 = EDGE_LOOP ( 'NONE', ( #105, #256, #6, #176 ) ) ;
#93 =( LENGTH_UNIT ( ) NAMED_UNIT ( * ) SI_UNIT ( $, .METRE. ) );
#94 = ORIENTED_EDGE ( 'NONE', *, *, #190, .F. ) ;
#95 = SURFACE_SIDE_STYLE ('',( #325 ) ) ;
#96 = CONICAL_SURFACE ( 'NONE', #83, 0.05899594499999997327, 0.1745329251994346687 ) ;
#97 =( NAMED_UNIT ( * ) SI_UNIT ( $, .STERADIAN. ) SOLID_ANGLE_UNIT ( ) );
#98 = LENGTH_MEASURE_WITH_UNIT ( LENGTH_MEASURE( 0.02539999999999999897 ), #93 );
#99 = EDGE_CURVE ( 'NONE', #278, #301, #134, .T. ) ;
#100 = VERTEX_POINT ( 'NONE', #72 ) ;
#101 = AXIS2_PLACEMENT_3D ( 'NONE', #60, #39, #144 ) ;
#102 = AXIS2_PLACEMENT_3D ( 'NONE', #314, #81, #57 ) ;
#103 = VERTEX_POINT ( 'NONE', #129 ) ;
#104 = DIRECTION ( 'NONE',  ( 0.1736481776669321631, 0.0000000000000000000, 0.9848077530122076872 ) ) ;
#105 = ORIENTED_EDGE ( 'NONE', *, *, #122, .F. ) ;
#106 = DIRECTION ( 'NONE',  ( 0.0000000000000000000, 0.0000000000000000000, 1.000000000000000000 ) ) ;
#107 = PRODUCT_DEFINITION ( 'UNKNOWN', '', #117, #193 ) ;
#108 = DIRECTION ( 'NONE',  ( -1.224646799147352961E-16, -0.0000000000000000000, -1.000000000000000000 ) ) ;
#109 = EDGE_LOOP ( 'NONE', ( #310, #151, #44 ) ) ;
#110 = CARTESIAN_POINT ( 'NONE',  ( 0.05899594500000004266, 0.0000000000000000000, 0.5905510000000000481 ) ) ;
#111 = CARTESIAN_POINT ( 'NONE',  ( 7.224919520692328148E-18, 0.0000000000000000000, 0.05899594499999999409 ) ) ;
#112 = COLOUR_RGB ( '',0.7921568627450980005, 0.8196078431372548767, 0.9333333333333333481 ) ;
#113 = DIRECTION ( 'NONE',  ( -1.000000000000000000, 0.0000000000000000000, 1.447052840699615392E-16 ) ) ;
#114 = EDGE_CURVE ( 'NONE', #254, #301, #264, .T. ) ;
#115 = DIRECTION ( 'NONE',  ( -1.000000000000000000, 0.0000000000000000000, 0.0000000000000000000 ) ) ;
#116 = FACE_OUTER_BOUND ( 'NONE', #132, .T. ) ;
#117 = PRODUCT_DEFINITION_FORMATION_WITH_SPECIFIED_SOURCE ( 'ANY', '', #9, .NOT_KNOWN. ) ;
#118 = SURFACE_STYLE_FILL_AREA ( #188 ) ;
#119 = AXIS2_PLACEMENT_3D ( 'NONE', #88, #215, #290 ) ;
#120 = CARTESIAN_POINT ( 'NONE',  ( 0.05899594499999998021, 7.224919520692326607E-18, 0.05899594499999998715 ) ) ;
#121 = AXIS2_PLACEMENT_3D ( 'NONE', #111, #8, #157 ) ;
#122 = EDGE_CURVE ( 'NONE', #278, #73, #74, .T. ) ;
#123 = AXIS2_PLACEMENT_3D ( 'NONE', #207, #313, #288 ) ;
#124 = VERTEX_POINT ( 'NONE', #177 ) ;
#125 = ADVANCED_FACE ( 'NONE', ( #260 ), #24, .T. ) ;
#126 = ORIENTED_EDGE ( 'NONE', *, *, #197, .T. ) ;
#127 = AXIS2_PLACEMENT_3D ( 'NONE', #212, #108, #152 ) ;
#128 = AXIS2_PLACEMENT_3D ( 'NONE', #267, #243, #191 ) ;
#129 = CARTESIAN_POINT ( 'NONE',  ( -0.04405500000000001082, 0.0000000000000000000, 1.496062999999999921 ) ) ;
#130 = ORIENTED_EDGE ( 'NONE', *, *, #80, .F. ) ;
#131 = FACE_OUTER_BOUND ( 'NONE', #92, .T. ) ;
#132 = EDGE_LOOP ( 'NONE', ( #304, #223, #156, #77 ) ) ;
#133 = DIRECTION ( 'NONE',  ( 1.000000000000000000, 0.0000000000000000000, -0.0000000000000000000 ) ) ;
#134 = LINE ( 'NONE', #3, #227 ) ;
#135 = DIRECTION ( 'NONE',  ( -1.224646799147352961E-16, -0.0000000000000000000, -1.000000000000000000 ) ) ;
#136 = CONICAL_SURFACE ( 'NONE', #272, 0.04405500000000001082, 0.7853981633974570498 ) ;
#137 = UNCERTAINTY_MEASURE_WITH_UNIT (LENGTH_MEASURE( 1.000000000000000082E-05 ), #318, 'distance_accuracy_value', 'NONE');
#138 = FACE_OUTER_BOUND ( 'NONE', #274, .T. ) ;
#139 = FILL_AREA_STYLE_COLOUR ( '', #112 ) ;
#140 = ADVANCED_FACE ( 'NONE', ( #138 ), #96, .T. ) ;
#141 = FACE_OUTER_BOUND ( 'NONE', #150, .T. ) ;
#142 = AXIS2_PLACEMENT_3D ( 'NONE', #217, #315, #163 ) ;
#143 = FACE_OUTER_BOUND ( 'NONE', #30, .T. ) ;
#144 = DIRECTION ( 'NONE',  ( 1.000000000000000000, 0.0000000000000000000, 0.0000000000000000000 ) ) ;
#145 = ADVANCED_FACE ( 'NONE', ( #11 ), #136, .T. ) ;
#146 = MECHANICAL_DESIGN_GEOMETRIC_PRESENTATION_REPRESENTATION (  '', ( #49 ), #187 ) ;
#147 = VERTEX_POINT ( 'NONE', #279 ) ;
#148 = EDGE_CURVE ( 'NONE', #73, #147, #195, .T. ) ;
#149 = PRESENTATION_STYLE_ASSIGNMENT (( #224 ) ) ;
#150 = EDGE_LOOP ( 'NONE', ( #277, #126, #261, #130 ) ) ;
#151 = ORIENTED_EDGE ( 'NONE', *, *, #305, .T. ) ;
#152 = DIRECTION ( 'NONE',  ( -1.000000000000000000, 0.0000000000000000000, 0.0000000000000000000 ) ) ;
#153 = EDGE_CURVE ( 'NONE', #283, #278, #323, .T. ) ;
#154 = ORIENTED_EDGE ( 'NONE', *, *, #153, .F. ) ;
#155 = DIRECTION ( 'NONE',  ( 1.000000000000000000, 0.0000000000000000000, 0.0000000000000000000 ) ) ;
#156 = ORIENTED_EDGE ( 'NONE', *, *, #148, .T. ) ;
#157 = DIRECTION ( 'NONE',  ( 1.000000000000000000, 0.0000000000000000000, 0.0000000000000000000 ) ) ;
#158 = DIRECTION ( 'NONE',  ( -0.7071067811865536790, 0.0000000000000000000, -0.7071067811865412445 ) ) ;
#159 = CARTESIAN_POINT ( 'NONE',  ( 0.0000000000000000000, 0.0000000000000000000, 1.496062999999999921 ) ) ;
#160 =( GEOMETRIC_REPRESENTATION_CONTEXT ( 3 ) GLOBAL_UNCERTAINTY_ASSIGNED_CONTEXT ( ( #37 ) ) GLOBAL_UNIT_ASSIGNED_CONTEXT ( ( #255, #226, #97 ) ) REPRESENTATION_CONTEXT ( 'NONE', 'WORKASPACE' ) );
#161 = DIRECTION ( 'NONE',  ( 1.000000000000000000, 0.0000000000000000000, 0.0000000000000000000 ) ) ;
#162 = SURFACE_STYLE_USAGE ( .BOTH. , #61 ) ;
#163 = DIRECTION ( 'NONE',  ( 1.000000000000000000, 0.0000000000000000000, 0.0000000000000000000 ) ) ;
#164 = EDGE_CURVE ( 'NONE', #103, #124, #42, .T. ) ;
#165 = LINE ( 'NONE', #292, #170 ) ;
#166 = CIRCLE ( 'NONE', #119, 0.05899594499999997327 ) ;
#167 = APPLICATION_PROTOCOL_DEFINITION ( 'draft international standard', 'automotive_design', 1998, #218 ) ;
#168 = APPLICATION_PROTOCOL_DEFINITION ( 'draft international standard', 'automotive_design', 1998, #196 ) ;
#169 = AXIS2_PLACEMENT_3D ( 'NONE', #29, #233, #287 ) ;
#170 = VECTOR ( 'NONE', #20, 39.37007874015748143 ) ;
#171 = EDGE_LOOP ( 'NONE', ( #94, #298, #22, #43 ) ) ;
#172 = ORIENTED_EDGE ( 'NONE', *, *, #87, .T. ) ;
#173 = VECTOR ( 'NONE', #158, 39.37007874015748854 ) ;
#174 = ORIENTED_EDGE ( 'NONE', *, *, #302, .T. ) ;
#175 = DIRECTION ( 'NONE',  ( 1.000000000000000000, 0.0000000000000000000, 0.0000000000000000000 ) ) ;
#176 = ORIENTED_EDGE ( 'NONE', *, *, #31, .T. ) ;
#177 = CARTESIAN_POINT ( 'NONE',  ( 0.04405500000000001082, 6.313666573004179469E-18, 1.496062999999999921 ) ) ;
#178 = ORIENTED_EDGE ( 'NONE', *, *, #164, .F. ) ;
#179 = CARTESIAN_POINT ( 'NONE',  ( 7.236265475862304269E-17, 0.0000000000000000000, 0.5908859175478575754 ) ) ;
#180 = SPHERICAL_SURFACE ( 'NONE', #221, 0.05899594499999999409 ) ;
#181 = CARTESIAN_POINT ( 'NONE',  ( -0.05899594499999990388, 7.224919520692326607E-18, 0.5905510000000000481 ) ) ;
#182 = DIRECTION ( 'NONE',  ( -1.000000000000000000, 1.224646799147353454E-16, 0.0000000000000000000 ) ) ;
#183 = CARTESIAN_POINT ( 'NONE',  ( 7.232163918832683761E-17, 0.0000000000000000000, 0.5905510000000000481 ) ) ;
#184 = DIMENSIONAL_EXPONENTS ( 1.000000000000000000, 0.0000000000000000000, 0.0000000000000000000, 0.0000000000000000000, 0.0000000000000000000, 0.0000000000000000000, 0.0000000000000000000 ) ;
#185 = CARTESIAN_POINT ( 'NONE',  ( 0.05905499999999998251, 7.232151672364692341E-18, 1.496062999999999921 ) ) ;
#186 = EDGE_CURVE ( 'NONE', #283, #147, #311, .T. ) ;
#187 =( GEOMETRIC_REPRESENTATION_CONTEXT ( 3 ) GLOBAL_UNCERTAINTY_ASSIGNED_CONTEXT ( ( #137 ) ) GLOBAL_UNIT_ASSIGNED_CONTEXT ( ( #318, #271, #38 ) ) REPRESENTATION_CONTEXT ( 'NONE', 'WORKASPACE' ) );
#188 = FILL_AREA_STYLE ('',( #139 ) ) ;
#189 =( GEOMETRIC_REPRESENTATION_CONTEXT ( 3 ) GLOBAL_UNCERTAINTY_ASSIGNED_CONTEXT ( ( #79 ) ) GLOBAL_UNIT_ASSIGNED_CONTEXT ( ( #251, #62, #198 ) ) REPRESENTATION_CONTEXT ( 'NONE', 'WORKASPACE' ) );
#190 = EDGE_CURVE ( 'NONE', #283, #254, #257, .T. ) ;
#191 = DIRECTION ( 'NONE',  ( -1.000000000000000000, 0.0000000000000000000, 0.0000000000000000000 ) ) ;
#192 = CARTESIAN_POINT ( 'NONE',  ( 0.0000000000000000000, 0.0000000000000000000, 1.496062999999999921 ) ) ;
#193 = PRODUCT_DEFINITION_CONTEXT ( 'detailed design', #218, 'design' ) ;
#194 = PRESENTATION_STYLE_ASSIGNMENT (( #162 ) ) ;
#195 = CIRCLE ( 'NONE', #76, 0.05899594499999997327 ) ;
#196 = APPLICATION_CONTEXT ( 'automotive_design' ) ;
#197 = EDGE_CURVE ( 'NONE', #258, #2, #89, .T. ) ;
#198 =( NAMED_UNIT ( * ) SI_UNIT ( $, .STERADIAN. ) SOLID_ANGLE_UNIT ( ) );
#199 = ADVANCED_FACE ( 'NONE', ( #131 ), #36, .T. ) ;
#200 = ADVANCED_BREP_SHAPE_REPRESENTATION ( 'Micro_BEMM-030-4X', ( #66, #41 ), #160 ) ;
#201 = AXIS2_PLACEMENT_3D ( 'NONE', #232, #106, #133 ) ;
#202 = ORIENTED_EDGE ( 'NONE', *, *, #197, .F. ) ;
#203 = STYLED_ITEM ( 'NONE', ( #149 ), #200 ) ;
#204 = ORIENTED_EDGE ( 'NONE', *, *, #206, .T. ) ;
#205 = CARTESIAN_POINT ( 'NONE',  ( 0.05905500000000004496, 7.232151672364700045E-18, 0.5908859175478575754 ) ) ;
#206 = EDGE_CURVE ( 'NONE', #103, #2, #238, .T. ) ;
#207 = CARTESIAN_POINT ( 'NONE',  ( 0.0000000000000000000, 0.0000000000000000000, 1.481063000000000240 ) ) ;
#208 = ORIENTED_EDGE ( 'NONE', *, *, #206, .F. ) ;
#209 = ADVANCED_FACE ( 'NONE', ( #116 ), #303, .T. ) ;
#210 = CARTESIAN_POINT ( 'NONE',  ( 0.0000000000000000000, 0.0000000000000000000, 0.0000000000000000000 ) ) ;
#211 = ORIENTED_EDGE ( 'NONE', *, *, #305, .F. ) ;
#212 = CARTESIAN_POINT ( 'NONE',  ( 7.232163918832683761E-17, 0.0000000000000000000, 0.5905510000000000481 ) ) ;
#213 = DIMENSIONAL_EXPONENTS ( 1.000000000000000000, 0.0000000000000000000, 0.0000000000000000000, 0.0000000000000000000, 0.0000000000000000000, 0.0000000000000000000, 0.0000000000000000000 ) ;
#214 = DIRECTION ( 'NONE',  ( 1.224646799147352961E-16, 0.0000000000000000000, 1.000000000000000000 ) ) ;
#215 = DIRECTION ( 'NONE',  ( 1.224646799147352961E-16, 0.0000000000000000000, 1.000000000000000000 ) ) ;
#216 = AXIS2_PLACEMENT_3D ( 'NONE', #52, #262, #32 ) ;
#217 = CARTESIAN_POINT ( 'NONE',  ( 0.0000000000000000000, 0.0000000000000000000, 1.496062999999999921 ) ) ;
#218 = APPLICATION_CONTEXT ( 'automotive_design' ) ;
#219 = LINE ( 'NONE', #229, #309 ) ;
#220 = CLOSED_SHELL ( 'NONE', ( #231, #209, #140, #297, #58, #85, #250, #145, #7, #199, #125 ) ) ;
#221 = AXIS2_PLACEMENT_3D ( 'NONE', #286, #241, #161 ) ;
#222 = ORIENTED_EDGE ( 'NONE', *, *, #291, .T. ) ;
#223 = ORIENTED_EDGE ( 'NONE', *, *, #122, .T. ) ;
#224 = SURFACE_STYLE_USAGE ( .BOTH. , #95 ) ;
#225 = ORIENTED_EDGE ( 'NONE', *, *, #190, .T. ) ;
#226 =( NAMED_UNIT ( * ) PLANE_ANGLE_UNIT ( ) SI_UNIT ( $, .RADIAN. ) );
#227 = VECTOR ( 'NONE', #104, 39.37007874015748854 ) ;
#228 = ORIENTED_EDGE ( 'NONE', *, *, #114, .T. ) ;
#229 = CARTESIAN_POINT ( 'NONE',  ( 0.04405500000000001082, 5.395181473643666598E-18, 1.496062999999999921 ) ) ;
#230 = EDGE_LOOP ( 'NONE', ( #234, #178, #204, #202 ) ) ;
#231 = ADVANCED_FACE ( 'NONE', ( #47 ), #180, .T. ) ;
#232 = CARTESIAN_POINT ( 'NONE',  ( 0.0000000000000000000, 0.0000000000000000000, 1.496062999999999921 ) ) ;
#233 = DIRECTION ( 'NONE',  ( 0.0000000000000000000, 0.0000000000000000000, -1.000000000000000000 ) ) ;
#234 = ORIENTED_EDGE ( 'NONE', *, *, #87, .F. ) ;
#235 = DIRECTION ( 'NONE',  ( 1.000000000000000000, 0.0000000000000000000, 0.0000000000000000000 ) ) ;
#236 = DIRECTION ( 'NONE',  ( 0.0000000000000000000, 0.0000000000000000000, -1.000000000000000000 ) ) ;
#237 = VECTOR ( 'NONE', #263, 39.37007874015748143 ) ;
#238 = LINE ( 'NONE', #13, #173 ) ;
#239 = DIRECTION ( 'NONE',  ( -1.000000000000000000, 0.0000000000000000000, 1.224646799147352714E-16 ) ) ;
#240 = DIMENSIONAL_EXPONENTS ( 1.000000000000000000, 0.0000000000000000000, 0.0000000000000000000, 0.0000000000000000000, 0.0000000000000000000, 0.0000000000000000000, 0.0000000000000000000 ) ;
#241 = DIRECTION ( 'NONE',  ( 0.0000000000000000000, 1.000000000000000000, 0.0000000000000000000 ) ) ;
#242 =( LENGTH_UNIT ( ) NAMED_UNIT ( * ) SI_UNIT ( $, .METRE. ) );
#243 = DIRECTION ( 'NONE',  ( -1.224646799147352961E-16, -0.0000000000000000000, -1.000000000000000000 ) ) ;
#244 = VECTOR ( 'NONE', #285, 39.37007874015748143 ) ;
#245 = DIRECTION ( 'NONE',  ( 1.000000000000000000, 0.0000000000000000000, 0.0000000000000000000 ) ) ;
#246 = DIRECTION ( 'NONE',  ( -0.0000000000000000000, -0.0000000000000000000, -1.000000000000000000 ) ) ;
#247 = CONICAL_SURFACE ( 'NONE', #299, 0.05899594499999997327, 0.1745329251994346687 ) ;
#248 = CARTESIAN_POINT ( 'NONE',  ( 0.0000000000000000000, 0.0000000000000000000, 0.0000000000000000000 ) ) ;
#249 = MECHANICAL_DESIGN_GEOMETRIC_PRESENTATION_REPRESENTATION (  '', ( #203 ), #189 ) ;
#250 = ADVANCED_FACE ( 'NONE', ( #265 ), #12, .T. ) ;
#251 =( CONVERSION_BASED_UNIT ( 'INCH', #98 ) LENGTH_UNIT ( ) NAMED_UNIT ( #184 ) );
#252 = CIRCLE ( 'NONE', #101, 0.05905499999999998251 ) ;
#253 = DIRECTION ( 'NONE',  ( 1.000000000000000000, 0.0000000000000000000, 0.0000000000000000000 ) ) ;
#254 = VERTEX_POINT ( 'NONE', #28 ) ;
#255 =( CONVERSION_BASED_UNIT ( 'INCH', #276 ) LENGTH_UNIT ( ) NAMED_UNIT ( #213 ) );
#256 = ORIENTED_EDGE ( 'NONE', *, *, #317, .T. ) ;
#257 = LINE ( 'NONE', #181, #55 ) ;
#258 = VERTEX_POINT ( 'NONE', #35 ) ;
#259 = DIRECTION ( 'NONE',  ( -0.0000000000000000000, -0.0000000000000000000, -1.000000000000000000 ) ) ;
#260 = FACE_OUTER_BOUND ( 'NONE', #109, .T. ) ;
#261 = ORIENTED_EDGE ( 'NONE', *, *, #322, .T. ) ;
#262 = DIRECTION ( 'NONE',  ( -1.224646799147352961E-16, -0.0000000000000000000, -1.000000000000000000 ) ) ;
#263 = DIRECTION ( 'NONE',  ( -1.224646799147352961E-16, -0.0000000000000000000, -1.000000000000000000 ) ) ;
#264 = CIRCLE ( 'NONE', #293, 0.05905499999999998251 ) ;
#265 = FACE_OUTER_BOUND ( 'NONE', #63, .T. ) ;
#266 = DIRECTION ( 'NONE',  ( -0.1736481776669319688, 2.126576849575792869E-17, 0.9848077530122077983 ) ) ;
#267 = CARTESIAN_POINT ( 'NONE',  ( 7.232163918832683761E-17, 0.0000000000000000000, 0.5905510000000000481 ) ) ;
#268 = CARTESIAN_POINT ( 'NONE',  ( 7.232163918832683761E-17, 0.0000000000000000000, 0.5905510000000000481 ) ) ;
#269 = LENGTH_MEASURE_WITH_UNIT ( LENGTH_MEASURE( 0.02539999999999999897 ), #242 );
#270 = PRESENTATION_LAYER_ASSIGNMENT (  '', '', ( #49 ) ) ;
#271 =( NAMED_UNIT ( * ) PLANE_ANGLE_UNIT ( ) SI_UNIT ( $, .RADIAN. ) );
#272 = AXIS2_PLACEMENT_3D ( 'NONE', #159, #281, #5 ) ;
#273 = AXIS2_PLACEMENT_3D ( 'NONE', #10, #312, #182 ) ;
#274 = EDGE_LOOP ( 'NONE', ( #154, #225, #228, #295 ) ) ;
#275 = DIRECTION ( 'NONE',  ( 0.0000000000000000000, 0.0000000000000000000, 1.000000000000000000 ) ) ;
#276 = LENGTH_MEASURE_WITH_UNIT ( LENGTH_MEASURE( 0.02539999999999999897 ), #68 );
#277 = ORIENTED_EDGE ( 'NONE', *, *, #291, .F. ) ;
#278 = VERTEX_POINT ( 'NONE', #110 ) ;
#279 = CARTESIAN_POINT ( 'NONE',  ( -0.05899594499999995939, 0.0000000000000000000, 0.05899594500000000796 ) ) ;
#280 = ORIENTED_EDGE ( 'NONE', *, *, #164, .T. ) ;
#281 = DIRECTION ( 'NONE',  ( 0.0000000000000000000, 0.0000000000000000000, -1.000000000000000000 ) ) ;
#282 = AXIS2_PLACEMENT_3D ( 'NONE', #45, #34, #155 ) ;
#283 = VERTEX_POINT ( 'NONE', #284 ) ;
#284 = CARTESIAN_POINT ( 'NONE',  ( -0.05899594499999990388, 7.228535596528510244E-18, 0.5905510000000000481 ) ) ;
#285 = DIRECTION ( 'NONE',  ( -1.224646799147352961E-16, -0.0000000000000000000, -1.000000000000000000 ) ) ;
#286 = CARTESIAN_POINT ( 'NONE',  ( 7.224919520692328148E-18, 0.0000000000000000000, 0.05899594499999999409 ) ) ;
#287 = DIRECTION ( 'NONE',  ( 1.000000000000000000, 0.0000000000000000000, 0.0000000000000000000 ) ) ;
#288 = DIRECTION ( 'NONE',  ( 1.000000000000000000, 0.0000000000000000000, 0.0000000000000000000 ) ) ;
#289 = AXIS2_PLACEMENT_3D ( 'NONE', #192, #82, #19 ) ;
#290 = DIRECTION ( 'NONE',  ( -1.000000000000000000, 0.0000000000000000000, 1.447052840699615392E-16 ) ) ;
#291 = EDGE_CURVE ( 'NONE', #258, #301, #14, .T. ) ;
#292 = CARTESIAN_POINT ( 'NONE',  ( -0.05905499999999998251, 0.0000000000000000000, 1.496062999999999921 ) ) ;
#293 = AXIS2_PLACEMENT_3D ( 'NONE', #179, #306, #175 ) ;
#294 = CARTESIAN_POINT ( 'NONE',  ( 0.0000000000000000000, 0.0000000000000000000, 1.496062999999999921 ) ) ;
#295 = ORIENTED_EDGE ( 'NONE', *, *, #99, .F. ) ;
#296 = FILL_AREA_STYLE_COLOUR ( '', #300 ) ;
#297 = ADVANCED_FACE ( 'NONE', ( #51 ), #65, .T. ) ;
#298 = ORIENTED_EDGE ( 'NONE', *, *, #317, .F. ) ;
#299 = AXIS2_PLACEMENT_3D ( 'NONE', #268, #319, #245 ) ;
#300 = COLOUR_RGB ( '',0.7921568627450980005, 0.8196078431372548767, 0.9333333333333333481 ) ;
#301 = VERTEX_POINT ( 'NONE', #205 ) ;
#302 = EDGE_CURVE ( 'NONE', #100, #147, #84, .T. ) ;
#303 = CYLINDRICAL_SURFACE ( 'NONE', #216, 0.05899594499999997327 ) ;
#304 = ORIENTED_EDGE ( 'NONE', *, *, #153, .T. ) ;
#305 = EDGE_CURVE ( 'NONE', #100, #73, #316, .T. ) ;
#306 = DIRECTION ( 'NONE',  ( -1.224646799147352961E-16, -0.0000000000000000000, -1.000000000000000000 ) ) ;
#307 = ORIENTED_EDGE ( 'NONE', *, *, #17, .T. ) ;
#308 = DIRECTION ( 'NONE',  ( 0.7071067811865536790, 8.659560562355008046E-17, -0.7071067811865412445 ) ) ;
#309 = VECTOR ( 'NONE', #308, 39.37007874015748854 ) ;
#310 = ORIENTED_EDGE ( 'NONE', *, *, #302, .F. ) ;
#311 = LINE ( 'NONE', #78, #237 ) ;
#312 = DIRECTION ( 'NONE',  ( 1.224646799147353207E-16, 1.000000000000000000, -0.0000000000000000000 ) ) ;
#313 = DIRECTION ( 'NONE',  ( 0.0000000000000000000, 0.0000000000000000000, -1.000000000000000000 ) ) ;
#314 = CARTESIAN_POINT ( 'NONE',  ( 7.224919520692328148E-18, 0.0000000000000000000, 0.05899594499999999409 ) ) ;
#315 = DIRECTION ( 'NONE',  ( 0.0000000000000000000, 0.0000000000000000000, 1.000000000000000000 ) ) ;
#316 = CIRCLE ( 'NONE', #102, 0.05899594499999999409 ) ;
#317 = EDGE_CURVE ( 'NONE', #278, #283, #70, .T. ) ;
#318 =( CONVERSION_BASED_UNIT ( 'INCH', #269 ) LENGTH_UNIT ( ) NAMED_UNIT ( #240 ) );
#319 = DIRECTION ( 'NONE',  ( 1.224646799147352961E-16, 0.0000000000000000000, 1.000000000000000000 ) ) ;
#320 = FILL_AREA_STYLE ('',( #296 ) ) ;
#321 = ORIENTED_EDGE ( 'NONE', *, *, #148, .F. ) ;
#322 = EDGE_CURVE ( 'NONE', #2, #254, #165, .T. ) ;
#323 = CIRCLE ( 'NONE', #127, 0.05899594499999997327 ) ;
#324 = SHAPE_DEFINITION_REPRESENTATION ( #90, #200 ) ;
#325 = SURFACE_STYLE_FILL_AREA ( #320 ) ;
ENDSEC;
END-ISO-10303-21;
