ISO-10303-21;
HEADER;
FILE_DESCRIPTION (( 'STEP AP214' ),
    '1' );
FILE_NAME ('Micro_SEM-328-03X.STEP',
    '2021-09-02T02:58:50',
    ( '' ),
    ( '' ),
    'SwSTEP 2.0',
    'SolidWorks 2020',
    '' );
FILE_SCHEMA (( 'AUTOMOTIVE_DESIGN' ));
ENDSEC;

DATA;
#1 = DIRECTION ( 'NONE',  ( 0.0000000000000000000, 0.0000000000000000000, 1.000000000000000000 ) ) ;
#2 = CARTESIAN_POINT ( 'NONE',  ( 2.457895567533320651E-33, 0.0000000000000000000, 2.007024040927231763E-17 ) ) ;
#3 = ORIENTED_EDGE ( 'NONE', *, *, #180, .F. ) ;
#4 = ADVANCED_FACE ( 'NONE', ( #188 ), #292, .T. ) ;
#5 = CIRCLE ( 'NONE', #24, 0.1638859499999999469 ) ;
#6 = AXIS2_PLACEMENT_3D ( 'NONE', #243, #39, #204 ) ;
#7 = ORIENTED_EDGE ( 'NONE', *, *, #172, .T. ) ;
#8 = CARTESIAN_POINT ( 'NONE',  ( 0.0000000000000000000, 0.0000000000000000000, 0.0000000000000000000 ) ) ;
#9 = ORIENTED_EDGE ( 'NONE', *, *, #180, .T. ) ;
#10 = DIRECTION ( 'NONE',  ( 0.0000000000000000000, 0.0000000000000000000, -1.000000000000000000 ) ) ;
#11 = EDGE_CURVE ( 'NONE', #295, #86, #113, .T. ) ;
#12 = CYLINDRICAL_SURFACE ( 'NONE', #187, 0.1875000000000000278 ) ;
#13 =( NAMED_UNIT ( * ) PLANE_ANGLE_UNIT ( ) SI_UNIT ( $, .RADIAN. ) );
#14 = EDGE_CURVE ( 'NONE', #146, #194, #236, .T. ) ;
#15 =( NAMED_UNIT ( * ) SI_UNIT ( $, .STERADIAN. ) SOLID_ANGLE_UNIT ( ) );
#16 = CARTESIAN_POINT ( 'NONE',  ( -0.1875000000000000278, 0.0000000000000000000, 1.984999999999999654 ) ) ;
#17 = CARTESIAN_POINT ( 'NONE',  ( -0.1638859499999999469, 0.0000000000000000000, 2.007024040927231455E-17 ) ) ;
#18 = CARTESIAN_POINT ( 'NONE',  ( 6.123233995736766036E-17, 0.0000000000000000000, 0.5000000000000000000 ) ) ;
#19 = APPLICATION_CONTEXT ( 'automotive_design' ) ;
#20 = CARTESIAN_POINT ( 'NONE',  ( 0.1875000000000000833, 2.296212748401288650E-17, 0.6339219324525432464 ) ) ;
#21 = EDGE_LOOP ( 'NONE', ( #254, #279, #75, #3 ) ) ;
#22 = DIRECTION ( 'NONE',  ( 1.000000000000000000, 0.0000000000000000000, -0.0000000000000000000 ) ) ;
#23 = CARTESIAN_POINT ( 'NONE',  ( 0.1638859500000000302, 0.0000000000000000000, 0.5000000000000000000 ) ) ;
#24 = AXIS2_PLACEMENT_3D ( 'NONE', #18, #95, #253 ) ;
#25 = AXIS2_PLACEMENT_3D ( 'NONE', #8, #112, #260 ) ;
#26 = CARTESIAN_POINT ( 'NONE',  ( -0.1725000000000001532, 0.0000000000000000000, 2.000000000000000000 ) ) ;
#27 = DIRECTION ( 'NONE',  ( 1.224646799147353207E-16, 0.0000000000000000000, 1.000000000000000000 ) ) ;
#28 = DIRECTION ( 'NONE',  ( 1.000000000000000000, 0.0000000000000000000, 0.0000000000000000000 ) ) ;
#29 = AXIS2_PLACEMENT_3D ( 'NONE', #156, #176, #201 ) ;
#30 = DIRECTION ( 'NONE',  ( -1.224646799147353207E-16, -0.0000000000000000000, -1.000000000000000000 ) ) ;
#31 = PRODUCT_DEFINITION_CONTEXT ( 'detailed design', #214, 'design' ) ;
#32 = PLANE ( 'NONE',  #46 ) ;
#33 = ORIENTED_EDGE ( 'NONE', *, *, #172, .F. ) ;
#34 =( LENGTH_UNIT ( ) NAMED_UNIT ( * ) SI_UNIT ( $, .METRE. ) );
#35 = ORIENTED_EDGE ( 'NONE', *, *, #278, .F. ) ;
#36 = EDGE_CURVE ( 'NONE', #248, #96, #94, .T. ) ;
#37 = CARTESIAN_POINT ( 'NONE',  ( -0.1874999999999999445, 0.0000000000000000000, 0.6339219324525432464 ) ) ;
#38 = CARTESIAN_POINT ( 'NONE',  ( 0.0000000000000000000, 0.0000000000000000000, 1.984999999999999654 ) ) ;
#39 = DIRECTION ( 'NONE',  ( 0.0000000000000000000, 0.0000000000000000000, 1.000000000000000000 ) ) ;
#40 =( GEOMETRIC_REPRESENTATION_CONTEXT ( 3 ) GLOBAL_UNCERTAINTY_ASSIGNED_CONTEXT ( ( #259 ) ) GLOBAL_UNIT_ASSIGNED_CONTEXT ( ( #252, #13, #15 ) ) REPRESENTATION_CONTEXT ( 'NONE', 'WORKASPACE' ) );
#41 =( NAMED_UNIT ( * ) PLANE_ANGLE_UNIT ( ) SI_UNIT ( $, .RADIAN. ) );
#42 = EDGE_CURVE ( 'NONE', #241, #248, #111, .T. ) ;
#43 =( LENGTH_UNIT ( ) NAMED_UNIT ( * ) SI_UNIT ( $, .METRE. ) );
#44 = FACE_OUTER_BOUND ( 'NONE', #79, .T. ) ;
#45 = FILL_AREA_STYLE_COLOUR ( '', #126 ) ;
#46 = AXIS2_PLACEMENT_3D ( 'NONE', #157, #199, #287 ) ;
#47 = ORIENTED_EDGE ( 'NONE', *, *, #247, .T. ) ;
#48 = ADVANCED_FACE ( 'NONE', ( #169 ), #125, .T. ) ;
#49 = DIRECTION ( 'NONE',  ( -1.224646799147353207E-16, -0.0000000000000000000, -1.000000000000000000 ) ) ;
#50 = ORIENTED_EDGE ( 'NONE', *, *, #278, .T. ) ;
#51 = DIMENSIONAL_EXPONENTS ( 1.000000000000000000, 0.0000000000000000000, 0.0000000000000000000, 0.0000000000000000000, 0.0000000000000000000, 0.0000000000000000000, 0.0000000000000000000 ) ;
#52 = FACE_OUTER_BOUND ( 'NONE', #127, .T. ) ;
#53 = CARTESIAN_POINT ( 'NONE',  ( 6.123233995736766036E-17, 0.0000000000000000000, 0.5000000000000000000 ) ) ;
#54 = AXIS2_PLACEMENT_3D ( 'NONE', #74, #49, #122 ) ;
#55 = CARTESIAN_POINT ( 'NONE',  ( -0.1875000000000000278, 0.0000000000000000000, 2.000000000000000000 ) ) ;
#56 = ORIENTED_EDGE ( 'NONE', *, *, #189, .F. ) ;
#57 = DIRECTION ( 'NONE',  ( 1.000000000000000000, 0.0000000000000000000, 0.0000000000000000000 ) ) ;
#58 = FACE_OUTER_BOUND ( 'NONE', #61, .T. ) ;
#59 = DIRECTION ( 'NONE',  ( -0.1736481776669311639, 2.126576849575783008E-17, 0.9848077530122080203 ) ) ;
#60 = EDGE_CURVE ( 'NONE', #248, #241, #216, .T. ) ;
#61 = EDGE_LOOP ( 'NONE', ( #190, #9 ) ) ;
#62 = AXIS2_PLACEMENT_3D ( 'NONE', #195, #152, #104 ) ;
#63 = DIRECTION ( 'NONE',  ( 0.0000000000000000000, 0.0000000000000000000, -1.000000000000000000 ) ) ;
#64 =( NAMED_UNIT ( * ) PLANE_ANGLE_UNIT ( ) SI_UNIT ( $, .RADIAN. ) );
#65 =( CONVERSION_BASED_UNIT ( 'INCH', #203 ) LENGTH_UNIT ( ) NAMED_UNIT ( #51 ) );
#66 = AXIS2_PLACEMENT_3D ( 'NONE', #123, #246, #181 ) ;
#67 = ADVANCED_FACE ( 'NONE', ( #231 ), #153, .T. ) ;
#68 = PRESENTATION_STYLE_ASSIGNMENT (( #225 ) ) ;
#69 = DIRECTION ( 'NONE',  ( 0.0000000000000000000, 0.0000000000000000000, 1.000000000000000000 ) ) ;
#70 = SURFACE_STYLE_FILL_AREA ( #76 ) ;
#71 = DIRECTION ( 'NONE',  ( -0.7071067811865386910, 0.0000000000000000000, -0.7071067811865563435 ) ) ;
#72 = ORIENTED_EDGE ( 'NONE', *, *, #36, .F. ) ;
#73 = CONICAL_SURFACE ( 'NONE', #191, 0.1638859499999999469, 0.1745329251994338637 ) ;
#74 = CARTESIAN_POINT ( 'NONE',  ( 0.0000000000000000000, 0.0000000000000000000, 0.0000000000000000000 ) ) ;
#75 = ORIENTED_EDGE ( 'NONE', *, *, #14, .T. ) ;
#76 = FILL_AREA_STYLE ('',( #270 ) ) ;
#77 = ORIENTED_EDGE ( 'NONE', *, *, #189, .T. ) ;
#78 = DIRECTION ( 'NONE',  ( -1.000000000000000000, 0.0000000000000000000, 1.224646799147353207E-16 ) ) ;
#79 = EDGE_LOOP ( 'NONE', ( #276, #129, #298, #221 ) ) ;
#80 = EDGE_LOOP ( 'NONE', ( #250, #100, #50, #219 ) ) ;
#81 = AXIS2_PLACEMENT_3D ( 'NONE', #105, #147, #22 ) ;
#82 = STYLED_ITEM ( 'NONE', ( #68 ), #160 ) ;
#83 = CARTESIAN_POINT ( 'NONE',  ( 0.1725000000000001532, 2.204364238465236130E-17, 2.000000000000000000 ) ) ;
#84 = LINE ( 'NONE', #261, #163 ) ;
#85 = EDGE_CURVE ( 'NONE', #124, #237, #267, .T. ) ;
#86 = VERTEX_POINT ( 'NONE', #138 ) ;
#87 = LINE ( 'NONE', #55, #121 ) ;
#88 = COLOUR_RGB ( '',0.7921568627450980005, 0.8196078431372548767, 0.9333333333333333481 ) ;
#89 = PRODUCT_DEFINITION_FORMATION_WITH_SPECIFIED_SOURCE ( 'ANY', '', #296, .NOT_KNOWN. ) ;
#90 = SURFACE_SIDE_STYLE ('',( #70 ) ) ;
#91 = APPLICATION_PROTOCOL_DEFINITION ( 'draft international standard', 'automotive_design', 1998, #19 ) ;
#92 = VECTOR ( 'NONE', #71, 39.37007874015748143 ) ;
#93 = CARTESIAN_POINT ( 'NONE',  ( 2.457895567533320651E-33, 0.0000000000000000000, 2.007024040927231763E-17 ) ) ;
#94 = LINE ( 'NONE', #26, #92 ) ;
#95 = DIRECTION ( 'NONE',  ( -1.224646799147353207E-16, -0.0000000000000000000, -1.000000000000000000 ) ) ;
#96 = VERTEX_POINT ( 'NONE', #16 ) ;
#97 =( NAMED_UNIT ( * ) SI_UNIT ( $, .STERADIAN. ) SOLID_ANGLE_UNIT ( ) );
#98 = DIRECTION ( 'NONE',  ( 1.000000000000000000, 0.0000000000000000000, 0.0000000000000000000 ) ) ;
#99 = LINE ( 'NONE', #294, #150 ) ;
#100 = ORIENTED_EDGE ( 'NONE', *, *, #265, .T. ) ;
#101 = EDGE_LOOP ( 'NONE', ( #33, #274, #134, #136 ) ) ;
#102 = STYLED_ITEM ( 'NONE', ( #238 ), #177 ) ;
#103 = DIRECTION ( 'NONE',  ( 1.000000000000000000, 0.0000000000000000000, 0.0000000000000000000 ) ) ;
#104 = DIRECTION ( 'NONE',  ( -1.000000000000000000, 0.0000000000000000000, 0.0000000000000000000 ) ) ;
#105 = CARTESIAN_POINT ( 'NONE',  ( 0.0000000000000000000, 0.0000000000000000000, 2.000000000000000000 ) ) ;
#106 = ORIENTED_EDGE ( 'NONE', *, *, #42, .T. ) ;
#107 = MECHANICAL_DESIGN_GEOMETRIC_PRESENTATION_REPRESENTATION (  '', ( #102 ), #202 ) ;
#108 = EDGE_CURVE ( 'NONE', #295, #146, #5, .T. ) ;
#109 = DIRECTION ( 'NONE',  ( -1.224646799147353207E-16, -0.0000000000000000000, -1.000000000000000000 ) ) ;
#110 = LENGTH_MEASURE_WITH_UNIT ( LENGTH_MEASURE( 0.02539999999999999897 ), #34 );
#111 = CIRCLE ( 'NONE', #222, 0.1725000000000001532 ) ;
#112 = DIRECTION ( 'NONE',  ( -1.224646799147353207E-16, -0.0000000000000000000, -1.000000000000000000 ) ) ;
#113 = LINE ( 'NONE', #130, #197 ) ;
#114 = DIRECTION ( 'NONE',  ( -0.0000000000000000000, -0.0000000000000000000, -1.000000000000000000 ) ) ;
#115 =( CONVERSION_BASED_UNIT ( 'INCH', #110 ) LENGTH_UNIT ( ) NAMED_UNIT ( #281 ) );
#116 = PRODUCT_CONTEXT ( 'NONE', #19, 'mechanical' ) ;
#117 = CARTESIAN_POINT ( 'NONE',  ( 0.1638859500000000302, 0.0000000000000000000, 0.5000000000000000000 ) ) ;
#118 = LENGTH_MEASURE_WITH_UNIT ( LENGTH_MEASURE( 0.02539999999999999897 ), #43 );
#119 = EDGE_CURVE ( 'NONE', #295, #124, #145, .T. ) ;
#120 = SURFACE_STYLE_FILL_AREA ( #166 ) ;
#121 = VECTOR ( 'NONE', #114, 39.37007874015748143 ) ;
#122 = DIRECTION ( 'NONE',  ( -1.000000000000000000, 0.0000000000000000000, 1.224646799147353454E-16 ) ) ;
#123 = CARTESIAN_POINT ( 'NONE',  ( 0.0000000000000000000, 0.0000000000000000000, 2.000000000000000000 ) ) ;
#124 = VERTEX_POINT ( 'NONE', #20 ) ;
#125 = PLANE ( 'NONE',  #81 ) ;
#126 = COLOUR_RGB ( '',0.7921568627450980005, 0.8196078431372548767, 0.9333333333333333481 ) ;
#127 = EDGE_LOOP ( 'NONE', ( #161, #7, #56, #72 ) ) ;
#128 = FACE_OUTER_BOUND ( 'NONE', #193, .T. ) ;
#129 = ORIENTED_EDGE ( 'NONE', *, *, #108, .F. ) ;
#130 = CARTESIAN_POINT ( 'NONE',  ( 0.1638859499999999469, 2.007024040927231455E-17, -2.007024040927231455E-17 ) ) ;
#131 = ADVANCED_FACE ( 'NONE', ( #52 ), #175, .T. ) ;
#132 = MECHANICAL_DESIGN_GEOMETRIC_PRESENTATION_REPRESENTATION (  '', ( #82 ), #40 ) ;
#133 = UNCERTAINTY_MEASURE_WITH_UNIT (LENGTH_MEASURE( 1.000000000000000082E-05 ), #115, 'distance_accuracy_value', 'NONE');
#134 = ORIENTED_EDGE ( 'NONE', *, *, #36, .T. ) ;
#135 = DIRECTION ( 'NONE',  ( -1.224646799147353207E-16, -0.0000000000000000000, -1.000000000000000000 ) ) ;
#136 = ORIENTED_EDGE ( 'NONE', *, *, #247, .F. ) ;
#137 = CARTESIAN_POINT ( 'NONE',  ( 0.1875000000000000278, 2.296212748401287726E-17, 1.984999999999999654 ) ) ;
#138 = CARTESIAN_POINT ( 'NONE',  ( 0.1638859500000000025, 2.007024040927231763E-17, 3.791200677927629740E-33 ) ) ;
#139 = AXIS2_PLACEMENT_3D ( 'NONE', #93, #30, #262 ) ;
#140 = CARTESIAN_POINT ( 'NONE',  ( 7.763304654873116999E-17, 0.0000000000000000000, 0.6339219324525432464 ) ) ;
#141 = DIRECTION ( 'NONE',  ( 1.000000000000000000, 0.0000000000000000000, 0.0000000000000000000 ) ) ;
#142 = EDGE_CURVE ( 'NONE', #234, #124, #99, .T. ) ;
#143 = AXIS2_PLACEMENT_3D ( 'NONE', #173, #63, #162 ) ;
#144 = APPLICATION_PROTOCOL_DEFINITION ( 'draft international standard', 'automotive_design', 1998, #214 ) ;
#145 = LINE ( 'NONE', #23, #205 ) ;
#146 = VERTEX_POINT ( 'NONE', #229 ) ;
#147 = DIRECTION ( 'NONE',  ( 0.0000000000000000000, 0.0000000000000000000, 1.000000000000000000 ) ) ;
#148 = ADVANCED_FACE ( 'NONE', ( #44 ), #73, .T. ) ;
#149 = EDGE_LOOP ( 'NONE', ( #213, #106 ) ) ;
#150 = VECTOR ( 'NONE', #277, 39.37007874015748143 ) ;
#151 = CLOSED_SHELL ( 'NONE', ( #168, #4, #131, #286, #67, #48, #215, #148, #255, #257 ) ) ;
#152 = DIRECTION ( 'NONE',  ( -0.0000000000000000000, -0.0000000000000000000, -1.000000000000000000 ) ) ;
#153 = CYLINDRICAL_SURFACE ( 'NONE', #62, 0.1875000000000000278 ) ;
#154 = CIRCLE ( 'NONE', #139, 0.1638859500000000025 ) ;
#155 = ORIENTED_EDGE ( 'NONE', *, *, #11, .T. ) ;
#156 = CARTESIAN_POINT ( 'NONE',  ( 0.0000000000000000000, 0.0000000000000000000, 1.984999999999999654 ) ) ;
#157 = CARTESIAN_POINT ( 'NONE',  ( 0.0000000000000000000, 0.0000000000000000000, 0.0000000000000000000 ) ) ;
#158 = ORIENTED_EDGE ( 'NONE', *, *, #217, .T. ) ;
#159 = DIRECTION ( 'NONE',  ( -1.224646799147353207E-16, -0.0000000000000000000, -1.000000000000000000 ) ) ;
#160 = ADVANCED_BREP_SHAPE_REPRESENTATION ( 'Micro_SEM-328-03X', ( #177, #6 ), #223 ) ;
#161 = ORIENTED_EDGE ( 'NONE', *, *, #42, .F. ) ;
#162 = DIRECTION ( 'NONE',  ( -1.000000000000000000, 0.0000000000000000000, 0.0000000000000000000 ) ) ;
#163 = VECTOR ( 'NONE', #59, 39.37007874015747433 ) ;
#164 = ORIENTED_EDGE ( 'NONE', *, *, #142, .F. ) ;
#165 = CIRCLE ( 'NONE', #29, 0.1875000000000000278 ) ;
#166 = FILL_AREA_STYLE ('',( #45 ) ) ;
#167 = ORIENTED_EDGE ( 'NONE', *, *, #207, .F. ) ;
#168 = ADVANCED_FACE ( 'NONE', ( #128 ), #273, .T. ) ;
#169 = FACE_OUTER_BOUND ( 'NONE', #149, .T. ) ;
#170 = ORIENTED_EDGE ( 'NONE', *, *, #142, .T. ) ;
#171 = VECTOR ( 'NONE', #183, 39.37007874015748143 ) ;
#172 = EDGE_CURVE ( 'NONE', #241, #234, #228, .T. ) ;
#173 = CARTESIAN_POINT ( 'NONE',  ( 0.0000000000000000000, 0.0000000000000000000, 2.000000000000000000 ) ) ;
#174 = ORIENTED_EDGE ( 'NONE', *, *, #224, .T. ) ;
#175 = CONICAL_SURFACE ( 'NONE', #66, 0.1725000000000001532, 0.7853981633974357335 ) ;
#176 = DIRECTION ( 'NONE',  ( 0.0000000000000000000, 0.0000000000000000000, -1.000000000000000000 ) ) ;
#177 = MANIFOLD_SOLID_BREP ( 'Cut-Revolve1', #151 ) ;
#178 = SURFACE_SIDE_STYLE ('',( #120 ) ) ;
#179 = PRESENTATION_LAYER_ASSIGNMENT (  '', '', ( #102 ) ) ;
#180 = EDGE_CURVE ( 'NONE', #86, #194, #154, .T. ) ;
#181 = DIRECTION ( 'NONE',  ( -1.000000000000000000, 0.0000000000000000000, 0.0000000000000000000 ) ) ;
#182 = PRODUCT_DEFINITION_SHAPE ( 'NONE', 'NONE',  #280 ) ;
#183 = DIRECTION ( 'NONE',  ( 0.7071067811865386910, 8.659560562354824390E-17, -0.7071067811865563435 ) ) ;
#184 = ORIENTED_EDGE ( 'NONE', *, *, #224, .F. ) ;
#185 = DIRECTION ( 'NONE',  ( 1.000000000000000000, 0.0000000000000000000, 0.0000000000000000000 ) ) ;
#186 = CIRCLE ( 'NONE', #240, 0.1638859499999999469 ) ;
#187 = AXIS2_PLACEMENT_3D ( 'NONE', #272, #297, #268 ) ;
#188 = FACE_OUTER_BOUND ( 'NONE', #80, .T. ) ;
#189 = EDGE_CURVE ( 'NONE', #96, #234, #263, .T. ) ;
#190 = ORIENTED_EDGE ( 'NONE', *, *, #207, .T. ) ;
#191 = AXIS2_PLACEMENT_3D ( 'NONE', #212, #27, #185 ) ;
#192 = PRESENTATION_LAYER_ASSIGNMENT (  '', '', ( #82 ) ) ;
#193 = EDGE_LOOP ( 'NONE', ( #158, #155, #167, #208 ) ) ;
#194 = VERTEX_POINT ( 'NONE', #196 ) ;
#195 = CARTESIAN_POINT ( 'NONE',  ( 0.0000000000000000000, 0.0000000000000000000, 2.000000000000000000 ) ) ;
#196 = CARTESIAN_POINT ( 'NONE',  ( -0.1638859500000000025, 0.0000000000000000000, 4.014048081854463527E-17 ) ) ;
#197 = VECTOR ( 'NONE', #109, 39.37007874015748143 ) ;
#198 = EDGE_LOOP ( 'NONE', ( #77, #170, #35, #184 ) ) ;
#199 = DIRECTION ( 'NONE',  ( 0.0000000000000000000, 0.0000000000000000000, 1.000000000000000000 ) ) ;
#200 = CARTESIAN_POINT ( 'NONE',  ( 6.123233995736766036E-17, 0.0000000000000000000, 0.5000000000000000000 ) ) ;
#201 = DIRECTION ( 'NONE',  ( 1.000000000000000000, 0.0000000000000000000, 0.0000000000000000000 ) ) ;
#202 =( GEOMETRIC_REPRESENTATION_CONTEXT ( 3 ) GLOBAL_UNCERTAINTY_ASSIGNED_CONTEXT ( ( #133 ) ) GLOBAL_UNIT_ASSIGNED_CONTEXT ( ( #115, #64, #288 ) ) REPRESENTATION_CONTEXT ( 'NONE', 'WORKASPACE' ) );
#203 = LENGTH_MEASURE_WITH_UNIT ( LENGTH_MEASURE( 0.02539999999999999897 ), #245 );
#204 = DIRECTION ( 'NONE',  ( 1.000000000000000000, 0.0000000000000000000, 0.0000000000000000000 ) ) ;
#205 = VECTOR ( 'NONE', #227, 39.37007874015748143 ) ;
#206 = CARTESIAN_POINT ( 'NONE',  ( 0.0000000000000000000, 0.0000000000000000000, 2.000000000000000000 ) ) ;
#207 = EDGE_CURVE ( 'NONE', #194, #86, #258, .T. ) ;
#208 = ORIENTED_EDGE ( 'NONE', *, *, #14, .F. ) ;
#209 = DIMENSIONAL_EXPONENTS ( 1.000000000000000000, 0.0000000000000000000, 0.0000000000000000000, 0.0000000000000000000, 0.0000000000000000000, 0.0000000000000000000, 0.0000000000000000000 ) ;
#210 = DIRECTION ( 'NONE',  ( -1.224646799147353207E-16, -0.0000000000000000000, -1.000000000000000000 ) ) ;
#211 = CARTESIAN_POINT ( 'NONE',  ( 0.1725000000000001532, 2.112515728529185460E-17, 2.000000000000000000 ) ) ;
#212 = CARTESIAN_POINT ( 'NONE',  ( 6.123233995736766036E-17, 0.0000000000000000000, 0.5000000000000000000 ) ) ;
#213 = ORIENTED_EDGE ( 'NONE', *, *, #60, .T. ) ;
#214 = APPLICATION_CONTEXT ( 'automotive_design' ) ;
#215 = ADVANCED_FACE ( 'NONE', ( #220 ), #293, .T. ) ;
#216 = CIRCLE ( 'NONE', #244, 0.1725000000000001532 ) ;
#217 = EDGE_CURVE ( 'NONE', #146, #295, #186, .T. ) ;
#218 = CYLINDRICAL_SURFACE ( 'NONE', #25, 0.1638859499999999469 ) ;
#219 = ORIENTED_EDGE ( 'NONE', *, *, #119, .F. ) ;
#220 = FACE_OUTER_BOUND ( 'NONE', #101, .T. ) ;
#221 = ORIENTED_EDGE ( 'NONE', *, *, #85, .T. ) ;
#222 = AXIS2_PLACEMENT_3D ( 'NONE', #206, #1, #103 ) ;
#223 =( GEOMETRIC_REPRESENTATION_CONTEXT ( 3 ) GLOBAL_UNCERTAINTY_ASSIGNED_CONTEXT ( ( #256 ) ) GLOBAL_UNIT_ASSIGNED_CONTEXT ( ( #65, #41, #97 ) ) REPRESENTATION_CONTEXT ( 'NONE', 'WORKASPACE' ) );
#224 = EDGE_CURVE ( 'NONE', #96, #237, #87, .T. ) ;
#225 = SURFACE_STYLE_USAGE ( .BOTH. , #178 ) ;
#226 = AXIS2_PLACEMENT_3D ( 'NONE', #285, #233, #57 ) ;
#227 = DIRECTION ( 'NONE',  ( 0.1736481776669313581, 0.0000000000000000000, 0.9848077530122077983 ) ) ;
#228 = LINE ( 'NONE', #211, #171 ) ;
#229 = CARTESIAN_POINT ( 'NONE',  ( -0.1638859499999998914, 2.151618394664259590E-17, 0.5000000000000000000 ) ) ;
#230 = DIRECTION ( 'NONE',  ( 1.224646799147353207E-16, 0.0000000000000000000, 1.000000000000000000 ) ) ;
#231 = FACE_OUTER_BOUND ( 'NONE', #282, .T. ) ;
#232 = AXIS2_PLACEMENT_3D ( 'NONE', #2, #239, #78 ) ;
#233 = DIRECTION ( 'NONE',  ( -1.224646799147353207E-16, -0.0000000000000000000, -1.000000000000000000 ) ) ;
#234 = VERTEX_POINT ( 'NONE', #137 ) ;
#235 = CARTESIAN_POINT ( 'NONE',  ( -0.1725000000000001532, 0.0000000000000000000, 2.000000000000000000 ) ) ;
#236 = LINE ( 'NONE', #17, #283 ) ;
#237 = VERTEX_POINT ( 'NONE', #37 ) ;
#238 = PRESENTATION_STYLE_ASSIGNMENT (( #289 ) ) ;
#239 = DIRECTION ( 'NONE',  ( -1.224646799147353207E-16, -0.0000000000000000000, -1.000000000000000000 ) ) ;
#240 = AXIS2_PLACEMENT_3D ( 'NONE', #200, #135, #242 ) ;
#241 = VERTEX_POINT ( 'NONE', #83 ) ;
#242 = DIRECTION ( 'NONE',  ( -1.000000000000000000, 0.0000000000000000000, 0.0000000000000000000 ) ) ;
#243 = CARTESIAN_POINT ( 'NONE',  ( 0.0000000000000000000, 0.0000000000000000000, 0.0000000000000000000 ) ) ;
#244 = AXIS2_PLACEMENT_3D ( 'NONE', #269, #69, #98 ) ;
#245 =( LENGTH_UNIT ( ) NAMED_UNIT ( * ) SI_UNIT ( $, .METRE. ) );
#246 = DIRECTION ( 'NONE',  ( 0.0000000000000000000, 0.0000000000000000000, -1.000000000000000000 ) ) ;
#247 = EDGE_CURVE ( 'NONE', #234, #96, #165, .T. ) ;
#248 = VERTEX_POINT ( 'NONE', #235 ) ;
#249 = AXIS2_PLACEMENT_3D ( 'NONE', #53, #230, #28 ) ;
#250 = ORIENTED_EDGE ( 'NONE', *, *, #217, .F. ) ;
#251 = CIRCLE ( 'NONE', #264, 0.1875000000000000278 ) ;
#252 =( CONVERSION_BASED_UNIT ( 'INCH', #118 ) LENGTH_UNIT ( ) NAMED_UNIT ( #209 ) );
#253 = DIRECTION ( 'NONE',  ( -1.000000000000000000, 0.0000000000000000000, 0.0000000000000000000 ) ) ;
#254 = ORIENTED_EDGE ( 'NONE', *, *, #11, .F. ) ;
#255 = ADVANCED_FACE ( 'NONE', ( #284 ), #218, .T. ) ;
#256 = UNCERTAINTY_MEASURE_WITH_UNIT (LENGTH_MEASURE( 1.000000000000000082E-05 ), #65, 'distance_accuracy_value', 'NONE');
#257 = ADVANCED_FACE ( 'NONE', ( #58 ), #32, .F. ) ;
#258 = CIRCLE ( 'NONE', #232, 0.1638859500000000025 ) ;
#259 = UNCERTAINTY_MEASURE_WITH_UNIT (LENGTH_MEASURE( 1.000000000000000082E-05 ), #252, 'distance_accuracy_value', 'NONE');
#260 = DIRECTION ( 'NONE',  ( -1.000000000000000000, 0.0000000000000000000, 1.224646799147353454E-16 ) ) ;
#261 = CARTESIAN_POINT ( 'NONE',  ( -0.1638859499999998914, 2.007024040927231455E-17, 0.5000000000000000000 ) ) ;
#262 = DIRECTION ( 'NONE',  ( -1.000000000000000000, 0.0000000000000000000, 1.224646799147353207E-16 ) ) ;
#263 = CIRCLE ( 'NONE', #275, 0.1875000000000000278 ) ;
#264 = AXIS2_PLACEMENT_3D ( 'NONE', #140, #159, #266 ) ;
#265 = EDGE_CURVE ( 'NONE', #146, #237, #84, .T. ) ;
#266 = DIRECTION ( 'NONE',  ( 1.000000000000000000, 0.0000000000000000000, 0.0000000000000000000 ) ) ;
#267 = CIRCLE ( 'NONE', #226, 0.1875000000000000278 ) ;
#268 = DIRECTION ( 'NONE',  ( -1.000000000000000000, 0.0000000000000000000, 0.0000000000000000000 ) ) ;
#269 = CARTESIAN_POINT ( 'NONE',  ( 0.0000000000000000000, 0.0000000000000000000, 2.000000000000000000 ) ) ;
#270 = FILL_AREA_STYLE_COLOUR ( '', #88 ) ;
#271 = FACE_OUTER_BOUND ( 'NONE', #198, .T. ) ;
#272 = CARTESIAN_POINT ( 'NONE',  ( 0.0000000000000000000, 0.0000000000000000000, 2.000000000000000000 ) ) ;
#273 = CYLINDRICAL_SURFACE ( 'NONE', #54, 0.1638859499999999469 ) ;
#274 = ORIENTED_EDGE ( 'NONE', *, *, #60, .F. ) ;
#275 = AXIS2_PLACEMENT_3D ( 'NONE', #38, #10, #141 ) ;
#276 = ORIENTED_EDGE ( 'NONE', *, *, #265, .F. ) ;
#277 = DIRECTION ( 'NONE',  ( -0.0000000000000000000, -0.0000000000000000000, -1.000000000000000000 ) ) ;
#278 = EDGE_CURVE ( 'NONE', #237, #124, #251, .T. ) ;
#279 = ORIENTED_EDGE ( 'NONE', *, *, #108, .T. ) ;
#280 = PRODUCT_DEFINITION ( 'UNKNOWN', '', #89, #31 ) ;
#281 = DIMENSIONAL_EXPONENTS ( 1.000000000000000000, 0.0000000000000000000, 0.0000000000000000000, 0.0000000000000000000, 0.0000000000000000000, 0.0000000000000000000, 0.0000000000000000000 ) ;
#282 = EDGE_LOOP ( 'NONE', ( #164, #47, #174, #299 ) ) ;
#283 = VECTOR ( 'NONE', #210, 39.37007874015748143 ) ;
#284 = FACE_OUTER_BOUND ( 'NONE', #21, .T. ) ;
#285 = CARTESIAN_POINT ( 'NONE',  ( 7.763304654873116999E-17, 0.0000000000000000000, 0.6339219324525432464 ) ) ;
#286 = ADVANCED_FACE ( 'NONE', ( #271 ), #12, .T. ) ;
#287 = DIRECTION ( 'NONE',  ( 1.000000000000000000, 0.0000000000000000000, -0.0000000000000000000 ) ) ;
#288 =( NAMED_UNIT ( * ) SI_UNIT ( $, .STERADIAN. ) SOLID_ANGLE_UNIT ( ) );
#289 = SURFACE_STYLE_USAGE ( .BOTH. , #90 ) ;
#290 = PRODUCT_RELATED_PRODUCT_CATEGORY ( 'part', '', ( #296 ) ) ;
#291 = SHAPE_DEFINITION_REPRESENTATION ( #182, #160 ) ;
#292 = CONICAL_SURFACE ( 'NONE', #249, 0.1638859499999999469, 0.1745329251994338637 ) ;
#293 = CONICAL_SURFACE ( 'NONE', #143, 0.1725000000000001532, 0.7853981633974357335 ) ;
#294 = CARTESIAN_POINT ( 'NONE',  ( 0.1875000000000000278, 2.296212748401287726E-17, 2.000000000000000000 ) ) ;
#295 = VERTEX_POINT ( 'NONE', #117 ) ;
#296 = PRODUCT ( 'Micro_SEM-328-03X', 'Micro_SEM-328-03X', '', ( #116 ) ) ;
#297 = DIRECTION ( 'NONE',  ( -0.0000000000000000000, -0.0000000000000000000, -1.000000000000000000 ) ) ;
#298 = ORIENTED_EDGE ( 'NONE', *, *, #119, .T. ) ;
#299 = ORIENTED_EDGE ( 'NONE', *, *, #85, .F. ) ;
ENDSEC;
END-ISO-10303-21;
