ISO-10303-21;
HEADER;
FILE_DESCRIPTION (( 'STEP AP214' ),
    '1' );
FILE_NAME ('82953.STEP',
    '2023-06-23T07:36:20',
    ( '' ),
    ( '' ),
    'SwSTEP 2.0',
    'SolidWorks 2023',
    '' );
FILE_SCHEMA (( 'AUTOMOTIVE_DESIGN' ));
ENDSEC;

DATA;
#1 = SURFACE_SIDE_STYLE ('',( #139 ) ) ;
#2 = EDGE_LOOP ( 'NONE', ( #263, #144, #168, #121 ) ) ;
#3 = PRESENTATION_STYLE_ASSIGNMENT (( #217 ) ) ;
#4 = PRESENTATION_LAYER_ASSIGNMENT (  '', '', ( #228 ) ) ;
#5 = ADVANCED_FACE ( 'NONE', ( #248 ), #31, .T. ) ;
#6 = CARTESIAN_POINT ( 'NONE',  ( 0.000000000000000000, 1.000000000000000000, -0.09375000000000001388 ) ) ;
#7 = DIRECTION ( 'NONE',  ( 0.000000000000000000, -0.000000000000000000, 1.000000000000000000 ) ) ;
#8 = COLOUR_RGB ( '',1.000000000000000000, 0.000000000000000000, 0.000000000000000000 ) ;
#9 = CARTESIAN_POINT ( 'NONE',  ( 1.148106374200643863E-17, 0.000000000000000000, 0.09375000000000001388 ) ) ;
#10 = COLOUR_RGB ( '',1.000000000000000000, 0.000000000000000000, 0.000000000000000000 ) ;
#11 = VERTEX_POINT ( 'NONE', #181 ) ;
#12 =( NAMED_UNIT ( * ) SI_UNIT ( $, .STERADIAN. ) SOLID_ANGLE_UNIT ( ) );
#13 = DIRECTION ( 'NONE',  ( 0.000000000000000000, 0.000000000000000000, -1.000000000000000000 ) ) ;
#14 = CYLINDRICAL_SURFACE ( 'NONE', #278, 0.09374999999999979183 ) ;
#15 = VERTEX_POINT ( 'NONE', #9 ) ;
#16 = DIRECTION ( 'NONE',  ( 2.857509198010491228E-16, 1.000000000000000000, -0.000000000000000000 ) ) ;
#17 = PRODUCT_RELATED_PRODUCT_CATEGORY ( 'part', '', ( #150 ) ) ;
#18 = DIRECTION ( 'NONE',  ( 2.857509198010491228E-16, 1.000000000000000000, -0.000000000000000000 ) ) ;
#19 = EDGE_LOOP ( 'NONE', ( #277, #286 ) ) ;
#20 = VERTEX_POINT ( 'NONE', #34 ) ;
#21 = PRESENTATION_LAYER_ASSIGNMENT (  '', '', ( #233 ) ) ;
#22 = FILL_AREA_STYLE_COLOUR ( '', #8 ) ;
#23 = CARTESIAN_POINT ( 'NONE',  ( -0.09374999999999936162, 2.500000000000000000, 0.000000000000000000 ) ) ;
#24 = AXIS2_PLACEMENT_3D ( 'NONE', #76, #285, #199 ) ;
#25 = DIMENSIONAL_EXPONENTS ( 1.000000000000000000, 0.000000000000000000, 0.000000000000000000, 0.000000000000000000, 0.000000000000000000, 0.000000000000000000, 0.000000000000000000 ) ;
#26 = UNCERTAINTY_MEASURE_WITH_UNIT (LENGTH_MEASURE( 1.000000000000000082E-05 ), #185, 'distance_accuracy_value', 'NONE');
#27 = DIRECTION ( 'NONE',  ( -1.000000000000000000, 0.000000000000000000, 0.000000000000000000 ) ) ;
#28 = PRESENTATION_LAYER_ASSIGNMENT (  '', '', ( #200 ) ) ;
#29 = SURFACE_SIDE_STYLE ('',( #81 ) ) ;
#30 =( NAMED_UNIT ( * ) PLANE_ANGLE_UNIT ( ) SI_UNIT ( $, .RADIAN. ) );
#31 = PLANE ( 'NONE',  #188 ) ;
#32 = VERTEX_POINT ( 'NONE', #303 ) ;
#33 = COLOUR_RGB ( '',0.7921568627450980005, 0.8196078431372548767, 0.9333333333333333481 ) ;
#34 = CARTESIAN_POINT ( 'NONE',  ( -0.09375000000000001388, 1.000000000000000000, 0.000000000000000000 ) ) ;
#35 = EDGE_CURVE ( 'NONE', #15, #215, #47, .T. ) ;
#36 = CARTESIAN_POINT ( 'NONE',  ( 4.286263797015736595E-16, 2.500000000000000000, 0.000000000000000000 ) ) ;
#37 = COLOUR_RGB ( '',1.000000000000000000, 0.000000000000000000, 0.000000000000000000 ) ;
#38 =( GEOMETRIC_REPRESENTATION_CONTEXT ( 3 ) GLOBAL_UNCERTAINTY_ASSIGNED_CONTEXT ( ( #79 ) ) GLOBAL_UNIT_ASSIGNED_CONTEXT ( ( #247, #30, #229 ) ) REPRESENTATION_CONTEXT ( 'NONE', 'WORKASPACE' ) );
#39 = FILL_AREA_STYLE ('',( #22 ) ) ;
#40 = DIRECTION ( 'NONE',  ( -1.000000000000000000, 2.857509198010491228E-16, 0.000000000000000000 ) ) ;
#41 = SHAPE_DEFINITION_REPRESENTATION ( #186, #71 ) ;
#42 = AXIS2_PLACEMENT_3D ( 'NONE', #180, #133, #269 ) ;
#43 = CYLINDRICAL_SURFACE ( 'NONE', #302, 0.09375000000000001388 ) ;
#44 = EDGE_CURVE ( 'NONE', #138, #239, #207, .T. ) ;
#45 = FILL_AREA_STYLE ('',( #221 ) ) ;
#46 = SURFACE_STYLE_USAGE ( .BOTH. , #74 ) ;
#47 = CIRCLE ( 'NONE', #128, 0.09375000000000001388 ) ;
#48 = LENGTH_MEASURE_WITH_UNIT ( LENGTH_MEASURE( 0.02539999999999999897 ), #146 );
#49 =( GEOMETRIC_REPRESENTATION_CONTEXT ( 3 ) GLOBAL_UNCERTAINTY_ASSIGNED_CONTEXT ( ( #223 ) ) GLOBAL_UNIT_ASSIGNED_CONTEXT ( ( #265, #288, #98 ) ) REPRESENTATION_CONTEXT ( 'NONE', 'WORKASPACE' ) );
#50 = AXIS2_PLACEMENT_3D ( 'NONE', #91, #16, #187 ) ;
#51 = CARTESIAN_POINT ( 'NONE',  ( 0.000000000000000000, 0.000000000000000000, -0.09375000000000001388 ) ) ;
#52 = EDGE_CURVE ( 'NONE', #114, #32, #158, .T. ) ;
#53 = SURFACE_STYLE_FILL_AREA ( #174 ) ;
#54 = APPLICATION_CONTEXT ( 'automotive_design' ) ;
#55 = DIMENSIONAL_EXPONENTS ( 1.000000000000000000, 0.000000000000000000, 0.000000000000000000, 0.000000000000000000, 0.000000000000000000, 0.000000000000000000, 0.000000000000000000 ) ;
#56 =( GEOMETRIC_REPRESENTATION_CONTEXT ( 3 ) GLOBAL_UNCERTAINTY_ASSIGNED_CONTEXT ( ( #241 ) ) GLOBAL_UNIT_ASSIGNED_CONTEXT ( ( #198, #242, #149 ) ) REPRESENTATION_CONTEXT ( 'NONE', 'WORKASPACE' ) );
#57 = LENGTH_MEASURE_WITH_UNIT ( LENGTH_MEASURE( 0.02539999999999999897 ), #59 );
#58 = LENGTH_MEASURE_WITH_UNIT ( LENGTH_MEASURE( 0.02539999999999999897 ), #125 );
#59 =( LENGTH_UNIT ( ) NAMED_UNIT ( * ) SI_UNIT ( $, .METRE. ) );
#60 = FACE_OUTER_BOUND ( 'NONE', #2, .T. ) ;
#61 = ORIENTED_EDGE ( 'NONE', *, *, #126, .F. ) ;
#62 = MECHANICAL_DESIGN_GEOMETRIC_PRESENTATION_REPRESENTATION (  '', ( #233 ), #56 ) ;
#63 = CARTESIAN_POINT ( 'NONE',  ( 0.09375000000000001388, 2.500000000000000000, 0.000000000000000000 ) ) ;
#64 = DIRECTION ( 'NONE',  ( 2.857509198010491228E-16, 1.000000000000000000, -0.000000000000000000 ) ) ;
#65 = UNCERTAINTY_MEASURE_WITH_UNIT (LENGTH_MEASURE( 1.000000000000000082E-05 ), #176, 'distance_accuracy_value', 'NONE');
#66 = AXIS2_PLACEMENT_3D ( 'NONE', #36, #255, #88 ) ;
#67 = AXIS2_PLACEMENT_3D ( 'NONE', #124, #225, #127 ) ;
#68 = PLANE ( 'NONE',  #211 ) ;
#69 = ORIENTED_EDGE ( 'NONE', *, *, #126, .T. ) ;
#70 = FACE_OUTER_BOUND ( 'NONE', #118, .T. ) ;
#71 = ADVANCED_BREP_SHAPE_REPRESENTATION ( '82953', ( #284, #280, #67 ), #166 ) ;
#72 = SURFACE_SIDE_STYLE ('',( #208 ) ) ;
#73 = VECTOR ( 'NONE', #298, 39.37007874015748143 ) ;
#74 = SURFACE_SIDE_STYLE ('',( #224 ) ) ;
#75 = DIRECTION ( 'NONE',  ( 0.000000000000000000, 1.000000000000000000, 0.000000000000000000 ) ) ;
#76 = CARTESIAN_POINT ( 'NONE',  ( 4.286263797015736595E-16, 2.500000000000000000, 0.000000000000000000 ) ) ;
#77 = EDGE_CURVE ( 'NONE', #138, #15, #83, .T. ) ;
#78 = PRESENTATION_STYLE_ASSIGNMENT (( #46 ) ) ;
#79 = UNCERTAINTY_MEASURE_WITH_UNIT (LENGTH_MEASURE( 1.000000000000000082E-05 ), #247, 'distance_accuracy_value', 'NONE');
#80 = DIMENSIONAL_EXPONENTS ( 1.000000000000000000, 0.000000000000000000, 0.000000000000000000, 0.000000000000000000, 0.000000000000000000, 0.000000000000000000, 0.000000000000000000 ) ;
#81 = SURFACE_STYLE_FILL_AREA ( #295 ) ;
#82 = MECHANICAL_DESIGN_GEOMETRIC_PRESENTATION_REPRESENTATION (  '', ( #200 ), #49 ) ;
#83 = LINE ( 'NONE', #274, #102 ) ;
#84 = DIRECTION ( 'NONE',  ( 0.000000000000000000, 0.000000000000000000, -1.000000000000000000 ) ) ;
#85 = CARTESIAN_POINT ( 'NONE',  ( 0.000000000000000000, 0.000000000000000000, 0.000000000000000000 ) ) ;
#86 = CIRCLE ( 'NONE', #24, 0.09374999999999958367 ) ;
#87 = EDGE_LOOP ( 'NONE', ( #61, #213 ) ) ;
#88 = DIRECTION ( 'NONE',  ( -1.000000000000000000, 0.000000000000000000, 0.000000000000000000 ) ) ;
#89 = PRESENTATION_LAYER_ASSIGNMENT (  '', '', ( #136 ) ) ;
#90 = STYLED_ITEM ( 'NONE', ( #3 ), #280 ) ;
#91 = CARTESIAN_POINT ( 'NONE',  ( -6.065921084684207584E-32, 1.000000000000000000, 0.000000000000000000 ) ) ;
#92 =( LENGTH_UNIT ( ) NAMED_UNIT ( * ) SI_UNIT ( $, .METRE. ) );
#93 = DIRECTION ( 'NONE',  ( 0.000000000000000000, 0.000000000000000000, -1.000000000000000000 ) ) ;
#94 = ORIENTED_EDGE ( 'NONE', *, *, #216, .F. ) ;
#95 = DIMENSIONAL_EXPONENTS ( 1.000000000000000000, 0.000000000000000000, 0.000000000000000000, 0.000000000000000000, 0.000000000000000000, 0.000000000000000000, 0.000000000000000000 ) ;
#96 = EDGE_CURVE ( 'NONE', #215, #15, #287, .T. ) ;
#97 = MECHANICAL_DESIGN_GEOMETRIC_PRESENTATION_REPRESENTATION (  '', ( #90 ), #218 ) ;
#98 =( NAMED_UNIT ( * ) SI_UNIT ( $, .STERADIAN. ) SOLID_ANGLE_UNIT ( ) );
#99 = PLANE ( 'NONE',  #244 ) ;
#100 = ADVANCED_FACE ( 'NONE', ( #60 ), #14, .T. ) ;
#101 = CARTESIAN_POINT ( 'NONE',  ( -6.065921084684207584E-32, 1.000000000000000000, 0.000000000000000000 ) ) ;
#102 = VECTOR ( 'NONE', #226, 39.37007874015748143 ) ;
#103 = DIMENSIONAL_EXPONENTS ( 1.000000000000000000, 0.000000000000000000, 0.000000000000000000, 0.000000000000000000, 0.000000000000000000, 0.000000000000000000, 0.000000000000000000 ) ;
#104 = ADVANCED_FACE ( 'NONE', ( #214 ), #68, .F. ) ;
#105 = DIRECTION ( 'NONE',  ( -0.000000000000000000, -1.000000000000000000, -0.000000000000000000 ) ) ;
#106 = COLOUR_RGB ( '',1.000000000000000000, 0.000000000000000000, 0.000000000000000000 ) ;
#107 =( NAMED_UNIT ( * ) PLANE_ANGLE_UNIT ( ) SI_UNIT ( $, .RADIAN. ) );
#108 =( NAMED_UNIT ( * ) PLANE_ANGLE_UNIT ( ) SI_UNIT ( $, .RADIAN. ) );
#109 = ADVANCED_FACE ( 'NONE', ( #117 ), #43, .T. ) ;
#110 = ORIENTED_EDGE ( 'NONE', *, *, #77, .T. ) ;
#111 = CARTESIAN_POINT ( 'NONE',  ( 4.286263797015736595E-16, 2.500000000000000000, 0.000000000000000000 ) ) ;
#112 = CIRCLE ( 'NONE', #50, 0.09375000000000001388 ) ;
#113 = CARTESIAN_POINT ( 'NONE',  ( 3.827511945334950814E-33, 1.000000000000000000, 0.000000000000000000 ) ) ;
#114 = VERTEX_POINT ( 'NONE', #212 ) ;
#115 = PRODUCT_DEFINITION ( 'UNKNOWN', '', #129, #192 ) ;
#116 = ORIENTED_EDGE ( 'NONE', *, *, #216, .T. ) ;
#117 = FACE_OUTER_BOUND ( 'NONE', #261, .T. ) ;
#118 = EDGE_LOOP ( 'NONE', ( #69, #257, #279, #197 ) ) ;
#119 = PRESENTATION_LAYER_ASSIGNMENT (  '', '', ( #237 ) ) ;
#120 = LENGTH_MEASURE_WITH_UNIT ( LENGTH_MEASURE( 0.02539999999999999897 ), #92 );
#121 = ORIENTED_EDGE ( 'NONE', *, *, #260, .F. ) ;
#122 = DIRECTION ( 'NONE',  ( -0.000000000000000000, -1.000000000000000000, -0.000000000000000000 ) ) ;
#123 = CARTESIAN_POINT ( 'NONE',  ( 0.000000000000000000, 1.000000000000000000, 0.000000000000000000 ) ) ;
#124 = CARTESIAN_POINT ( 'NONE',  ( 0.000000000000000000, 0.000000000000000000, 0.000000000000000000 ) ) ;
#125 =( LENGTH_UNIT ( ) NAMED_UNIT ( * ) SI_UNIT ( $, .METRE. ) );
#126 = EDGE_CURVE ( 'NONE', #20, #114, #112, .T. ) ;
#127 = DIRECTION ( 'NONE',  ( 1.000000000000000000, 0.000000000000000000, 0.000000000000000000 ) ) ;
#128 = AXIS2_PLACEMENT_3D ( 'NONE', #85, #230, #204 ) ;
#129 = PRODUCT_DEFINITION_FORMATION_WITH_SPECIFIED_SOURCE ( 'ANY', '', #150, .NOT_KNOWN. ) ;
#130 = ADVANCED_FACE ( 'NONE', ( #256 ), #134, .F. ) ;
#131 = FILL_AREA_STYLE_COLOUR ( '', #33 ) ;
#132 = EDGE_LOOP ( 'NONE', ( #194, #283 ) ) ;
#133 = DIRECTION ( 'NONE',  ( -0.000000000000000000, -1.000000000000000000, -0.000000000000000000 ) ) ;
#134 = PLANE ( 'NONE',  #148 ) ;
#135 = ORIENTED_EDGE ( 'NONE', *, *, #35, .F. ) ;
#136 = STYLED_ITEM ( 'NONE', ( #254 ), #5 ) ;
#137 = DIRECTION ( 'NONE',  ( 1.000000000000000000, -2.857509198010491228E-16, 0.000000000000000000 ) ) ;
#138 = VERTEX_POINT ( 'NONE', #163 ) ;
#139 = SURFACE_STYLE_FILL_AREA ( #39 ) ;
#140 = ORIENTED_EDGE ( 'NONE', *, *, #44, .T. ) ;
#141 = CYLINDRICAL_SURFACE ( 'NONE', #66, 0.09374999999999979183 ) ;
#142 = EDGE_LOOP ( 'NONE', ( #189, #140, #308, #135 ) ) ;
#143 = FACE_OUTER_BOUND ( 'NONE', #142, .T. ) ;
#144 = ORIENTED_EDGE ( 'NONE', *, *, #202, .T. ) ;
#145 = DIRECTION ( 'NONE',  ( -0.000000000000000000, -1.000000000000000000, -0.000000000000000000 ) ) ;
#146 =( LENGTH_UNIT ( ) NAMED_UNIT ( * ) SI_UNIT ( $, .METRE. ) );
#147 = CLOSED_SHELL ( 'NONE', ( #109, #276, #169, #5 ) ) ;
#148 = AXIS2_PLACEMENT_3D ( 'NONE', #63, #259, #137 ) ;
#149 =( NAMED_UNIT ( * ) SI_UNIT ( $, .STERADIAN. ) SOLID_ANGLE_UNIT ( ) );
#150 = PRODUCT ( '82953', '82953', '', ( #294 ) ) ;
#151 = DIRECTION ( 'NONE',  ( 2.857509198010491228E-16, 1.000000000000000000, -0.000000000000000000 ) ) ;
#152 = CARTESIAN_POINT ( 'NONE',  ( 0.000000000000000000, 0.000000000000000000, 0.000000000000000000 ) ) ;
#153 = ADVANCED_FACE ( 'NONE', ( #70 ), #141, .T. ) ;
#154 = MECHANICAL_DESIGN_GEOMETRIC_PRESENTATION_REPRESENTATION (  '', ( #136 ), #195 ) ;
#155 = VECTOR ( 'NONE', #18, 39.37007874015748143 ) ;
#156 = ORIENTED_EDGE ( 'NONE', *, *, #96, .F. ) ;
#157 = SURFACE_STYLE_USAGE ( .BOTH. , #29 ) ;
#158 = LINE ( 'NONE', #205, #73 ) ;
#159 = CIRCLE ( 'NONE', #184, 0.09375000000000001388 ) ;
#160 = PRESENTATION_STYLE_ASSIGNMENT (( #299 ) ) ;
#161 = EDGE_LOOP ( 'NONE', ( #94, #282 ) ) ;
#162 = EDGE_CURVE ( 'NONE', #20, #11, #234, .T. ) ;
#163 = CARTESIAN_POINT ( 'NONE',  ( 1.148106374200643863E-17, 1.000000000000000000, 0.09375000000000001388 ) ) ;
#164 = CARTESIAN_POINT ( 'NONE',  ( 0.000000000000000000, 0.000000000000000000, 0.000000000000000000 ) ) ;
#165 = AXIS2_PLACEMENT_3D ( 'NONE', #271, #105, #13 ) ;
#166 =( GEOMETRIC_REPRESENTATION_CONTEXT ( 3 ) GLOBAL_UNCERTAINTY_ASSIGNED_CONTEXT ( ( #309 ) ) GLOBAL_UNIT_ASSIGNED_CONTEXT ( ( #252, #245, #12 ) ) REPRESENTATION_CONTEXT ( 'NONE', 'WORKASPACE' ) );
#167 =( NAMED_UNIT ( * ) PLANE_ANGLE_UNIT ( ) SI_UNIT ( $, .RADIAN. ) );
#168 = ORIENTED_EDGE ( 'NONE', *, *, #162, .T. ) ;
#169 = ADVANCED_FACE ( 'NONE', ( #143 ), #232, .T. ) ;
#170 = SURFACE_STYLE_USAGE ( .BOTH. , #72 ) ;
#171 = DIRECTION ( 'NONE',  ( 0.000000000000000000, 0.000000000000000000, -1.000000000000000000 ) ) ;
#172 = CARTESIAN_POINT ( 'NONE',  ( 0.000000000000000000, 0.000000000000000000, -0.09375000000000001388 ) ) ;
#173 = DIMENSIONAL_EXPONENTS ( 1.000000000000000000, 0.000000000000000000, 0.000000000000000000, 0.000000000000000000, 0.000000000000000000, 0.000000000000000000, 0.000000000000000000 ) ;
#174 = FILL_AREA_STYLE ('',( #201 ) ) ;
#175 =( LENGTH_UNIT ( ) NAMED_UNIT ( * ) SI_UNIT ( $, .METRE. ) );
#176 =( CONVERSION_BASED_UNIT ( 'INCH', #57 ) LENGTH_UNIT ( ) NAMED_UNIT ( #173 ) );
#177 = VECTOR ( 'NONE', #145, 39.37007874015748143 ) ;
#178 = ORIENTED_EDGE ( 'NONE', *, *, #272, .F. ) ;
#179 = SURFACE_STYLE_FILL_AREA ( #268 ) ;
#180 = CARTESIAN_POINT ( 'NONE',  ( 0.000000000000000000, 0.000000000000000000, 0.000000000000000000 ) ) ;
#181 = CARTESIAN_POINT ( 'NONE',  ( -0.09374999999999915345, 2.500000000000000000, 0.000000000000000000 ) ) ;
#182 = CLOSED_SHELL ( 'NONE', ( #153, #104, #100, #130 ) ) ;
#183 = CARTESIAN_POINT ( 'NONE',  ( 0.000000000000000000, 0.000000000000000000, 0.000000000000000000 ) ) ;
#184 = AXIS2_PLACEMENT_3D ( 'NONE', #222, #193, #171 ) ;
#185 =( CONVERSION_BASED_UNIT ( 'INCH', #210 ) LENGTH_UNIT ( ) NAMED_UNIT ( #55 ) );
#186 = PRODUCT_DEFINITION_SHAPE ( 'NONE', 'NONE',  #115 ) ;
#187 = DIRECTION ( 'NONE',  ( -1.000000000000000000, 0.000000000000000000, 0.000000000000000000 ) ) ;
#188 = AXIS2_PLACEMENT_3D ( 'NONE', #183, #300, #84 ) ;
#189 = ORIENTED_EDGE ( 'NONE', *, *, #77, .F. ) ;
#190 = CIRCLE ( 'NONE', #296, 0.09374999999999958367 ) ;
#191 = CIRCLE ( 'NONE', #290, 0.09375000000000001388 ) ;
#192 = PRODUCT_DEFINITION_CONTEXT ( 'detailed design', #54, 'design' ) ;
#193 = DIRECTION ( 'NONE',  ( -0.000000000000000000, -1.000000000000000000, -0.000000000000000000 ) ) ;
#194 = ORIENTED_EDGE ( 'NONE', *, *, #246, .T. ) ;
#195 =( GEOMETRIC_REPRESENTATION_CONTEXT ( 3 ) GLOBAL_UNCERTAINTY_ASSIGNED_CONTEXT ( ( #220 ) ) GLOBAL_UNIT_ASSIGNED_CONTEXT ( ( #227, #108, #231 ) ) REPRESENTATION_CONTEXT ( 'NONE', 'WORKASPACE' ) );
#196 = PRESENTATION_LAYER_ASSIGNMENT (  '', '', ( #90 ) ) ;
#197 = ORIENTED_EDGE ( 'NONE', *, *, #162, .F. ) ;
#198 =( CONVERSION_BASED_UNIT ( 'INCH', #48 ) LENGTH_UNIT ( ) NAMED_UNIT ( #80 ) );
#199 = DIRECTION ( 'NONE',  ( -1.000000000000000000, 0.000000000000000000, 0.000000000000000000 ) ) ;
#200 = STYLED_ITEM ( 'NONE', ( #235 ), #169 ) ;
#201 = FILL_AREA_STYLE_COLOUR ( '', #264 ) ;
#202 = EDGE_CURVE ( 'NONE', #114, #20, #191, .T. ) ;
#203 = LENGTH_MEASURE_WITH_UNIT ( LENGTH_MEASURE( 0.02539999999999999897 ), #273 );
#204 = DIRECTION ( 'NONE',  ( 0.000000000000000000, 0.000000000000000000, -1.000000000000000000 ) ) ;
#205 = CARTESIAN_POINT ( 'NONE',  ( 0.09375000000000020817, 2.500000000000000000, 1.148106374200640935E-17 ) ) ;
#206 = DIRECTION ( 'NONE',  ( 2.857509198010491228E-16, 1.000000000000000000, -0.000000000000000000 ) ) ;
#207 = CIRCLE ( 'NONE', #165, 0.09375000000000001388 ) ;
#208 = SURFACE_STYLE_FILL_AREA ( #304 ) ;
#209 = FILL_AREA_STYLE_COLOUR ( '', #106 ) ;
#210 = LENGTH_MEASURE_WITH_UNIT ( LENGTH_MEASURE( 0.02539999999999999897 ), #238 );
#211 = AXIS2_PLACEMENT_3D ( 'NONE', #113, #64, #40 ) ;
#212 = CARTESIAN_POINT ( 'NONE',  ( 0.09375000000000001388, 1.000000000000000000, 1.148106374200642476E-17 ) ) ;
#213 = ORIENTED_EDGE ( 'NONE', *, *, #202, .F. ) ;
#214 = FACE_OUTER_BOUND ( 'NONE', #87, .T. ) ;
#215 = VERTEX_POINT ( 'NONE', #51 ) ;
#216 = EDGE_CURVE ( 'NONE', #239, #138, #159, .T. ) ;
#217 = SURFACE_STYLE_USAGE ( .BOTH. , #240 ) ;
#218 =( GEOMETRIC_REPRESENTATION_CONTEXT ( 3 ) GLOBAL_UNCERTAINTY_ASSIGNED_CONTEXT ( ( #65 ) ) GLOBAL_UNIT_ASSIGNED_CONTEXT ( ( #176, #107, #301 ) ) REPRESENTATION_CONTEXT ( 'NONE', 'WORKASPACE' ) );
#219 = DIRECTION ( 'NONE',  ( 2.857509198010491228E-16, 1.000000000000000000, -0.000000000000000000 ) ) ;
#220 = UNCERTAINTY_MEASURE_WITH_UNIT (LENGTH_MEASURE( 1.000000000000000082E-05 ), #227, 'distance_accuracy_value', 'NONE');
#221 = FILL_AREA_STYLE_COLOUR ( '', #37 ) ;
#222 = CARTESIAN_POINT ( 'NONE',  ( 0.000000000000000000, 1.000000000000000000, 0.000000000000000000 ) ) ;
#223 = UNCERTAINTY_MEASURE_WITH_UNIT (LENGTH_MEASURE( 1.000000000000000082E-05 ), #265, 'distance_accuracy_value', 'NONE');
#224 = SURFACE_STYLE_FILL_AREA ( #45 ) ;
#225 = DIRECTION ( 'NONE',  ( 0.000000000000000000, 0.000000000000000000, 1.000000000000000000 ) ) ;
#226 = DIRECTION ( 'NONE',  ( -0.000000000000000000, -1.000000000000000000, -0.000000000000000000 ) ) ;
#227 =( CONVERSION_BASED_UNIT ( 'INCH', #58 ) LENGTH_UNIT ( ) NAMED_UNIT ( #291 ) );
#228 = STYLED_ITEM ( 'NONE', ( #258 ), #109 ) ;
#229 =( NAMED_UNIT ( * ) SI_UNIT ( $, .STERADIAN. ) SOLID_ANGLE_UNIT ( ) );
#230 = DIRECTION ( 'NONE',  ( -0.000000000000000000, -1.000000000000000000, -0.000000000000000000 ) ) ;
#231 =( NAMED_UNIT ( * ) SI_UNIT ( $, .STERADIAN. ) SOLID_ANGLE_UNIT ( ) );
#232 = CYLINDRICAL_SURFACE ( 'NONE', #251, 0.09375000000000001388 ) ;
#233 = STYLED_ITEM ( 'NONE', ( #78 ), #276 ) ;
#234 = LINE ( 'NONE', #23, #155 ) ;
#235 = PRESENTATION_STYLE_ASSIGNMENT (( #281 ) ) ;
#236 = DIRECTION ( 'NONE',  ( -0.000000000000000000, -1.000000000000000000, -0.000000000000000000 ) ) ;
#237 = STYLED_ITEM ( 'NONE', ( #160 ), #284 ) ;
#238 =( LENGTH_UNIT ( ) NAMED_UNIT ( * ) SI_UNIT ( $, .METRE. ) );
#239 = VERTEX_POINT ( 'NONE', #6 ) ;
#240 = SURFACE_SIDE_STYLE ('',( #53 ) ) ;
#241 = UNCERTAINTY_MEASURE_WITH_UNIT (LENGTH_MEASURE( 1.000000000000000082E-05 ), #198, 'distance_accuracy_value', 'NONE');
#242 =( NAMED_UNIT ( * ) PLANE_ANGLE_UNIT ( ) SI_UNIT ( $, .RADIAN. ) );
#243 = DIRECTION ( 'NONE',  ( -1.000000000000000000, 0.000000000000000000, 0.000000000000000000 ) ) ;
#244 = AXIS2_PLACEMENT_3D ( 'NONE', #123, #75, #7 ) ;
#245 =( NAMED_UNIT ( * ) PLANE_ANGLE_UNIT ( ) SI_UNIT ( $, .RADIAN. ) );
#246 = EDGE_CURVE ( 'NONE', #11, #32, #86, .T. ) ;
#247 =( CONVERSION_BASED_UNIT ( 'INCH', #293 ) LENGTH_UNIT ( ) NAMED_UNIT ( #25 ) );
#248 = FACE_OUTER_BOUND ( 'NONE', #19, .T. ) ;
#249 = APPLICATION_PROTOCOL_DEFINITION ( 'draft international standard', 'automotive_design', 1998, #54 ) ;
#250 = FILL_AREA_STYLE_COLOUR ( '', #10 ) ;
#251 = AXIS2_PLACEMENT_3D ( 'NONE', #152, #122, #93 ) ;
#252 =( CONVERSION_BASED_UNIT ( 'INCH', #203 ) LENGTH_UNIT ( ) NAMED_UNIT ( #103 ) );
#253 = MECHANICAL_DESIGN_GEOMETRIC_PRESENTATION_REPRESENTATION (  '', ( #237 ), #38 ) ;
#254 = PRESENTATION_STYLE_ASSIGNMENT (( #157 ) ) ;
#255 = DIRECTION ( 'NONE',  ( 2.857509198010491228E-16, 1.000000000000000000, -0.000000000000000000 ) ) ;
#256 = FACE_OUTER_BOUND ( 'NONE', #132, .T. ) ;
#257 = ORIENTED_EDGE ( 'NONE', *, *, #52, .T. ) ;
#258 = PRESENTATION_STYLE_ASSIGNMENT (( #170 ) ) ;
#259 = DIRECTION ( 'NONE',  ( -2.857509198010491228E-16, -1.000000000000000000, 0.000000000000000000 ) ) ;
#260 = EDGE_CURVE ( 'NONE', #32, #11, #190, .T. ) ;
#261 = EDGE_LOOP ( 'NONE', ( #116, #110, #156, #178 ) ) ;
#262 = CARTESIAN_POINT ( 'NONE',  ( 4.286263797015736595E-16, 2.500000000000000000, 0.000000000000000000 ) ) ;
#263 = ORIENTED_EDGE ( 'NONE', *, *, #52, .F. ) ;
#264 = COLOUR_RGB ( '',0.7921568627450980005, 0.8196078431372548767, 0.9333333333333333481 ) ;
#265 =( CONVERSION_BASED_UNIT ( 'INCH', #120 ) LENGTH_UNIT ( ) NAMED_UNIT ( #95 ) );
#266 = DIRECTION ( 'NONE',  ( -1.000000000000000000, 0.000000000000000000, 0.000000000000000000 ) ) ;
#267 = MECHANICAL_DESIGN_GEOMETRIC_PRESENTATION_REPRESENTATION (  '', ( #228 ), #306 ) ;
#268 = FILL_AREA_STYLE ('',( #131 ) ) ;
#269 = DIRECTION ( 'NONE',  ( 0.000000000000000000, 0.000000000000000000, -1.000000000000000000 ) ) ;
#270 = SURFACE_SIDE_STYLE ('',( #179 ) ) ;
#271 = CARTESIAN_POINT ( 'NONE',  ( 0.000000000000000000, 1.000000000000000000, 0.000000000000000000 ) ) ;
#272 = EDGE_CURVE ( 'NONE', #239, #215, #292, .T. ) ;
#273 =( LENGTH_UNIT ( ) NAMED_UNIT ( * ) SI_UNIT ( $, .METRE. ) );
#274 = CARTESIAN_POINT ( 'NONE',  ( 1.148106374200643863E-17, 0.000000000000000000, 0.09375000000000001388 ) ) ;
#275 =( NAMED_UNIT ( * ) SI_UNIT ( $, .STERADIAN. ) SOLID_ANGLE_UNIT ( ) );
#276 = ADVANCED_FACE ( 'NONE', ( #289 ), #99, .T. ) ;
#277 = ORIENTED_EDGE ( 'NONE', *, *, #96, .T. ) ;
#278 = AXIS2_PLACEMENT_3D ( 'NONE', #111, #206, #266 ) ;
#279 = ORIENTED_EDGE ( 'NONE', *, *, #246, .F. ) ;
#280 = MANIFOLD_SOLID_BREP ( 'Revolve - Tool Body (Straight Shanked)', #182 ) ;
#281 = SURFACE_STYLE_USAGE ( .BOTH. , #1 ) ;
#282 = ORIENTED_EDGE ( 'NONE', *, *, #44, .F. ) ;
#283 = ORIENTED_EDGE ( 'NONE', *, *, #260, .T. ) ;
#284 = MANIFOLD_SOLID_BREP ( 'Revolve - Cutting Edge', #147 ) ;
#285 = DIRECTION ( 'NONE',  ( 2.857509198010491228E-16, 1.000000000000000000, -0.000000000000000000 ) ) ;
#286 = ORIENTED_EDGE ( 'NONE', *, *, #35, .T. ) ;
#287 = CIRCLE ( 'NONE', #42, 0.09375000000000001388 ) ;
#288 =( NAMED_UNIT ( * ) PLANE_ANGLE_UNIT ( ) SI_UNIT ( $, .RADIAN. ) );
#289 = FACE_OUTER_BOUND ( 'NONE', #161, .T. ) ;
#290 = AXIS2_PLACEMENT_3D ( 'NONE', #101, #219, #243 ) ;
#291 = DIMENSIONAL_EXPONENTS ( 1.000000000000000000, 0.000000000000000000, 0.000000000000000000, 0.000000000000000000, 0.000000000000000000, 0.000000000000000000, 0.000000000000000000 ) ;
#292 = LINE ( 'NONE', #172, #177 ) ;
#293 = LENGTH_MEASURE_WITH_UNIT ( LENGTH_MEASURE( 0.02539999999999999897 ), #175 );
#294 = PRODUCT_CONTEXT ( 'NONE', #305, 'mechanical' ) ;
#295 = FILL_AREA_STYLE ('',( #250 ) ) ;
#296 = AXIS2_PLACEMENT_3D ( 'NONE', #262, #151, #27 ) ;
#297 = APPLICATION_PROTOCOL_DEFINITION ( 'draft international standard', 'automotive_design', 1998, #305 ) ;
#298 = DIRECTION ( 'NONE',  ( 2.857509198010491228E-16, 1.000000000000000000, -0.000000000000000000 ) ) ;
#299 = SURFACE_STYLE_USAGE ( .BOTH. , #270 ) ;
#300 = DIRECTION ( 'NONE',  ( 0.000000000000000000, -1.000000000000000000, -0.000000000000000000 ) ) ;
#301 =( NAMED_UNIT ( * ) SI_UNIT ( $, .STERADIAN. ) SOLID_ANGLE_UNIT ( ) );
#302 = AXIS2_PLACEMENT_3D ( 'NONE', #164, #236, #307 ) ;
#303 = CARTESIAN_POINT ( 'NONE',  ( 0.09375000000000001388, 2.500000000000000000, 1.148106374200642476E-17 ) ) ;
#304 = FILL_AREA_STYLE ('',( #209 ) ) ;
#305 = APPLICATION_CONTEXT ( 'automotive_design' ) ;
#306 =( GEOMETRIC_REPRESENTATION_CONTEXT ( 3 ) GLOBAL_UNCERTAINTY_ASSIGNED_CONTEXT ( ( #26 ) ) GLOBAL_UNIT_ASSIGNED_CONTEXT ( ( #185, #167, #275 ) ) REPRESENTATION_CONTEXT ( 'NONE', 'WORKASPACE' ) );
#307 = DIRECTION ( 'NONE',  ( 0.000000000000000000, 0.000000000000000000, -1.000000000000000000 ) ) ;
#308 = ORIENTED_EDGE ( 'NONE', *, *, #272, .T. ) ;
#309 = UNCERTAINTY_MEASURE_WITH_UNIT (LENGTH_MEASURE( 1.000000000000000082E-05 ), #252, 'distance_accuracy_value', 'NONE');
ENDSEC;
END-ISO-10303-21;
