ISO-10303-21;
HEADER;
FILE_DESCRIPTION (( 'STEP AP214' ),
    '1' );
FILE_NAME ('Micro_SFBM-060-12.STEP',
    '2021-09-03T16:44:08',
    ( '' ),
    ( '' ),
    'SwSTEP 2.0',
    'SolidWorks 2020',
    '' );
FILE_SCHEMA (( 'AUTOMOTIVE_DESIGN' ));
ENDSEC;

DATA;
#1 = ADVANCED_FACE ( 'NONE', ( #240 ), #123, .T. ) ;
#2 = EDGE_LOOP ( 'NONE', ( #128, #132, #52, #256 ) ) ;
#3 = EDGE_CURVE ( 'NONE', #140, #58, #9, .T. ) ;
#4 = CONICAL_SURFACE ( 'NONE', #116, 0.1031100000000002570, 0.7853981633974318477 ) ;
#5 = CARTESIAN_POINT ( 'NONE',  ( 0.0000000000000000000, 0.0000000000000000000, 2.244094000000000033 ) ) ;
#6 = PRESENTATION_STYLE_ASSIGNMENT (( #122 ) ) ;
#7 = ADVANCED_FACE ( 'NONE', ( #209 ), #4, .T. ) ;
#8 = CARTESIAN_POINT ( 'NONE',  ( 0.0000000000000000000, 0.0000000000000000000, 0.0000000000000000000 ) ) ;
#9 = LINE ( 'NONE', #94, #334 ) ;
#10 = DIMENSIONAL_EXPONENTS ( 1.000000000000000000, 0.0000000000000000000, 0.0000000000000000000, 0.0000000000000000000, 0.0000000000000000000, 0.0000000000000000000, 0.0000000000000000000 ) ;
#11 = PLANE ( 'NONE',  #225 ) ;
#12 = UNCERTAINTY_MEASURE_WITH_UNIT (LENGTH_MEASURE( 1.000000000000000082E-05 ), #362, 'distance_accuracy_value', 'NONE');
#13 = MANIFOLD_SOLID_BREP ( 'Cut-Revolve1', #45 ) ;
#14 = ORIENTED_EDGE ( 'NONE', *, *, #227, .T. ) ;
#15 = CARTESIAN_POINT ( 'NONE',  ( 0.0000000000000000000, 0.0000000000000000000, 0.4803150000000001030 ) ) ;
#16 = LINE ( 'NONE', #134, #137 ) ;
#17 = VERTEX_POINT ( 'NONE', #88 ) ;
#18 = CARTESIAN_POINT ( 'NONE',  ( 0.0000000000000000000, 0.0000000000000000000, 0.0000000000000000000 ) ) ;
#19 = VERTEX_POINT ( 'NONE', #66 ) ;
#20 = DIRECTION ( 'NONE',  ( -1.000000000000000000, 0.0000000000000000000, 0.0000000000000000000 ) ) ;
#21 = ORIENTED_EDGE ( 'NONE', *, *, #295, .F. ) ;
#22 = AXIS2_PLACEMENT_3D ( 'NONE', #232, #118, #169 ) ;
#23 = DIRECTION ( 'NONE',  ( 0.0000000000000000000, 0.0000000000000000000, 1.000000000000000000 ) ) ;
#24 = ADVANCED_FACE ( 'NONE', ( #349 ), #269, .T. ) ;
#25 = VERTEX_POINT ( 'NONE', #148 ) ;
#26 = FACE_OUTER_BOUND ( 'NONE', #36, .T. ) ;
#27 = EDGE_CURVE ( 'NONE', #221, #168, #234, .T. ) ;
#28 = CARTESIAN_POINT ( 'NONE',  ( -0.1161415000000000364, 0.0000000000000000000, 0.0000000000000000000 ) ) ;
#29 = CIRCLE ( 'NONE', #321, 0.1180981890000000339 ) ;
#30 = DIRECTION ( 'NONE',  ( -0.0000000000000000000, -0.0000000000000000000, -1.000000000000000000 ) ) ;
#31 = STYLED_ITEM ( 'NONE', ( #365 ), #188 ) ;
#32 = CARTESIAN_POINT ( 'NONE',  ( -0.1161415000000000641, 0.0000000000000000000, 0.4803150000000000475 ) ) ;
#33 = SURFACE_SIDE_STYLE ('',( #296 ) ) ;
#34 = CYLINDRICAL_SURFACE ( 'NONE', #129, 0.1161415000000000364 ) ;
#35 = AXIS2_PLACEMENT_3D ( 'NONE', #378, #322, #114 ) ;
#36 = EDGE_LOOP ( 'NONE', ( #223, #337, #308, #177 ) ) ;
#37 = CARTESIAN_POINT ( 'NONE',  ( 0.0000000000000000000, 0.0000000000000000000, 0.4803150000000000475 ) ) ;
#38 = DIRECTION ( 'NONE',  ( -1.000000000000000000, 0.0000000000000000000, 0.0000000000000000000 ) ) ;
#39 = DIRECTION ( 'NONE',  ( -0.0000000000000000000, -0.0000000000000000000, -1.000000000000000000 ) ) ;
#40 = EDGE_CURVE ( 'NONE', #126, #58, #155, .T. ) ;
#41 = AXIS2_PLACEMENT_3D ( 'NONE', #309, #186, #332 ) ;
#42 = DIRECTION ( 'NONE',  ( 0.0000000000000000000, 0.0000000000000000000, 1.000000000000000000 ) ) ;
#43 = CIRCLE ( 'NONE', #172, 0.1161415000000000225 ) ;
#44 = EDGE_LOOP ( 'NONE', ( #14, #371 ) ) ;
#45 = CLOSED_SHELL ( 'NONE', ( #89, #200, #323, #7, #24, #178, #267, #1, #248, #111, #60, #93, #199 ) ) ;
#46 = DIRECTION ( 'NONE',  ( -1.000000000000000000, 0.0000000000000000000, 0.0000000000000000000 ) ) ;
#47 = ORIENTED_EDGE ( 'NONE', *, *, #27, .T. ) ;
#48 =( NAMED_UNIT ( * ) PLANE_ANGLE_UNIT ( ) SI_UNIT ( $, .RADIAN. ) );
#49 = ORIENTED_EDGE ( 'NONE', *, *, #120, .T. ) ;
#50 = EDGE_CURVE ( 'NONE', #339, #163, #143, .T. ) ;
#51 =( NAMED_UNIT ( * ) SI_UNIT ( $, .STERADIAN. ) SOLID_ANGLE_UNIT ( ) );
#52 = ORIENTED_EDGE ( 'NONE', *, *, #273, .T. ) ;
#53 = CARTESIAN_POINT ( 'NONE',  ( 0.1161415000000000780, 1.422323162231723977E-17, 0.4803150000000000475 ) ) ;
#54 = ORIENTED_EDGE ( 'NONE', *, *, #273, .F. ) ;
#55 = VECTOR ( 'NONE', #212, 39.37007874015748143 ) ;
#56 = CIRCLE ( 'NONE', #102, 0.1031100000000002570 ) ;
#57 = EDGE_CURVE ( 'NONE', #163, #339, #284, .T. ) ;
#58 = VERTEX_POINT ( 'NONE', #201 ) ;
#59 = ORIENTED_EDGE ( 'NONE', *, *, #40, .T. ) ;
#60 = ADVANCED_FACE ( 'NONE', ( #173 ), #34, .T. ) ;
#61 = ORIENTED_EDGE ( 'NONE', *, *, #72, .T. ) ;
#62 = DIRECTION ( 'NONE',  ( -0.0000000000000000000, -0.0000000000000000000, -1.000000000000000000 ) ) ;
#63 = COLOUR_RGB ( '',0.7921568627450980005, 0.8196078431372548767, 0.9333333333333333481 ) ;
#64 = CONICAL_SURFACE ( 'NONE', #151, 0.1180981890000000339, 0.1745329251994338637 ) ;
#65 = CARTESIAN_POINT ( 'NONE',  ( 0.1161415000000000641, 0.0000000000000000000, 0.4803150000000000475 ) ) ;
#66 = CARTESIAN_POINT ( 'NONE',  ( -0.1181100000000000066, 0.0000000000000000000, 0.4803150000000001030 ) ) ;
#67 = DIRECTION ( 'NONE',  ( -0.7071067811865358044, 0.0000000000000000000, -0.7071067811865590080 ) ) ;
#68 = CIRCLE ( 'NONE', #156, 0.1031100000000002570 ) ;
#69 = ORIENTED_EDGE ( 'NONE', *, *, #136, .F. ) ;
#70 = LENGTH_MEASURE_WITH_UNIT ( LENGTH_MEASURE( 0.02539999999999999897 ), #204 );
#71 = DIRECTION ( 'NONE',  ( -0.0000000000000000000, 0.0000000000000000000, -1.000000000000000000 ) ) ;
#72 = EDGE_CURVE ( 'NONE', #17, #150, #293, .T. ) ;
#73 = DIRECTION ( 'NONE',  ( 0.0000000000000000000, 0.0000000000000000000, -1.000000000000000000 ) ) ;
#74 = FACE_OUTER_BOUND ( 'NONE', #82, .T. ) ;
#75 = DIRECTION ( 'NONE',  ( 0.1736481776669312471, 2.126576849575782700E-17, -0.9848077530122077983 ) ) ;
#76 =( NAMED_UNIT ( * ) PLANE_ANGLE_UNIT ( ) SI_UNIT ( $, .RADIAN. ) );
#77 = ORIENTED_EDGE ( 'NONE', *, *, #176, .F. ) ;
#78 = VECTOR ( 'NONE', #152, 39.37007874015748143 ) ;
#79 = DIRECTION ( 'NONE',  ( -0.0000000000000000000, -0.0000000000000000000, -1.000000000000000000 ) ) ;
#80 = ORIENTED_EDGE ( 'NONE', *, *, #27, .F. ) ;
#81 = ORIENTED_EDGE ( 'NONE', *, *, #157, .F. ) ;
#82 = EDGE_LOOP ( 'NONE', ( #281, #167, #107, #77 ) ) ;
#83 =( LENGTH_UNIT ( ) NAMED_UNIT ( * ) SI_UNIT ( $, .METRE. ) );
#84 = AXIS2_PLACEMENT_3D ( 'NONE', #346, #348, #292 ) ;
#85 = ORIENTED_EDGE ( 'NONE', *, *, #317, .F. ) ;
#86 = DIRECTION ( 'NONE',  ( -1.000000000000000000, 0.0000000000000000000, 0.0000000000000000000 ) ) ;
#87 = CARTESIAN_POINT ( 'NONE',  ( 0.0000000000000000000, 0.0000000000000000000, 0.3063729347523458935 ) ) ;
#88 = CARTESIAN_POINT ( 'NONE',  ( 0.1180981890000000339, 1.446285691439492047E-17, 0.2952759999999999829 ) ) ;
#89 = ADVANCED_FACE ( 'NONE', ( #98 ), #131, .T. ) ;
#90 = CARTESIAN_POINT ( 'NONE',  ( 0.0000000000000000000, 0.0000000000000000000, 0.4803150000000001030 ) ) ;
#91 = DIRECTION ( 'NONE',  ( -0.0000000000000000000, -0.0000000000000000000, -1.000000000000000000 ) ) ;
#92 = PRESENTATION_LAYER_ASSIGNMENT (  '', '', ( #31 ) ) ;
#93 = ADVANCED_FACE ( 'NONE', ( #158 ), #277, .T. ) ;
#94 = CARTESIAN_POINT ( 'NONE',  ( 0.1031100000000002570, 1.262733314600838667E-17, 2.244094000000000033 ) ) ;
#95 = CARTESIAN_POINT ( 'NONE',  ( 0.0000000000000000000, 0.0000000000000000000, 0.2952759999999999829 ) ) ;
#96 = AXIS2_PLACEMENT_3D ( 'NONE', #370, #145, #233 ) ;
#97 = DIRECTION ( 'NONE',  ( -0.0000000000000000000, -0.0000000000000000000, -1.000000000000000000 ) ) ;
#98 = FACE_OUTER_BOUND ( 'NONE', #373, .T. ) ;
#99 = FACE_OUTER_BOUND ( 'NONE', #197, .T. ) ;
#100 = CARTESIAN_POINT ( 'NONE',  ( 0.0000000000000000000, 0.0000000000000000000, 0.2952759999999999829 ) ) ;
#101 = VERTEX_POINT ( 'NONE', #220 ) ;
#102 = AXIS2_PLACEMENT_3D ( 'NONE', #360, #272, #276 ) ;
#103 = DIRECTION ( 'NONE',  ( 0.0000000000000000000, 0.0000000000000000000, 1.000000000000000000 ) ) ;
#104 = ORIENTED_EDGE ( 'NONE', *, *, #120, .F. ) ;
#105 = LINE ( 'NONE', #313, #196 ) ;
#106 = EDGE_LOOP ( 'NONE', ( #59, #187, #206, #85 ) ) ;
#107 = ORIENTED_EDGE ( 'NONE', *, *, #298, .F. ) ;
#108 = PRODUCT_CONTEXT ( 'NONE', #297, 'mechanical' ) ;
#109 = ORIENTED_EDGE ( 'NONE', *, *, #355, .T. ) ;
#110 = CIRCLE ( 'NONE', #144, 0.1181100000000000066 ) ;
#111 = ADVANCED_FACE ( 'NONE', ( #304 ), #64, .T. ) ;
#112 = CARTESIAN_POINT ( 'NONE',  ( 0.0000000000000000000, 0.0000000000000000000, 2.244094000000000033 ) ) ;
#113 = PRODUCT_DEFINITION ( 'UNKNOWN', '', #130, #149 ) ;
#114 = DIRECTION ( 'NONE',  ( 1.000000000000000000, 0.0000000000000000000, 0.0000000000000000000 ) ) ;
#115 = EDGE_CURVE ( 'NONE', #25, #19, #375, .T. ) ;
#116 = AXIS2_PLACEMENT_3D ( 'NONE', #182, #324, #38 ) ;
#117 = AXIS2_PLACEMENT_3D ( 'NONE', #366, #343, #86 ) ;
#118 = DIRECTION ( 'NONE',  ( -0.0000000000000000000, -0.0000000000000000000, -1.000000000000000000 ) ) ;
#119 =( NAMED_UNIT ( * ) SI_UNIT ( $, .STERADIAN. ) SOLID_ANGLE_UNIT ( ) );
#120 = EDGE_CURVE ( 'NONE', #195, #221, #314, .T. ) ;
#121 = DIRECTION ( 'NONE',  ( -1.000000000000000000, 0.0000000000000000000, 0.0000000000000000000 ) ) ;
#122 = SURFACE_STYLE_USAGE ( .BOTH. , #33 ) ;
#123 = CONICAL_SURFACE ( 'NONE', #242, 0.1031100000000002570, 0.7853981633974318477 ) ;
#124 = VECTOR ( 'NONE', #376, 39.37007874015748143 ) ;
#125 = FACE_OUTER_BOUND ( 'NONE', #44, .T. ) ;
#126 = VERTEX_POINT ( 'NONE', #289 ) ;
#127 = ORIENTED_EDGE ( 'NONE', *, *, #239, .T. ) ;
#128 = ORIENTED_EDGE ( 'NONE', *, *, #3, .F. ) ;
#129 = AXIS2_PLACEMENT_3D ( 'NONE', #8, #30, #165 ) ;
#130 = PRODUCT_DEFINITION_FORMATION_WITH_SPECIFIED_SOURCE ( 'ANY', '', #231, .NOT_KNOWN. ) ;
#131 = CYLINDRICAL_SURFACE ( 'NONE', #274, 0.1180981890000000339 ) ;
#132 = ORIENTED_EDGE ( 'NONE', *, *, #239, .F. ) ;
#133 = FILL_AREA_STYLE_COLOUR ( '', #341 ) ;
#134 = CARTESIAN_POINT ( 'NONE',  ( 0.1161415000000000364, 1.422323162231723669E-17, 0.0000000000000000000 ) ) ;
#135 = EDGE_LOOP ( 'NONE', ( #310, #216, #142, #54 ) ) ;
#136 = EDGE_CURVE ( 'NONE', #101, #168, #318, .T. ) ;
#137 = VECTOR ( 'NONE', #250, 39.37007874015748143 ) ;
#138 = CYLINDRICAL_SURFACE ( 'NONE', #96, 0.1161415000000000364 ) ;
#139 = DIRECTION ( 'NONE',  ( 1.000000000000000000, 0.0000000000000000000, 0.0000000000000000000 ) ) ;
#140 = VERTEX_POINT ( 'NONE', #162 ) ;
#141 = CARTESIAN_POINT ( 'NONE',  ( -0.1180981890000000339, 0.0000000000000000000, 0.2952759999999999829 ) ) ;
#142 = ORIENTED_EDGE ( 'NONE', *, *, #40, .F. ) ;
#143 = CIRCLE ( 'NONE', #22, 0.1180981890000000339 ) ;
#144 = AXIS2_PLACEMENT_3D ( 'NONE', #90, #265, #121 ) ;
#145 = DIRECTION ( 'NONE',  ( -0.0000000000000000000, -0.0000000000000000000, -1.000000000000000000 ) ) ;
#146 = DIRECTION ( 'NONE',  ( -0.0000000000000000000, -0.0000000000000000000, -1.000000000000000000 ) ) ;
#147 = AXIS2_PLACEMENT_3D ( 'NONE', #65, #71, #302 ) ;
#148 = CARTESIAN_POINT ( 'NONE',  ( 0.1181100000000000066, 1.446430334472939084E-17, 0.4803150000000001030 ) ) ;
#149 = PRODUCT_DEFINITION_CONTEXT ( 'detailed design', #222, 'design' ) ;
#150 = VERTEX_POINT ( 'NONE', #280 ) ;
#151 = AXIS2_PLACEMENT_3D ( 'NONE', #100, #291, #329 ) ;
#152 = DIRECTION ( 'NONE',  ( -0.0000000000000000000, -0.0000000000000000000, -1.000000000000000000 ) ) ;
#153 = FILL_AREA_STYLE_COLOUR ( '', #63 ) ;
#154 = UNCERTAINTY_MEASURE_WITH_UNIT (LENGTH_MEASURE( 1.000000000000000082E-05 ), #288, 'distance_accuracy_value', 'NONE');
#155 = CIRCLE ( 'NONE', #35, 0.1181100000000000066 ) ;
#156 = AXIS2_PLACEMENT_3D ( 'NONE', #5, #235, #352 ) ;
#157 = EDGE_CURVE ( 'NONE', #195, #101, #16, .T. ) ;
#158 = FACE_OUTER_BOUND ( 'NONE', #279, .T. ) ;
#159 = DIRECTION ( 'NONE',  ( -0.0000000000000000000, -0.0000000000000000000, -1.000000000000000000 ) ) ;
#160 = EDGE_LOOP ( 'NONE', ( #191, #230, #251, #164 ) ) ;
#161 = LINE ( 'NONE', #316, #189 ) ;
#162 = CARTESIAN_POINT ( 'NONE',  ( 0.1031100000000002570, 1.354581824536888722E-17, 2.244094000000000033 ) ) ;
#163 = VERTEX_POINT ( 'NONE', #218 ) ;
#164 = ORIENTED_EDGE ( 'NONE', *, *, #72, .F. ) ;
#165 = DIRECTION ( 'NONE',  ( -1.000000000000000000, 0.0000000000000000000, 0.0000000000000000000 ) ) ;
#166 = ORIENTED_EDGE ( 'NONE', *, *, #355, .F. ) ;
#167 = ORIENTED_EDGE ( 'NONE', *, *, #331, .T. ) ;
#168 = VERTEX_POINT ( 'NONE', #336 ) ;
#169 = DIRECTION ( 'NONE',  ( -1.000000000000000000, 0.0000000000000000000, 0.0000000000000000000 ) ) ;
#170 = CARTESIAN_POINT ( 'NONE',  ( 0.1181100000000000066, 1.446430334472939084E-17, 2.244094000000000033 ) ) ;
#171 = CARTESIAN_POINT ( 'NONE',  ( 0.0000000000000000000, 0.0000000000000000000, 2.244094000000000033 ) ) ;
#172 = AXIS2_PLACEMENT_3D ( 'NONE', #238, #303, #357 ) ;
#173 = FACE_OUTER_BOUND ( 'NONE', #305, .T. ) ;
#174 = FILL_AREA_STYLE ('',( #153 ) ) ;
#175 = DIRECTION ( 'NONE',  ( -1.000000000000000000, 0.0000000000000000000, 0.0000000000000000000 ) ) ;
#176 = EDGE_CURVE ( 'NONE', #168, #150, #226, .T. ) ;
#177 = ORIENTED_EDGE ( 'NONE', *, *, #115, .F. ) ;
#178 = ADVANCED_FACE ( 'NONE', ( #26 ), #259, .T. ) ;
#179 = VECTOR ( 'NONE', #262, 39.37007874015748143 ) ;
#180 = LINE ( 'NONE', #205, #78 ) ;
#181 =( GEOMETRIC_REPRESENTATION_CONTEXT ( 3 ) GLOBAL_UNCERTAINTY_ASSIGNED_CONTEXT ( ( #245 ) ) GLOBAL_UNIT_ASSIGNED_CONTEXT ( ( #192, #48, #198 ) ) REPRESENTATION_CONTEXT ( 'NONE', 'WORKASPACE' ) );
#182 = CARTESIAN_POINT ( 'NONE',  ( 0.0000000000000000000, 0.0000000000000000000, 2.244094000000000033 ) ) ;
#183 = CARTESIAN_POINT ( 'NONE',  ( 0.0000000000000000000, 0.0000000000000000000, 0.2952759999999999829 ) ) ;
#184 = CARTESIAN_POINT ( 'NONE',  ( 0.1180981890000000339, 1.446285691439492047E-17, 0.0000000000000000000 ) ) ;
#185 = CARTESIAN_POINT ( 'NONE',  ( 0.0000000000000000000, 0.0000000000000000000, 2.244094000000000033 ) ) ;
#186 = DIRECTION ( 'NONE',  ( -0.0000000000000000000, -0.0000000000000000000, -1.000000000000000000 ) ) ;
#187 = ORIENTED_EDGE ( 'NONE', *, *, #229, .T. ) ;
#188 = ADVANCED_BREP_SHAPE_REPRESENTATION ( 'Micro_SFBM-060-12', ( #13, #217 ), #260 ) ;
#189 = VECTOR ( 'NONE', #67, 39.37007874015748854 ) ;
#190 = DIRECTION ( 'NONE',  ( -0.0000000000000000000, -0.0000000000000000000, -1.000000000000000000 ) ) ;
#191 = ORIENTED_EDGE ( 'NONE', *, *, #331, .F. ) ;
#192 =( CONVERSION_BASED_UNIT ( 'INCH', #282 ) LENGTH_UNIT ( ) NAMED_UNIT ( #10 ) );
#193 = DIRECTION ( 'NONE',  ( 1.000000000000000000, 0.0000000000000000000, -0.0000000000000000000 ) ) ;
#194 = EDGE_LOOP ( 'NONE', ( #258, #356, #21, #80 ) ) ;
#195 = VERTEX_POINT ( 'NONE', #53 ) ;
#196 = VECTOR ( 'NONE', #159, 39.37007874015748143 ) ;
#197 = EDGE_LOOP ( 'NONE', ( #127, #254 ) ) ;
#198 =( NAMED_UNIT ( * ) SI_UNIT ( $, .STERADIAN. ) SOLID_ANGLE_UNIT ( ) );
#199 = ADVANCED_FACE ( 'NONE', ( #361 ), #11, .F. ) ;
#200 = ADVANCED_FACE ( 'NONE', ( #283 ), #138, .T. ) ;
#201 = CARTESIAN_POINT ( 'NONE',  ( 0.1181100000000000066, 1.446430334472939084E-17, 2.229093999999999465 ) ) ;
#202 = CARTESIAN_POINT ( 'NONE',  ( -0.1031100000000002570, 0.0000000000000000000, 2.244094000000000033 ) ) ;
#203 = FACE_BOUND ( 'NONE', #255, .T. ) ;
#204 =( LENGTH_UNIT ( ) NAMED_UNIT ( * ) SI_UNIT ( $, .METRE. ) );
#205 = CARTESIAN_POINT ( 'NONE',  ( -0.1180981890000000339, 0.0000000000000000000, 0.0000000000000000000 ) ) ;
#206 = ORIENTED_EDGE ( 'NONE', *, *, #227, .F. ) ;
#207 = LINE ( 'NONE', #353, #55 ) ;
#208 = PRODUCT_RELATED_PRODUCT_CATEGORY ( 'part', '', ( #231 ) ) ;
#209 = FACE_OUTER_BOUND ( 'NONE', #135, .T. ) ;
#210 = LINE ( 'NONE', #327, #377 ) ;
#211 = AXIS2_PLACEMENT_3D ( 'NONE', #185, #42, #214 ) ;
#212 = DIRECTION ( 'NONE',  ( -0.0000000000000000000, -0.0000000000000000000, -1.000000000000000000 ) ) ;
#213 = CARTESIAN_POINT ( 'NONE',  ( 0.0000000000000000000, 0.0000000000000000000, 0.0000000000000000000 ) ) ;
#214 = DIRECTION ( 'NONE',  ( 1.000000000000000000, 0.0000000000000000000, -0.0000000000000000000 ) ) ;
#215 = CARTESIAN_POINT ( 'NONE',  ( 0.0000000000000000000, 0.0000000000000000000, 0.2952759999999999829 ) ) ;
#216 = ORIENTED_EDGE ( 'NONE', *, *, #3, .T. ) ;
#217 = AXIS2_PLACEMENT_3D ( 'NONE', #18, #23, #139 ) ;
#218 = CARTESIAN_POINT ( 'NONE',  ( -0.1180981890000000339, 0.0000000000000000000, 0.0000000000000000000 ) ) ;
#219 = ORIENTED_EDGE ( 'NONE', *, *, #50, .T. ) ;
#220 = CARTESIAN_POINT ( 'NONE',  ( 0.1161415000000000225, 1.434304426835607550E-17, 0.3063729347523458935 ) ) ;
#221 = VERTEX_POINT ( 'NONE', #32 ) ;
#222 = APPLICATION_CONTEXT ( 'automotive_design' ) ;
#223 = ORIENTED_EDGE ( 'NONE', *, *, #229, .F. ) ;
#224 = ORIENTED_EDGE ( 'NONE', *, *, #325, .F. ) ;
#225 = AXIS2_PLACEMENT_3D ( 'NONE', #333, #103, #193 ) ;
#226 = LINE ( 'NONE', #141, #124 ) ;
#227 = EDGE_CURVE ( 'NONE', #19, #25, #110, .T. ) ;
#228 = DIRECTION ( 'NONE',  ( -1.000000000000000000, 0.0000000000000000000, 0.0000000000000000000 ) ) ;
#229 = EDGE_CURVE ( 'NONE', #58, #25, #268, .T. ) ;
#230 = ORIENTED_EDGE ( 'NONE', *, *, #136, .T. ) ;
#231 = PRODUCT ( 'Micro_SFBM-060-12', 'Micro_SFBM-060-12', '', ( #108 ) ) ;
#232 = CARTESIAN_POINT ( 'NONE',  ( 0.0000000000000000000, 0.0000000000000000000, 0.0000000000000000000 ) ) ;
#233 = DIRECTION ( 'NONE',  ( -1.000000000000000000, 0.0000000000000000000, 0.0000000000000000000 ) ) ;
#234 = LINE ( 'NONE', #28, #179 ) ;
#235 = DIRECTION ( 'NONE',  ( 0.0000000000000000000, 0.0000000000000000000, 1.000000000000000000 ) ) ;
#236 = CIRCLE ( 'NONE', #264, 0.1161415000000000641 ) ;
#237 = PLANE ( 'NONE',  #147 ) ;
#238 = CARTESIAN_POINT ( 'NONE',  ( 0.0000000000000000000, 0.0000000000000000000, 0.3063729347523458935 ) ) ;
#239 = EDGE_CURVE ( 'NONE', #247, #140, #68, .T. ) ;
#240 = FACE_OUTER_BOUND ( 'NONE', #2, .T. ) ;
#241 = DIMENSIONAL_EXPONENTS ( 1.000000000000000000, 0.0000000000000000000, 0.0000000000000000000, 0.0000000000000000000, 0.0000000000000000000, 0.0000000000000000000, 0.0000000000000000000 ) ;
#242 = AXIS2_PLACEMENT_3D ( 'NONE', #301, #73, #266 ) ;
#243 = MECHANICAL_DESIGN_GEOMETRIC_PRESENTATION_REPRESENTATION (  '', ( #31 ), #181 ) ;
#244 = DIRECTION ( 'NONE',  ( -0.0000000000000000000, -0.0000000000000000000, -1.000000000000000000 ) ) ;
#245 = UNCERTAINTY_MEASURE_WITH_UNIT (LENGTH_MEASURE( 1.000000000000000082E-05 ), #192, 'distance_accuracy_value', 'NONE');
#246 = DIRECTION ( 'NONE',  ( -1.000000000000000000, 0.0000000000000000000, 0.0000000000000000000 ) ) ;
#247 = VERTEX_POINT ( 'NONE', #202 ) ;
#248 = ADVANCED_FACE ( 'NONE', ( #203, #125 ), #237, .T. ) ;
#249 = SURFACE_SIDE_STYLE ('',( #312 ) ) ;
#250 = DIRECTION ( 'NONE',  ( -0.0000000000000000000, -0.0000000000000000000, -1.000000000000000000 ) ) ;
#251 = ORIENTED_EDGE ( 'NONE', *, *, #176, .T. ) ;
#252 =( LENGTH_UNIT ( ) NAMED_UNIT ( * ) SI_UNIT ( $, .METRE. ) );
#253 = CONICAL_SURFACE ( 'NONE', #326, 0.1180981890000000339, 0.1745329251994338637 ) ;
#254 = ORIENTED_EDGE ( 'NONE', *, *, #261, .T. ) ;
#255 = EDGE_LOOP ( 'NONE', ( #311, #104 ) ) ;
#256 = ORIENTED_EDGE ( 'NONE', *, *, #350, .F. ) ;
#257 = APPLICATION_PROTOCOL_DEFINITION ( 'draft international standard', 'automotive_design', 1998, #222 ) ;
#258 = ORIENTED_EDGE ( 'NONE', *, *, #319, .T. ) ;
#259 = CYLINDRICAL_SURFACE ( 'NONE', #271, 0.1181100000000000066 ) ;
#260 =( GEOMETRIC_REPRESENTATION_CONTEXT ( 3 ) GLOBAL_UNCERTAINTY_ASSIGNED_CONTEXT ( ( #12 ) ) GLOBAL_UNIT_ASSIGNED_CONTEXT ( ( #362, #76, #51 ) ) REPRESENTATION_CONTEXT ( 'NONE', 'WORKASPACE' ) );
#261 = EDGE_CURVE ( 'NONE', #140, #247, #56, .T. ) ;
#262 = DIRECTION ( 'NONE',  ( -0.0000000000000000000, -0.0000000000000000000, -1.000000000000000000 ) ) ;
#263 = AXIS2_PLACEMENT_3D ( 'NONE', #15, #62, #342 ) ;
#264 = AXIS2_PLACEMENT_3D ( 'NONE', #37, #97, #300 ) ;
#265 = DIRECTION ( 'NONE',  ( -0.0000000000000000000, -0.0000000000000000000, -1.000000000000000000 ) ) ;
#266 = DIRECTION ( 'NONE',  ( -1.000000000000000000, 0.0000000000000000000, 0.0000000000000000000 ) ) ;
#267 = ADVANCED_FACE ( 'NONE', ( #99 ), #328, .T. ) ;
#268 = LINE ( 'NONE', #170, #351 ) ;
#269 = CYLINDRICAL_SURFACE ( 'NONE', #344, 0.1181100000000000066 ) ;
#270 = MECHANICAL_DESIGN_GEOMETRIC_PRESENTATION_REPRESENTATION (  '', ( #368 ), #306 ) ;
#271 = AXIS2_PLACEMENT_3D ( 'NONE', #112, #278, #246 ) ;
#272 = DIRECTION ( 'NONE',  ( 0.0000000000000000000, 0.0000000000000000000, 1.000000000000000000 ) ) ;
#273 = EDGE_CURVE ( 'NONE', #247, #126, #161, .T. ) ;
#274 = AXIS2_PLACEMENT_3D ( 'NONE', #213, #79, #369 ) ;
#275 = ORIENTED_EDGE ( 'NONE', *, *, #57, .T. ) ;
#276 = DIRECTION ( 'NONE',  ( 1.000000000000000000, 0.0000000000000000000, 0.0000000000000000000 ) ) ;
#277 = CYLINDRICAL_SURFACE ( 'NONE', #41, 0.1180981890000000339 ) ;
#278 = DIRECTION ( 'NONE',  ( -0.0000000000000000000, -0.0000000000000000000, -1.000000000000000000 ) ) ;
#279 = EDGE_LOOP ( 'NONE', ( #166, #61, #367, #285 ) ) ;
#280 = CARTESIAN_POINT ( 'NONE',  ( -0.1180981890000000339, 0.0000000000000000000, 0.2952759999999999829 ) ) ;
#281 = ORIENTED_EDGE ( 'NONE', *, *, #295, .T. ) ;
#282 = LENGTH_MEASURE_WITH_UNIT ( LENGTH_MEASURE( 0.02539999999999999897 ), #252 );
#283 = FACE_OUTER_BOUND ( 'NONE', #194, .T. ) ;
#284 = CIRCLE ( 'NONE', #84, 0.1180981890000000339 ) ;
#285 = ORIENTED_EDGE ( 'NONE', *, *, #50, .F. ) ;
#286 = SURFACE_STYLE_USAGE ( .BOTH. , #249 ) ;
#287 = FILL_AREA_STYLE ('',( #133 ) ) ;
#288 =( CONVERSION_BASED_UNIT ( 'INCH', #70 ) LENGTH_UNIT ( ) NAMED_UNIT ( #241 ) );
#289 = CARTESIAN_POINT ( 'NONE',  ( -0.1181100000000000066, 0.0000000000000000000, 2.229093999999999465 ) ) ;
#290 = CIRCLE ( 'NONE', #359, 0.1181100000000000066 ) ;
#291 = DIRECTION ( 'NONE',  ( -0.0000000000000000000, -0.0000000000000000000, -1.000000000000000000 ) ) ;
#292 = DIRECTION ( 'NONE',  ( -1.000000000000000000, 0.0000000000000000000, 0.0000000000000000000 ) ) ;
#293 = CIRCLE ( 'NONE', #340, 0.1180981890000000339 ) ;
#294 = ORIENTED_EDGE ( 'NONE', *, *, #57, .F. ) ;
#295 = EDGE_CURVE ( 'NONE', #168, #101, #43, .T. ) ;
#296 = SURFACE_STYLE_FILL_AREA ( #174 ) ;
#297 = APPLICATION_CONTEXT ( 'automotive_design' ) ;
#298 = EDGE_CURVE ( 'NONE', #150, #17, #29, .T. ) ;
#299 = DIMENSIONAL_EXPONENTS ( 1.000000000000000000, 0.0000000000000000000, 0.0000000000000000000, 0.0000000000000000000, 0.0000000000000000000, 0.0000000000000000000, 0.0000000000000000000 ) ;
#300 = DIRECTION ( 'NONE',  ( -1.000000000000000000, 0.0000000000000000000, 0.0000000000000000000 ) ) ;
#301 = CARTESIAN_POINT ( 'NONE',  ( 0.0000000000000000000, 0.0000000000000000000, 2.244094000000000033 ) ) ;
#302 = DIRECTION ( 'NONE',  ( -1.000000000000000000, 0.0000000000000000000, 0.0000000000000000000 ) ) ;
#303 = DIRECTION ( 'NONE',  ( -0.0000000000000000000, -0.0000000000000000000, -1.000000000000000000 ) ) ;
#304 = FACE_OUTER_BOUND ( 'NONE', #160, .T. ) ;
#305 = EDGE_LOOP ( 'NONE', ( #81, #49, #47, #69 ) ) ;
#306 =( GEOMETRIC_REPRESENTATION_CONTEXT ( 3 ) GLOBAL_UNCERTAINTY_ASSIGNED_CONTEXT ( ( #154 ) ) GLOBAL_UNIT_ASSIGNED_CONTEXT ( ( #288, #320, #119 ) ) REPRESENTATION_CONTEXT ( 'NONE', 'WORKASPACE' ) );
#307 = DIRECTION ( 'NONE',  ( 1.000000000000000000, 0.0000000000000000000, 0.0000000000000000000 ) ) ;
#308 = ORIENTED_EDGE ( 'NONE', *, *, #317, .T. ) ;
#309 = CARTESIAN_POINT ( 'NONE',  ( 0.0000000000000000000, 0.0000000000000000000, 0.0000000000000000000 ) ) ;
#310 = ORIENTED_EDGE ( 'NONE', *, *, #261, .F. ) ;
#311 = ORIENTED_EDGE ( 'NONE', *, *, #319, .F. ) ;
#312 = SURFACE_STYLE_FILL_AREA ( #287 ) ;
#313 = CARTESIAN_POINT ( 'NONE',  ( 0.1180981890000000339, 1.446285691439492047E-17, 0.0000000000000000000 ) ) ;
#314 = CIRCLE ( 'NONE', #117, 0.1161415000000000641 ) ;
#315 = PRODUCT_DEFINITION_SHAPE ( 'NONE', 'NONE',  #113 ) ;
#316 = CARTESIAN_POINT ( 'NONE',  ( -0.1031100000000002570, 0.0000000000000000000, 2.244094000000000033 ) ) ;
#317 = EDGE_CURVE ( 'NONE', #126, #19, #207, .T. ) ;
#318 = CIRCLE ( 'NONE', #345, 0.1161415000000000225 ) ;
#319 = EDGE_CURVE ( 'NONE', #221, #195, #236, .T. ) ;
#320 =( NAMED_UNIT ( * ) PLANE_ANGLE_UNIT ( ) SI_UNIT ( $, .RADIAN. ) );
#321 = AXIS2_PLACEMENT_3D ( 'NONE', #95, #244, #354 ) ;
#322 = DIRECTION ( 'NONE',  ( 0.0000000000000000000, 0.0000000000000000000, -1.000000000000000000 ) ) ;
#323 = ADVANCED_FACE ( 'NONE', ( #74 ), #253, .T. ) ;
#324 = DIRECTION ( 'NONE',  ( 0.0000000000000000000, 0.0000000000000000000, -1.000000000000000000 ) ) ;
#325 = EDGE_CURVE ( 'NONE', #150, #163, #180, .T. ) ;
#326 = AXIS2_PLACEMENT_3D ( 'NONE', #183, #39, #175 ) ;
#327 = CARTESIAN_POINT ( 'NONE',  ( 0.1180981890000000339, 1.446285691439492047E-17, 0.2952759999999999829 ) ) ;
#328 = PLANE ( 'NONE',  #211 ) ;
#329 = DIRECTION ( 'NONE',  ( -1.000000000000000000, 0.0000000000000000000, 0.0000000000000000000 ) ) ;
#330 = LENGTH_MEASURE_WITH_UNIT ( LENGTH_MEASURE( 0.02539999999999999897 ), #83 );
#331 = EDGE_CURVE ( 'NONE', #101, #17, #210, .T. ) ;
#332 = DIRECTION ( 'NONE',  ( -1.000000000000000000, 0.0000000000000000000, 0.0000000000000000000 ) ) ;
#333 = CARTESIAN_POINT ( 'NONE',  ( 0.0000000000000000000, 0.0000000000000000000, 0.0000000000000000000 ) ) ;
#334 = VECTOR ( 'NONE', #358, 39.37007874015748854 ) ;
#335 = DIRECTION ( 'NONE',  ( 0.0000000000000000000, 0.0000000000000000000, -1.000000000000000000 ) ) ;
#336 = CARTESIAN_POINT ( 'NONE',  ( -0.1161415000000000225, 0.0000000000000000000, 0.3063729347523458935 ) ) ;
#337 = ORIENTED_EDGE ( 'NONE', *, *, #350, .T. ) ;
#338 = SHAPE_DEFINITION_REPRESENTATION ( #315, #188 ) ;
#339 = VERTEX_POINT ( 'NONE', #184 ) ;
#340 = AXIS2_PLACEMENT_3D ( 'NONE', #215, #146, #20 ) ;
#341 = COLOUR_RGB ( '',0.7921568627450980005, 0.8196078431372548767, 0.9333333333333333481 ) ;
#342 = DIRECTION ( 'NONE',  ( -1.000000000000000000, 0.0000000000000000000, 0.0000000000000000000 ) ) ;
#343 = DIRECTION ( 'NONE',  ( -0.0000000000000000000, -0.0000000000000000000, -1.000000000000000000 ) ) ;
#344 = AXIS2_PLACEMENT_3D ( 'NONE', #171, #91, #228 ) ;
#345 = AXIS2_PLACEMENT_3D ( 'NONE', #87, #190, #46 ) ;
#346 = CARTESIAN_POINT ( 'NONE',  ( 0.0000000000000000000, 0.0000000000000000000, 0.0000000000000000000 ) ) ;
#347 = DIRECTION ( 'NONE',  ( -0.0000000000000000000, -0.0000000000000000000, -1.000000000000000000 ) ) ;
#348 = DIRECTION ( 'NONE',  ( -0.0000000000000000000, -0.0000000000000000000, -1.000000000000000000 ) ) ;
#349 = FACE_OUTER_BOUND ( 'NONE', #106, .T. ) ;
#350 = EDGE_CURVE ( 'NONE', #58, #126, #290, .T. ) ;
#351 = VECTOR ( 'NONE', #347, 39.37007874015748143 ) ;
#352 = DIRECTION ( 'NONE',  ( 1.000000000000000000, 0.0000000000000000000, 0.0000000000000000000 ) ) ;
#353 = CARTESIAN_POINT ( 'NONE',  ( -0.1181100000000000066, 0.0000000000000000000, 2.244094000000000033 ) ) ;
#354 = DIRECTION ( 'NONE',  ( -1.000000000000000000, 0.0000000000000000000, 0.0000000000000000000 ) ) ;
#355 = EDGE_CURVE ( 'NONE', #17, #339, #105, .T. ) ;
#356 = ORIENTED_EDGE ( 'NONE', *, *, #157, .T. ) ;
#357 = DIRECTION ( 'NONE',  ( -1.000000000000000000, 0.0000000000000000000, 0.0000000000000000000 ) ) ;
#358 = DIRECTION ( 'NONE',  ( 0.7071067811865358044, 8.659560562354788645E-17, -0.7071067811865590080 ) ) ;
#359 = AXIS2_PLACEMENT_3D ( 'NONE', #374, #335, #307 ) ;
#360 = CARTESIAN_POINT ( 'NONE',  ( 0.0000000000000000000, 0.0000000000000000000, 2.244094000000000033 ) ) ;
#361 = FACE_OUTER_BOUND ( 'NONE', #364, .T. ) ;
#362 =( CONVERSION_BASED_UNIT ( 'INCH', #330 ) LENGTH_UNIT ( ) NAMED_UNIT ( #299 ) );
#363 = ORIENTED_EDGE ( 'NONE', *, *, #298, .T. ) ;
#364 = EDGE_LOOP ( 'NONE', ( #275, #219 ) ) ;
#365 = PRESENTATION_STYLE_ASSIGNMENT (( #286 ) ) ;
#366 = CARTESIAN_POINT ( 'NONE',  ( 0.0000000000000000000, 0.0000000000000000000, 0.4803150000000000475 ) ) ;
#367 = ORIENTED_EDGE ( 'NONE', *, *, #325, .T. ) ;
#368 = STYLED_ITEM ( 'NONE', ( #6 ), #13 ) ;
#369 = DIRECTION ( 'NONE',  ( -1.000000000000000000, 0.0000000000000000000, 0.0000000000000000000 ) ) ;
#370 = CARTESIAN_POINT ( 'NONE',  ( 0.0000000000000000000, 0.0000000000000000000, 0.0000000000000000000 ) ) ;
#371 = ORIENTED_EDGE ( 'NONE', *, *, #115, .T. ) ;
#372 = APPLICATION_PROTOCOL_DEFINITION ( 'draft international standard', 'automotive_design', 1998, #297 ) ;
#373 = EDGE_LOOP ( 'NONE', ( #363, #109, #294, #224 ) ) ;
#374 = CARTESIAN_POINT ( 'NONE',  ( 0.0000000000000000000, 0.0000000000000000000, 2.229093999999999465 ) ) ;
#375 = CIRCLE ( 'NONE', #263, 0.1181100000000000066 ) ;
#376 = DIRECTION ( 'NONE',  ( -0.1736481776669312471, 0.0000000000000000000, -0.9848077530122077983 ) ) ;
#377 = VECTOR ( 'NONE', #75, 39.37007874015748143 ) ;
#378 = CARTESIAN_POINT ( 'NONE',  ( 0.0000000000000000000, 0.0000000000000000000, 2.229093999999999465 ) ) ;
#379 = PRESENTATION_LAYER_ASSIGNMENT (  '', '', ( #368 ) ) ;
ENDSEC;
END-ISO-10303-21;
