ISO-10303-21;
HEADER;
FILE_DESCRIPTION (( 'STEP AP214' ),
    '1' );
FILE_NAME ('Micro_KC-187-550-093.STEP',
    '2021-09-03T19:20:19',
    ( '' ),
    ( '' ),
    'SwSTEP 2.0',
    'SolidWorks 2020',
    '' );
FILE_SCHEMA (( 'AUTOMOTIVE_DESIGN' ));
ENDSEC;

DATA;
#1 = ORIENTED_EDGE ( 'NONE', *, *, #124, .T. ) ;
#2 = PRODUCT_DEFINITION_FORMATION_WITH_SPECIFIED_SOURCE ( 'ANY', '', #366, .NOT_KNOWN. ) ;
#3 = LENGTH_MEASURE_WITH_UNIT ( LENGTH_MEASURE( 0.02539999999999999897 ), #273 );
#4 = CARTESIAN_POINT ( 'NONE',  ( 0.0000000000000000000, 0.0000000000000000000, 2.000000000000000000 ) ) ;
#5 = DIRECTION ( 'NONE',  ( -0.7071067811865496822, 8.659560562354959975E-17, 0.7071067811865454633 ) ) ;
#6 = CARTESIAN_POINT ( 'NONE',  ( -0.09375000000000001388, 0.0000000000000000000, 1.984999999999999654 ) ) ;
#7 = FACE_BOUND ( 'NONE', #128, .T. ) ;
#8 = FACE_OUTER_BOUND ( 'NONE', #22, .T. ) ;
#9 = FACE_OUTER_BOUND ( 'NONE', #63, .T. ) ;
#10 = EDGE_CURVE ( 'NONE', #233, #164, #198, .T. ) ;
#11 = FACE_OUTER_BOUND ( 'NONE', #353, .T. ) ;
#12 = FACE_OUTER_BOUND ( 'NONE', #127, .T. ) ;
#13 = LINE ( 'NONE', #114, #16 ) ;
#14 = DIRECTION ( 'NONE',  ( 0.0000000000000000000, 0.0000000000000000000, 1.000000000000000000 ) ) ;
#15 = VERTEX_POINT ( 'NONE', #64 ) ;
#16 = VECTOR ( 'NONE', #217, 39.37007874015748143 ) ;
#17 = STYLED_ITEM ( 'NONE', ( #293 ), #295 ) ;
#18 = ORIENTED_EDGE ( 'NONE', *, *, #235, .F. ) ;
#19 = DIRECTION ( 'NONE',  ( 0.0000000000000000000, 0.0000000000000000000, 1.000000000000000000 ) ) ;
#20 = ORIENTED_EDGE ( 'NONE', *, *, #276, .F. ) ;
#21 = AXIS2_PLACEMENT_3D ( 'NONE', #301, #33, #89 ) ;
#22 = EDGE_LOOP ( 'NONE', ( #370, #94, #349, #40 ) ) ;
#23 = CIRCLE ( 'NONE', #53, 0.09375000000000001388 ) ;
#24 = VERTEX_POINT ( 'NONE', #200 ) ;
#25 = SURFACE_STYLE_FILL_AREA ( #291 ) ;
#26 = ADVANCED_FACE ( 'NONE', ( #132 ), #283, .F. ) ;
#27 = CIRCLE ( 'NONE', #70, 0.09375000000000002776 ) ;
#28 = VECTOR ( 'NONE', #226, 39.37007874015748143 ) ;
#29 = DIRECTION ( 'NONE',  ( -0.0000000000000000000, -0.0000000000000000000, -1.000000000000000000 ) ) ;
#30 = CARTESIAN_POINT ( 'NONE',  ( 0.0000000000000000000, 0.0000000000000000000, 0.5500000000000000444 ) ) ;
#31 = DIRECTION ( 'NONE',  ( -1.000000000000000000, 0.0000000000000000000, 0.0000000000000000000 ) ) ;
#32 = DIRECTION ( 'NONE',  ( -1.000000000000000000, 0.0000000000000000000, 0.0000000000000000000 ) ) ;
#33 = DIRECTION ( 'NONE',  ( -0.0000000000000000000, -0.0000000000000000000, -1.000000000000000000 ) ) ;
#34 = DIRECTION ( 'NONE',  ( -0.0000000000000000000, -0.0000000000000000000, -1.000000000000000000 ) ) ;
#35 = EDGE_CURVE ( 'NONE', #248, #15, #286, .T. ) ;
#36 = CARTESIAN_POINT ( 'NONE',  ( -0.04500000000000006772, 8.495987169084768714E-18, 0.5500000000000000444 ) ) ;
#37 = ORIENTED_EDGE ( 'NONE', *, *, #35, .T. ) ;
#38 = DIRECTION ( 'NONE',  ( -1.000000000000000000, 0.0000000000000000000, 0.0000000000000000000 ) ) ;
#39 = ORIENTED_EDGE ( 'NONE', *, *, #362, .T. ) ;
#40 = ORIENTED_EDGE ( 'NONE', *, *, #140, .F. ) ;
#41 = AXIS2_PLACEMENT_3D ( 'NONE', #216, #193, #62 ) ;
#42 = LINE ( 'NONE', #305, #315 ) ;
#43 = ORIENTED_EDGE ( 'NONE', *, *, #93, .F. ) ;
#44 = LINE ( 'NONE', #347, #252 ) ;
#45 = PRODUCT_DEFINITION ( 'UNKNOWN', '', #2, #146 ) ;
#46 = EDGE_LOOP ( 'NONE', ( #77, #280, #223, #158 ) ) ;
#47 = EDGE_LOOP ( 'NONE', ( #39, #371 ) ) ;
#48 = CIRCLE ( 'NONE', #41, 0.09375000000000001388 ) ;
#49 = SURFACE_SIDE_STYLE ('',( #25 ) ) ;
#50 = EDGE_CURVE ( 'NONE', #98, #308, #42, .T. ) ;
#51 = CARTESIAN_POINT ( 'NONE',  ( 0.09375000000000001388, 1.148106374200643863E-17, 0.5987499999999996714 ) ) ;
#52 = DIRECTION ( 'NONE',  ( 0.0000000000000000000, 0.0000000000000000000, 1.000000000000000000 ) ) ;
#53 = AXIS2_PLACEMENT_3D ( 'NONE', #299, #336, #245 ) ;
#54 = CARTESIAN_POINT ( 'NONE',  ( -0.09375000000000002776, 0.0000000000000000000, 0.09299999999999999933 ) ) ;
#55 = LINE ( 'NONE', #79, #345 ) ;
#56 = CARTESIAN_POINT ( 'NONE',  ( -0.04500000000000003303, 0.0000000000000000000, 0.0000000000000000000 ) ) ;
#57 = PRESENTATION_STYLE_ASSIGNMENT (( #269 ) ) ;
#58 = CARTESIAN_POINT ( 'NONE',  ( 0.0000000000000000000, 0.0000000000000000000, 2.000000000000000000 ) ) ;
#59 = CYLINDRICAL_SURFACE ( 'NONE', #151, 0.04500000000000003303 ) ;
#60 = PRESENTATION_LAYER_ASSIGNMENT (  '', '', ( #17 ) ) ;
#61 = DIRECTION ( 'NONE',  ( 0.7071067811865463515, 8.659560562354916834E-17, -0.7071067811865486830 ) ) ;
#62 = DIRECTION ( 'NONE',  ( 1.000000000000000000, 0.0000000000000000000, 0.0000000000000000000 ) ) ;
#63 = EDGE_LOOP ( 'NONE', ( #251, #43 ) ) ;
#64 = CARTESIAN_POINT ( 'NONE',  ( 0.09375000000000001388, 1.148106374200643863E-17, 0.0000000000000000000 ) ) ;
#65 = SHAPE_DEFINITION_REPRESENTATION ( #157, #295 ) ;
#66 =( NAMED_UNIT ( * ) SI_UNIT ( $, .STERADIAN. ) SOLID_ANGLE_UNIT ( ) );
#67 = ORIENTED_EDGE ( 'NONE', *, *, #185, .T. ) ;
#68 = DIRECTION ( 'NONE',  ( -0.7071067811865463515, 0.0000000000000000000, -0.7071067811865486830 ) ) ;
#69 = APPLICATION_PROTOCOL_DEFINITION ( 'draft international standard', 'automotive_design', 1998, #117 ) ;
#70 = AXIS2_PLACEMENT_3D ( 'NONE', #178, #153, #275 ) ;
#71 = ORIENTED_EDGE ( 'NONE', *, *, #35, .F. ) ;
#72 = ORIENTED_EDGE ( 'NONE', *, *, #204, .T. ) ;
#73 = ADVANCED_FACE ( 'NONE', ( #277 ), #266, .T. ) ;
#74 = DIRECTION ( 'NONE',  ( 1.000000000000000000, 0.0000000000000000000, 0.0000000000000000000 ) ) ;
#75 = CIRCLE ( 'NONE', #310, 0.09375000000000001388 ) ;
#76 = ORIENTED_EDGE ( 'NONE', *, *, #172, .T. ) ;
#77 = ORIENTED_EDGE ( 'NONE', *, *, #50, .F. ) ;
#78 = CIRCLE ( 'NONE', #162, 0.04500000000000006772 ) ;
#79 = CARTESIAN_POINT ( 'NONE',  ( 0.04500000000000006772, 0.0000000000000000000, 0.5500000000000000444 ) ) ;
#80 = VERTEX_POINT ( 'NONE', #54 ) ;
#81 = DIRECTION ( 'NONE',  ( -1.000000000000000000, 0.0000000000000000000, 0.0000000000000000000 ) ) ;
#82 = DIRECTION ( 'NONE',  ( -0.0000000000000000000, -0.0000000000000000000, -1.000000000000000000 ) ) ;
#83 = DIRECTION ( 'NONE',  ( -0.0000000000000000000, -0.0000000000000000000, -1.000000000000000000 ) ) ;
#84 = DIRECTION ( 'NONE',  ( -0.0000000000000000000, -0.0000000000000000000, -1.000000000000000000 ) ) ;
#85 = CARTESIAN_POINT ( 'NONE',  ( 0.0000000000000000000, 0.0000000000000000000, 0.0000000000000000000 ) ) ;
#86 = AXIS2_PLACEMENT_3D ( 'NONE', #30, #292, #214 ) ;
#87 = CARTESIAN_POINT ( 'NONE',  ( 0.04500000000000003303, 5.510910596163093407E-18, 0.0000000000000000000 ) ) ;
#88 = DIRECTION ( 'NONE',  ( -1.000000000000000000, 0.0000000000000000000, 0.0000000000000000000 ) ) ;
#89 = DIRECTION ( 'NONE',  ( -1.000000000000000000, 0.0000000000000000000, 0.0000000000000000000 ) ) ;
#90 = DIRECTION ( 'NONE',  ( 0.0000000000000000000, 0.0000000000000000000, 1.000000000000000000 ) ) ;
#91 = CARTESIAN_POINT ( 'NONE',  ( 0.04500000000000006772, 0.0000000000000000000, 0.5500000000000000444 ) ) ;
#92 = DIRECTION ( 'NONE',  ( -0.0000000000000000000, -0.0000000000000000000, -1.000000000000000000 ) ) ;
#93 = EDGE_CURVE ( 'NONE', #372, #80, #27, .T. ) ;
#94 = ORIENTED_EDGE ( 'NONE', *, *, #337, .T. ) ;
#95 = CLOSED_SHELL ( 'NONE', ( #218, #365, #238, #259, #203, #167, #281, #350, #104, #227, #325, #26, #73 ) ) ;
#96 = ORIENTED_EDGE ( 'NONE', *, *, #333, .F. ) ;
#97 = CIRCLE ( 'NONE', #368, 0.09375000000000001388 ) ;
#98 = VERTEX_POINT ( 'NONE', #215 ) ;
#99 = EDGE_LOOP ( 'NONE', ( #113, #67, #173, #189 ) ) ;
#100 = CARTESIAN_POINT ( 'NONE',  ( 0.0000000000000000000, 0.0000000000000000000, 0.0000000000000000000 ) ) ;
#101 = ORIENTED_EDGE ( 'NONE', *, *, #375, .F. ) ;
#102 = CONICAL_SURFACE ( 'NONE', #257, 0.04500000000000006772, 0.7853981633974512766 ) ;
#103 = AXIS2_PLACEMENT_3D ( 'NONE', #121, #90, #260 ) ;
#104 = ADVANCED_FACE ( 'NONE', ( #11 ), #102, .T. ) ;
#105 = VECTOR ( 'NONE', #29, 39.37007874015748143 ) ;
#106 = EDGE_LOOP ( 'NONE', ( #18, #171, #317, #101 ) ) ;
#107 = DIRECTION ( 'NONE',  ( 1.000000000000000000, 0.0000000000000000000, 0.0000000000000000000 ) ) ;
#108 = CIRCLE ( 'NONE', #209, 0.09375000000000001388 ) ;
#109 = FILL_AREA_STYLE_COLOUR ( '', #374 ) ;
#110 =( GEOMETRIC_REPRESENTATION_CONTEXT ( 3 ) GLOBAL_UNCERTAINTY_ASSIGNED_CONTEXT ( ( #298 ) ) GLOBAL_UNIT_ASSIGNED_CONTEXT ( ( #314, #228, #169 ) ) REPRESENTATION_CONTEXT ( 'NONE', 'WORKASPACE' ) );
#111 =( CONVERSION_BASED_UNIT ( 'INCH', #3 ) LENGTH_UNIT ( ) NAMED_UNIT ( #231 ) );
#112 = LENGTH_MEASURE_WITH_UNIT ( LENGTH_MEASURE( 0.02539999999999999897 ), #179 );
#113 = ORIENTED_EDGE ( 'NONE', *, *, #235, .T. ) ;
#114 = CARTESIAN_POINT ( 'NONE',  ( -0.09375000000000001388, 0.0000000000000000000, 2.000000000000000000 ) ) ;
#115 = DIRECTION ( 'NONE',  ( 1.000000000000000000, 0.0000000000000000000, 0.0000000000000000000 ) ) ;
#116 = FACE_OUTER_BOUND ( 'NONE', #99, .T. ) ;
#117 = APPLICATION_CONTEXT ( 'automotive_design' ) ;
#118 = LINE ( 'NONE', #56, #105 ) ;
#119 = MECHANICAL_DESIGN_GEOMETRIC_PRESENTATION_REPRESENTATION (  '', ( #168 ), #142 ) ;
#120 = DIRECTION ( 'NONE',  ( 1.000000000000000000, 0.0000000000000000000, 0.0000000000000000000 ) ) ;
#121 = CARTESIAN_POINT ( 'NONE',  ( 0.09375000000000002776, 0.0000000000000000000, 0.09299999999999999933 ) ) ;
#122 = DIRECTION ( 'NONE',  ( -0.0000000000000000000, -0.0000000000000000000, -1.000000000000000000 ) ) ;
#123 = DIRECTION ( 'NONE',  ( 0.0000000000000000000, 0.0000000000000000000, 1.000000000000000000 ) ) ;
#124 = EDGE_CURVE ( 'NONE', #308, #164, #23, .T. ) ;
#125 = ORIENTED_EDGE ( 'NONE', *, *, #174, .T. ) ;
#126 = CONICAL_SURFACE ( 'NONE', #263, 0.07874999999999980627, 0.7853981633974466137 ) ;
#127 = EDGE_LOOP ( 'NONE', ( #143, #313, #96, #191 ) ) ;
#128 = EDGE_LOOP ( 'NONE', ( #125, #137 ) ) ;
#129 = DIRECTION ( 'NONE',  ( 1.000000000000000000, 0.0000000000000000000, 0.0000000000000000000 ) ) ;
#130 = EDGE_CURVE ( 'NONE', #164, #287, #13, .T. ) ;
#131 = DIRECTION ( 'NONE',  ( 1.000000000000000000, 0.0000000000000000000, 0.0000000000000000000 ) ) ;
#132 = FACE_OUTER_BOUND ( 'NONE', #254, .T. ) ;
#133 = AXIS2_PLACEMENT_3D ( 'NONE', #190, #147, #363 ) ;
#134 = DIRECTION ( 'NONE',  ( -0.0000000000000000000, -0.0000000000000000000, -1.000000000000000000 ) ) ;
#135 = AXIS2_PLACEMENT_3D ( 'NONE', #181, #92, #31 ) ;
#136 = ORIENTED_EDGE ( 'NONE', *, *, #284, .F. ) ;
#137 = ORIENTED_EDGE ( 'NONE', *, *, #322, .T. ) ;
#138 = EDGE_CURVE ( 'NONE', #80, #372, #230, .T. ) ;
#139 =( LENGTH_UNIT ( ) NAMED_UNIT ( * ) SI_UNIT ( $, .METRE. ) );
#140 = EDGE_CURVE ( 'NONE', #80, #248, #208, .T. ) ;
#141 = VECTOR ( 'NONE', #68, 39.37007874015748143 ) ;
#142 =( GEOMETRIC_REPRESENTATION_CONTEXT ( 3 ) GLOBAL_UNCERTAINTY_ASSIGNED_CONTEXT ( ( #177 ) ) GLOBAL_UNIT_ASSIGNED_CONTEXT ( ( #111, #341, #66 ) ) REPRESENTATION_CONTEXT ( 'NONE', 'WORKASPACE' ) );
#143 = ORIENTED_EDGE ( 'NONE', *, *, #290, .F. ) ;
#144 = DIRECTION ( 'NONE',  ( -0.0000000000000000000, -0.0000000000000000000, -1.000000000000000000 ) ) ;
#145 = FACE_OUTER_BOUND ( 'NONE', #106, .T. ) ;
#146 = PRODUCT_DEFINITION_CONTEXT ( 'detailed design', #224, 'design' ) ;
#147 = DIRECTION ( 'NONE',  ( -0.0000000000000000000, -0.0000000000000000000, -1.000000000000000000 ) ) ;
#148 = CARTESIAN_POINT ( 'NONE',  ( -0.07874999999999980627, 0.0000000000000000000, 2.000000000000000000 ) ) ;
#149 =( NAMED_UNIT ( * ) PLANE_ANGLE_UNIT ( ) SI_UNIT ( $, .RADIAN. ) );
#150 = DIRECTION ( 'NONE',  ( 0.0000000000000000000, 0.0000000000000000000, 1.000000000000000000 ) ) ;
#151 = AXIS2_PLACEMENT_3D ( 'NONE', #184, #84, #88 ) ;
#152 = AXIS2_PLACEMENT_3D ( 'NONE', #250, #19, #131 ) ;
#153 = DIRECTION ( 'NONE',  ( -0.0000000000000000000, -0.0000000000000000000, -1.000000000000000000 ) ) ;
#154 = CARTESIAN_POINT ( 'NONE',  ( -0.04500000000000000527, 0.0000000000000000000, 0.09299999999999999933 ) ) ;
#155 = FACE_OUTER_BOUND ( 'NONE', #264, .T. ) ;
#156 = PLANE ( 'NONE',  #220 ) ;
#157 = PRODUCT_DEFINITION_SHAPE ( 'NONE', 'NONE',  #45 ) ;
#158 = ORIENTED_EDGE ( 'NONE', *, *, #124, .F. ) ;
#159 = ORIENTED_EDGE ( 'NONE', *, *, #337, .F. ) ;
#160 = LENGTH_MEASURE_WITH_UNIT ( LENGTH_MEASURE( 0.02539999999999999897 ), #139 );
#161 = VERTEX_POINT ( 'NONE', #51 ) ;
#162 = AXIS2_PLACEMENT_3D ( 'NONE', #361, #144, #241 ) ;
#163 = CIRCLE ( 'NONE', #272, 0.04500000000000000527 ) ;
#164 = VERTEX_POINT ( 'NONE', #6 ) ;
#165 = FACE_OUTER_BOUND ( 'NONE', #47, .T. ) ;
#166 = EDGE_LOOP ( 'NONE', ( #274, #1, #307, #176 ) ) ;
#167 = ADVANCED_FACE ( 'NONE', ( #328 ), #247, .T. ) ;
#168 = STYLED_ITEM ( 'NONE', ( #57 ), #239 ) ;
#169 =( NAMED_UNIT ( * ) SI_UNIT ( $, .STERADIAN. ) SOLID_ANGLE_UNIT ( ) );
#170 = EDGE_CURVE ( 'NONE', #194, #289, #118, .T. ) ;
#171 = ORIENTED_EDGE ( 'NONE', *, *, #355, .T. ) ;
#172 = EDGE_CURVE ( 'NONE', #240, #194, #78, .T. ) ;
#173 = ORIENTED_EDGE ( 'NONE', *, *, #174, .F. ) ;
#174 = EDGE_CURVE ( 'NONE', #289, #24, #377, .T. ) ;
#175 = SURFACE_STYLE_USAGE ( .BOTH. , #49 ) ;
#176 = ORIENTED_EDGE ( 'NONE', *, *, #204, .F. ) ;
#177 = UNCERTAINTY_MEASURE_WITH_UNIT (LENGTH_MEASURE( 1.000000000000000082E-05 ), #111, 'distance_accuracy_value', 'NONE');
#178 = CARTESIAN_POINT ( 'NONE',  ( 0.0000000000000000000, 0.0000000000000000000, 0.09299999999999999933 ) ) ;
#179 =( LENGTH_UNIT ( ) NAMED_UNIT ( * ) SI_UNIT ( $, .METRE. ) );
#180 =( GEOMETRIC_REPRESENTATION_CONTEXT ( 3 ) GLOBAL_UNCERTAINTY_ASSIGNED_CONTEXT ( ( #207 ) ) GLOBAL_UNIT_ASSIGNED_CONTEXT ( ( #300, #149, #234 ) ) REPRESENTATION_CONTEXT ( 'NONE', 'WORKASPACE' ) );
#181 = CARTESIAN_POINT ( 'NONE',  ( 0.0000000000000000000, 0.0000000000000000000, 0.09299999999999999933 ) ) ;
#182 = CYLINDRICAL_SURFACE ( 'NONE', #21, 0.09375000000000001388 ) ;
#183 = CARTESIAN_POINT ( 'NONE',  ( 0.09375000000000001388, 1.148106374200643863E-17, 2.000000000000000000 ) ) ;
#184 = CARTESIAN_POINT ( 'NONE',  ( 0.0000000000000000000, 0.0000000000000000000, 0.0000000000000000000 ) ) ;
#185 = EDGE_CURVE ( 'NONE', #240, #24, #358, .T. ) ;
#186 = FILL_AREA_STYLE ('',( #267 ) ) ;
#187 = DIRECTION ( 'NONE',  ( 0.0000000000000000000, 0.0000000000000000000, -1.000000000000000000 ) ) ;
#188 = VECTOR ( 'NONE', #367, 39.37007874015748143 ) ;
#189 = ORIENTED_EDGE ( 'NONE', *, *, #170, .F. ) ;
#190 = CARTESIAN_POINT ( 'NONE',  ( 0.0000000000000000000, 0.0000000000000000000, 0.09299999999999999933 ) ) ;
#191 = ORIENTED_EDGE ( 'NONE', *, *, #10, .F. ) ;
#192 = DIRECTION ( 'NONE',  ( 1.000000000000000000, 0.0000000000000000000, -0.0000000000000000000 ) ) ;
#193 = DIRECTION ( 'NONE',  ( -0.0000000000000000000, -0.0000000000000000000, -1.000000000000000000 ) ) ;
#194 = VERTEX_POINT ( 'NONE', #36 ) ;
#195 = CARTESIAN_POINT ( 'NONE',  ( 0.0000000000000000000, 0.0000000000000000000, 0.0000000000000000000 ) ) ;
#196 = DIRECTION ( 'NONE',  ( -1.000000000000000000, 0.0000000000000000000, 0.0000000000000000000 ) ) ;
#197 = AXIS2_PLACEMENT_3D ( 'NONE', #210, #246, #115 ) ;
#198 = LINE ( 'NONE', #221, #141 ) ;
#199 = DIRECTION ( 'NONE',  ( -0.0000000000000000000, -0.0000000000000000000, -1.000000000000000000 ) ) ;
#200 = CARTESIAN_POINT ( 'NONE',  ( 0.04500000000000000527, 5.510910596163092637E-18, 0.09299999999999999933 ) ) ;
#201 = CONICAL_SURFACE ( 'NONE', #316, 0.07874999999999980627, 0.7853981633974466137 ) ;
#202 = ORIENTED_EDGE ( 'NONE', *, *, #130, .F. ) ;
#203 = ADVANCED_FACE ( 'NONE', ( #155 ), #206, .T. ) ;
#204 = EDGE_CURVE ( 'NONE', #161, #287, #108, .T. ) ;
#205 = SURFACE_STYLE_FILL_AREA ( #186 ) ;
#206 = CYLINDRICAL_SURFACE ( 'NONE', #236, 0.09375000000000001388 ) ;
#207 = UNCERTAINTY_MEASURE_WITH_UNIT (LENGTH_MEASURE( 1.000000000000000082E-05 ), #300, 'distance_accuracy_value', 'NONE');
#208 = LINE ( 'NONE', #270, #279 ) ;
#209 = AXIS2_PLACEMENT_3D ( 'NONE', #331, #83, #294 ) ;
#210 = CARTESIAN_POINT ( 'NONE',  ( 0.0000000000000000000, 0.0000000000000000000, 0.5500000000000000444 ) ) ;
#211 = CARTESIAN_POINT ( 'NONE',  ( 0.09375000000000002776, 1.148106374200644017E-17, 0.09299999999999999933 ) ) ;
#212 = CARTESIAN_POINT ( 'NONE',  ( 0.0000000000000000000, 0.0000000000000000000, 2.000000000000000000 ) ) ;
#213 = PLANE ( 'NONE',  #103 ) ;
#214 = DIRECTION ( 'NONE',  ( -1.000000000000000000, 0.0000000000000000000, 0.0000000000000000000 ) ) ;
#215 = CARTESIAN_POINT ( 'NONE',  ( 0.07874999999999980627, 1.056257864264590573E-17, 2.000000000000000000 ) ) ;
#216 = CARTESIAN_POINT ( 'NONE',  ( 0.0000000000000000000, 0.0000000000000000000, 0.5987499999999996714 ) ) ;
#217 = DIRECTION ( 'NONE',  ( -0.0000000000000000000, -0.0000000000000000000, -1.000000000000000000 ) ) ;
#218 = ADVANCED_FACE ( 'NONE', ( #8 ), #182, .T. ) ;
#219 = ORIENTED_EDGE ( 'NONE', *, *, #185, .F. ) ;
#220 = AXIS2_PLACEMENT_3D ( 'NONE', #334, #14, #278 ) ;
#221 = CARTESIAN_POINT ( 'NONE',  ( -0.07874999999999980627, 0.0000000000000000000, 2.000000000000000000 ) ) ;
#222 = CARTESIAN_POINT ( 'NONE',  ( 0.0000000000000000000, 0.0000000000000000000, 0.0000000000000000000 ) ) ;
#223 = ORIENTED_EDGE ( 'NONE', *, *, #10, .T. ) ;
#224 = APPLICATION_CONTEXT ( 'automotive_design' ) ;
#225 = DIRECTION ( 'NONE',  ( 0.0000000000000000000, 0.0000000000000000000, 1.000000000000000000 ) ) ;
#226 = DIRECTION ( 'NONE',  ( -0.0000000000000000000, -0.0000000000000000000, -1.000000000000000000 ) ) ;
#227 = ADVANCED_FACE ( 'NONE', ( #332 ), #59, .T. ) ;
#228 =( NAMED_UNIT ( * ) PLANE_ANGLE_UNIT ( ) SI_UNIT ( $, .RADIAN. ) );
#229 = CARTESIAN_POINT ( 'NONE',  ( 0.0000000000000000000, 0.0000000000000000000, 1.984999999999999654 ) ) ;
#230 = CIRCLE ( 'NONE', #135, 0.09375000000000002776 ) ;
#231 = DIMENSIONAL_EXPONENTS ( 1.000000000000000000, 0.0000000000000000000, 0.0000000000000000000, 0.0000000000000000000, 0.0000000000000000000, 0.0000000000000000000, 0.0000000000000000000 ) ;
#232 = PRODUCT_RELATED_PRODUCT_CATEGORY ( 'part', '', ( #366 ) ) ;
#233 = VERTEX_POINT ( 'NONE', #148 ) ;
#234 =( NAMED_UNIT ( * ) SI_UNIT ( $, .STERADIAN. ) SOLID_ANGLE_UNIT ( ) );
#235 = EDGE_CURVE ( 'NONE', #194, #240, #319, .T. ) ;
#236 = AXIS2_PLACEMENT_3D ( 'NONE', #212, #237, #81 ) ;
#237 = DIRECTION ( 'NONE',  ( -0.0000000000000000000, -0.0000000000000000000, -1.000000000000000000 ) ) ;
#238 = ADVANCED_FACE ( 'NONE', ( #145 ), #360, .T. ) ;
#239 = MANIFOLD_SOLID_BREP ( 'Cut-Revolve1', #95 ) ;
#240 = VERTEX_POINT ( 'NONE', #91 ) ;
#241 = DIRECTION ( 'NONE',  ( -1.000000000000000000, 0.0000000000000000000, 0.0000000000000000000 ) ) ;
#242 = SURFACE_SIDE_STYLE ('',( #205 ) ) ;
#243 = DIRECTION ( 'NONE',  ( -1.000000000000000000, 0.0000000000000000000, 0.0000000000000000000 ) ) ;
#244 = AXIS2_PLACEMENT_3D ( 'NONE', #357, #268, #303 ) ;
#245 = DIRECTION ( 'NONE',  ( 1.000000000000000000, 0.0000000000000000000, 0.0000000000000000000 ) ) ;
#246 = DIRECTION ( 'NONE',  ( 0.0000000000000000000, 0.0000000000000000000, 1.000000000000000000 ) ) ;
#247 = CYLINDRICAL_SURFACE ( 'NONE', #326, 0.09375000000000001388 ) ;
#248 = VERTEX_POINT ( 'NONE', #342 ) ;
#249 = ORIENTED_EDGE ( 'NONE', *, *, #304, .T. ) ;
#250 = CARTESIAN_POINT ( 'NONE',  ( 0.0000000000000000000, 0.0000000000000000000, 2.000000000000000000 ) ) ;
#251 = ORIENTED_EDGE ( 'NONE', *, *, #138, .F. ) ;
#252 = VECTOR ( 'NONE', #134, 39.37007874015748143 ) ;
#253 = PRODUCT_CONTEXT ( 'NONE', #117, 'mechanical' ) ;
#254 = EDGE_LOOP ( 'NONE', ( #71, #136 ) ) ;
#255 = LINE ( 'NONE', #183, #28 ) ;
#256 = ORIENTED_EDGE ( 'NONE', *, *, #322, .F. ) ;
#257 = AXIS2_PLACEMENT_3D ( 'NONE', #323, #150, #120 ) ;
#258 = APPLICATION_PROTOCOL_DEFINITION ( 'draft international standard', 'automotive_design', 1998, #224 ) ;
#259 = ADVANCED_FACE ( 'NONE', ( #12 ), #201, .T. ) ;
#260 = DIRECTION ( 'NONE',  ( 1.000000000000000000, 0.0000000000000000000, -0.0000000000000000000 ) ) ;
#261 = FACE_OUTER_BOUND ( 'NONE', #46, .T. ) ;
#262 = DIMENSIONAL_EXPONENTS ( 1.000000000000000000, 0.0000000000000000000, 0.0000000000000000000, 0.0000000000000000000, 0.0000000000000000000, 0.0000000000000000000, 0.0000000000000000000 ) ;
#263 = AXIS2_PLACEMENT_3D ( 'NONE', #330, #324, #356 ) ;
#264 = EDGE_LOOP ( 'NONE', ( #297, #249, #20, #202 ) ) ;
#265 = CARTESIAN_POINT ( 'NONE',  ( 0.0000000000000000000, 0.0000000000000000000, 2.000000000000000000 ) ) ;
#266 = CYLINDRICAL_SURFACE ( 'NONE', #244, 0.09375000000000001388 ) ;
#267 = FILL_AREA_STYLE_COLOUR ( '', #288 ) ;
#268 = DIRECTION ( 'NONE',  ( -0.0000000000000000000, -0.0000000000000000000, -1.000000000000000000 ) ) ;
#269 = SURFACE_STYLE_USAGE ( .BOTH. , #242 ) ;
#270 = CARTESIAN_POINT ( 'NONE',  ( -0.09375000000000001388, 0.0000000000000000000, 2.000000000000000000 ) ) ;
#271 = AXIS2_PLACEMENT_3D ( 'NONE', #195, #311, #309 ) ;
#272 = AXIS2_PLACEMENT_3D ( 'NONE', #344, #199, #38 ) ;
#273 =( LENGTH_UNIT ( ) NAMED_UNIT ( * ) SI_UNIT ( $, .METRE. ) );
#274 = ORIENTED_EDGE ( 'NONE', *, *, #304, .F. ) ;
#275 = DIRECTION ( 'NONE',  ( -1.000000000000000000, 0.0000000000000000000, 0.0000000000000000000 ) ) ;
#276 = EDGE_CURVE ( 'NONE', #287, #161, #48, .T. ) ;
#277 = FACE_OUTER_BOUND ( 'NONE', #306, .T. ) ;
#278 = DIRECTION ( 'NONE',  ( 1.000000000000000000, 0.0000000000000000000, -0.0000000000000000000 ) ) ;
#279 = VECTOR ( 'NONE', #122, 39.37007874015748143 ) ;
#280 = ORIENTED_EDGE ( 'NONE', *, *, #362, .F. ) ;
#281 = ADVANCED_FACE ( 'NONE', ( #165 ), #156, .T. ) ;
#282 = CARTESIAN_POINT ( 'NONE',  ( -0.09375000000000001388, 0.0000000000000000000, 0.5987499999999996714 ) ) ;
#283 = PLANE ( 'NONE',  #354 ) ;
#284 = EDGE_CURVE ( 'NONE', #15, #248, #75, .T. ) ;
#285 = MECHANICAL_DESIGN_GEOMETRIC_PRESENTATION_REPRESENTATION (  '', ( #17 ), #110 ) ;
#286 = CIRCLE ( 'NONE', #271, 0.09375000000000001388 ) ;
#287 = VERTEX_POINT ( 'NONE', #282 ) ;
#288 = COLOUR_RGB ( '',0.7921568627450980005, 0.8196078431372548767, 0.9333333333333333481 ) ;
#289 = VERTEX_POINT ( 'NONE', #154 ) ;
#290 = EDGE_CURVE ( 'NONE', #98, #233, #338, .T. ) ;
#291 = FILL_AREA_STYLE ('',( #109 ) ) ;
#292 = DIRECTION ( 'NONE',  ( -0.0000000000000000000, -0.0000000000000000000, -1.000000000000000000 ) ) ;
#293 = PRESENTATION_STYLE_ASSIGNMENT (( #175 ) ) ;
#294 = DIRECTION ( 'NONE',  ( 1.000000000000000000, 0.0000000000000000000, 0.0000000000000000000 ) ) ;
#295 = ADVANCED_BREP_SHAPE_REPRESENTATION ( 'Micro_KC-187-550-093', ( #239, #335 ), #180 ) ;
#296 = DIRECTION ( 'NONE',  ( 0.7071067811865496822, 0.0000000000000000000, 0.7071067811865454633 ) ) ;
#297 = ORIENTED_EDGE ( 'NONE', *, *, #333, .T. ) ;
#298 = UNCERTAINTY_MEASURE_WITH_UNIT (LENGTH_MEASURE( 1.000000000000000082E-05 ), #314, 'distance_accuracy_value', 'NONE');
#299 = CARTESIAN_POINT ( 'NONE',  ( 0.0000000000000000000, 0.0000000000000000000, 1.984999999999999654 ) ) ;
#300 =( CONVERSION_BASED_UNIT ( 'INCH', #112 ) LENGTH_UNIT ( ) NAMED_UNIT ( #262 ) );
#301 = CARTESIAN_POINT ( 'NONE',  ( 0.0000000000000000000, 0.0000000000000000000, 2.000000000000000000 ) ) ;
#302 = DIRECTION ( 'NONE',  ( 1.000000000000000000, 0.0000000000000000000, 0.0000000000000000000 ) ) ;
#303 = DIRECTION ( 'NONE',  ( -1.000000000000000000, 0.0000000000000000000, 0.0000000000000000000 ) ) ;
#304 = EDGE_CURVE ( 'NONE', #308, #161, #255, .T. ) ;
#305 = CARTESIAN_POINT ( 'NONE',  ( 0.07874999999999980627, 9.644093543285380530E-18, 2.000000000000000000 ) ) ;
#306 = EDGE_LOOP ( 'NONE', ( #159, #327, #346, #37 ) ) ;
#307 = ORIENTED_EDGE ( 'NONE', *, *, #130, .T. ) ;
#308 = VERTEX_POINT ( 'NONE', #312 ) ;
#309 = DIRECTION ( 'NONE',  ( 1.000000000000000000, 0.0000000000000000000, 0.0000000000000000000 ) ) ;
#310 = AXIS2_PLACEMENT_3D ( 'NONE', #222, #123, #302 ) ;
#311 = DIRECTION ( 'NONE',  ( 0.0000000000000000000, 0.0000000000000000000, 1.000000000000000000 ) ) ;
#312 = CARTESIAN_POINT ( 'NONE',  ( 0.09375000000000001388, 1.148106374200643863E-17, 1.984999999999999654 ) ) ;
#313 = ORIENTED_EDGE ( 'NONE', *, *, #50, .T. ) ;
#314 =( CONVERSION_BASED_UNIT ( 'INCH', #160 ) LENGTH_UNIT ( ) NAMED_UNIT ( #376 ) );
#315 = VECTOR ( 'NONE', #61, 39.37007874015748143 ) ;
#316 = AXIS2_PLACEMENT_3D ( 'NONE', #58, #187, #196 ) ;
#317 = ORIENTED_EDGE ( 'NONE', *, *, #276, .T. ) ;
#318 = ORIENTED_EDGE ( 'NONE', *, *, #355, .F. ) ;
#319 = CIRCLE ( 'NONE', #86, 0.04500000000000006772 ) ;
#320 = VECTOR ( 'NONE', #5, 39.37007874015748143 ) ;
#321 = CARTESIAN_POINT ( 'NONE',  ( -0.04500000000000006772, 5.510910596163098030E-18, 0.5500000000000000444 ) ) ;
#322 = EDGE_CURVE ( 'NONE', #24, #289, #163, .T. ) ;
#323 = CARTESIAN_POINT ( 'NONE',  ( 0.0000000000000000000, 0.0000000000000000000, 0.5500000000000000444 ) ) ;
#324 = DIRECTION ( 'NONE',  ( 0.0000000000000000000, 0.0000000000000000000, -1.000000000000000000 ) ) ;
#325 = ADVANCED_FACE ( 'NONE', ( #7, #9 ), #213, .T. ) ;
#326 = AXIS2_PLACEMENT_3D ( 'NONE', #4, #34, #243 ) ;
#327 = ORIENTED_EDGE ( 'NONE', *, *, #93, .T. ) ;
#328 = FACE_OUTER_BOUND ( 'NONE', #166, .T. ) ;
#329 = AXIS2_PLACEMENT_3D ( 'NONE', #85, #82, #32 ) ;
#330 = CARTESIAN_POINT ( 'NONE',  ( 0.0000000000000000000, 0.0000000000000000000, 2.000000000000000000 ) ) ;
#331 = CARTESIAN_POINT ( 'NONE',  ( 0.0000000000000000000, 0.0000000000000000000, 0.5987499999999996714 ) ) ;
#332 = FACE_OUTER_BOUND ( 'NONE', #364, .T. ) ;
#333 = EDGE_CURVE ( 'NONE', #164, #308, #97, .T. ) ;
#334 = CARTESIAN_POINT ( 'NONE',  ( 0.0000000000000000000, 0.0000000000000000000, 2.000000000000000000 ) ) ;
#335 = AXIS2_PLACEMENT_3D ( 'NONE', #100, #225, #129 ) ;
#336 = DIRECTION ( 'NONE',  ( 0.0000000000000000000, 0.0000000000000000000, -1.000000000000000000 ) ) ;
#337 = EDGE_CURVE ( 'NONE', #372, #15, #44, .T. ) ;
#338 = CIRCLE ( 'NONE', #152, 0.07874999999999980627 ) ;
#339 = ORIENTED_EDGE ( 'NONE', *, *, #172, .F. ) ;
#340 = CARTESIAN_POINT ( 'NONE',  ( 0.0000000000000000000, 0.0000000000000000000, 0.0000000000000000000 ) ) ;
#341 =( NAMED_UNIT ( * ) PLANE_ANGLE_UNIT ( ) SI_UNIT ( $, .RADIAN. ) );
#342 = CARTESIAN_POINT ( 'NONE',  ( -0.09375000000000001388, 0.0000000000000000000, 0.0000000000000000000 ) ) ;
#343 = DIRECTION ( 'NONE',  ( 0.0000000000000000000, 0.0000000000000000000, 1.000000000000000000 ) ) ;
#344 = CARTESIAN_POINT ( 'NONE',  ( 0.0000000000000000000, 0.0000000000000000000, 0.09299999999999999933 ) ) ;
#345 = VECTOR ( 'NONE', #296, 39.37007874015748143 ) ;
#346 = ORIENTED_EDGE ( 'NONE', *, *, #140, .T. ) ;
#347 = CARTESIAN_POINT ( 'NONE',  ( 0.09375000000000001388, 1.148106374200643863E-17, 2.000000000000000000 ) ) ;
#348 = AXIS2_PLACEMENT_3D ( 'NONE', #265, #52, #107 ) ;
#349 = ORIENTED_EDGE ( 'NONE', *, *, #284, .T. ) ;
#350 = ADVANCED_FACE ( 'NONE', ( #261 ), #126, .T. ) ;
#351 = ORIENTED_EDGE ( 'NONE', *, *, #375, .T. ) ;
#352 = DIRECTION ( 'NONE',  ( 0.0000000000000000000, 0.0000000000000000000, -1.000000000000000000 ) ) ;
#353 = EDGE_LOOP ( 'NONE', ( #318, #339, #351, #72 ) ) ;
#354 = AXIS2_PLACEMENT_3D ( 'NONE', #340, #343, #192 ) ;
#355 = EDGE_CURVE ( 'NONE', #194, #287, #379, .T. ) ;
#356 = DIRECTION ( 'NONE',  ( -1.000000000000000000, 0.0000000000000000000, 0.0000000000000000000 ) ) ;
#357 = CARTESIAN_POINT ( 'NONE',  ( 0.0000000000000000000, 0.0000000000000000000, 2.000000000000000000 ) ) ;
#358 = LINE ( 'NONE', #87, #188 ) ;
#359 = CYLINDRICAL_SURFACE ( 'NONE', #329, 0.04500000000000003303 ) ;
#360 = CONICAL_SURFACE ( 'NONE', #197, 0.04500000000000006772, 0.7853981633974512766 ) ;
#361 = CARTESIAN_POINT ( 'NONE',  ( 0.0000000000000000000, 0.0000000000000000000, 0.5500000000000000444 ) ) ;
#362 = EDGE_CURVE ( 'NONE', #233, #98, #378, .T. ) ;
#363 = DIRECTION ( 'NONE',  ( -1.000000000000000000, 0.0000000000000000000, 0.0000000000000000000 ) ) ;
#364 = EDGE_LOOP ( 'NONE', ( #219, #76, #369, #256 ) ) ;
#365 = ADVANCED_FACE ( 'NONE', ( #116 ), #359, .T. ) ;
#366 = PRODUCT ( 'Micro_KC-187-550-093', 'Micro_KC-187-550-093', '', ( #253 ) ) ;
#367 = DIRECTION ( 'NONE',  ( -0.0000000000000000000, -0.0000000000000000000, -1.000000000000000000 ) ) ;
#368 = AXIS2_PLACEMENT_3D ( 'NONE', #229, #352, #74 ) ;
#369 = ORIENTED_EDGE ( 'NONE', *, *, #170, .T. ) ;
#370 = ORIENTED_EDGE ( 'NONE', *, *, #138, .T. ) ;
#371 = ORIENTED_EDGE ( 'NONE', *, *, #290, .T. ) ;
#372 = VERTEX_POINT ( 'NONE', #211 ) ;
#373 = PRESENTATION_LAYER_ASSIGNMENT (  '', '', ( #168 ) ) ;
#374 = COLOUR_RGB ( '',0.7921568627450980005, 0.8196078431372548767, 0.9333333333333333481 ) ;
#375 = EDGE_CURVE ( 'NONE', #240, #161, #55, .T. ) ;
#376 = DIMENSIONAL_EXPONENTS ( 1.000000000000000000, 0.0000000000000000000, 0.0000000000000000000, 0.0000000000000000000, 0.0000000000000000000, 0.0000000000000000000, 0.0000000000000000000 ) ;
#377 = CIRCLE ( 'NONE', #133, 0.04500000000000000527 ) ;
#378 = CIRCLE ( 'NONE', #348, 0.07874999999999980627 ) ;
#379 = LINE ( 'NONE', #321, #320 ) ;
ENDSEC;
END-ISO-10303-21;
