ISO-10303-21;
HEADER;
FILE_DESCRIPTION (( 'STEP AP214' ),
    '1' );
FILE_NAME ('06123.STEP',
    '2023-07-05T16:00:41',
    ( '' ),
    ( '' ),
    'SwSTEP 2.0',
    'SolidWorks 2023',
    '' );
FILE_SCHEMA (( 'AUTOMOTIVE_DESIGN' ));
ENDSEC;

DATA;
#1 = PRODUCT_DEFINITION_FORMATION_WITH_SPECIFIED_SOURCE ( 'ANY', '', #22, .NOT_KNOWN. ) ;
#2 = FILL_AREA_STYLE ('',( #189 ) ) ;
#3 =( NAMED_UNIT ( * ) SI_UNIT ( $, .STERADIAN. ) SOLID_ANGLE_UNIT ( ) );
#4 = CARTESIAN_POINT ( 'NONE',  ( -0.09374999999999975020, 2.000000000000000000, 0.000000000000000000 ) ) ;
#5 = LENGTH_MEASURE_WITH_UNIT ( LENGTH_MEASURE( 0.02539999999999999897 ), #176 );
#6 = ORIENTED_EDGE ( 'NONE', *, *, #224, .T. ) ;
#7 = AXIS2_PLACEMENT_3D ( 'NONE', #173, #92, #181 ) ;
#8 = DIRECTION ( 'NONE',  ( 0.000000000000000000, 1.000000000000000000, 0.000000000000000000 ) ) ;
#9 = ORIENTED_EDGE ( 'NONE', *, *, #132, .T. ) ;
#10 = VECTOR ( 'NONE', #220, 39.37007874015748143 ) ;
#11 = UNCERTAINTY_MEASURE_WITH_UNIT (LENGTH_MEASURE( 1.000000000000000082E-05 ), #217, 'distance_accuracy_value', 'NONE');
#12 = ORIENTED_EDGE ( 'NONE', *, *, #21, .F. ) ;
#13 = PRESENTATION_STYLE_ASSIGNMENT (( #212 ) ) ;
#14 = CIRCLE ( 'NONE', #85, 0.09374999999999965306 ) ;
#15 = VERTEX_POINT ( 'NONE', #199 ) ;
#16 = PRODUCT_CONTEXT ( 'NONE', #200, 'mechanical' ) ;
#17 = DIRECTION ( 'NONE',  ( -1.000000000000000000, 0.000000000000000000, 0.000000000000000000 ) ) ;
#18 = FILL_AREA_STYLE_COLOUR ( '', #78 ) ;
#19 = SURFACE_STYLE_USAGE ( .BOTH. , #208 ) ;
#20 = SHAPE_DEFINITION_REPRESENTATION ( #47, #144 ) ;
#21 = EDGE_CURVE ( 'NONE', #214, #241, #14, .T. ) ;
#22 = PRODUCT ( '06123', '06123', '', ( #16 ) ) ;
#23 = AXIS2_PLACEMENT_3D ( 'NONE', #248, #24, #250 ) ;
#24 = DIRECTION ( 'NONE',  ( -0.000000000000000000, -1.000000000000000000, -0.000000000000000000 ) ) ;
#25 = MECHANICAL_DESIGN_GEOMETRIC_PRESENTATION_REPRESENTATION (  '', ( #213 ), #119 ) ;
#26 = FACE_OUTER_BOUND ( 'NONE', #29, .T. ) ;
#27 = LINE ( 'NONE', #103, #10 ) ;
#28 = CARTESIAN_POINT ( 'NONE',  ( 1.148106374200643555E-17, 0.09374999999999968081, -0.09374999999999998612 ) ) ;
#29 = EDGE_LOOP ( 'NONE', ( #107, #177 ) ) ;
#30 =( CONVERSION_BASED_UNIT ( 'INCH', #5 ) LENGTH_UNIT ( ) NAMED_UNIT ( #225 ) );
#31 = ADVANCED_FACE ( 'NONE', ( #135 ), #166, .T. ) ;
#32 = ORIENTED_EDGE ( 'NONE', *, *, #163, .T. ) ;
#33 = AXIS2_PLACEMENT_3D ( 'NONE', #62, #65, #44 ) ;
#34 = CARTESIAN_POINT ( 'NONE',  ( 0.000000000000000000, 0.000000000000000000, 0.000000000000000000 ) ) ;
#35 = ORIENTED_EDGE ( 'NONE', *, *, #163, .F. ) ;
#36 =( LENGTH_UNIT ( ) NAMED_UNIT ( * ) SI_UNIT ( $, .METRE. ) );
#37 = EDGE_LOOP ( 'NONE', ( #156, #109, #58 ) ) ;
#38 = UNCERTAINTY_MEASURE_WITH_UNIT (LENGTH_MEASURE( 1.000000000000000082E-05 ), #167, 'distance_accuracy_value', 'NONE');
#39 = CARTESIAN_POINT ( 'NONE',  ( 0.000000000000000000, 0.000000000000000000, 0.000000000000000000 ) ) ;
#40 =( LENGTH_UNIT ( ) NAMED_UNIT ( * ) SI_UNIT ( $, .METRE. ) );
#41 = AXIS2_PLACEMENT_3D ( 'NONE', #162, #247, #102 ) ;
#42 = CYLINDRICAL_SURFACE ( 'NONE', #172, 0.09374999999999975020 ) ;
#43 =( GEOMETRIC_REPRESENTATION_CONTEXT ( 3 ) GLOBAL_UNCERTAINTY_ASSIGNED_CONTEXT ( ( #179 ) ) GLOBAL_UNIT_ASSIGNED_CONTEXT ( ( #114, #93, #182 ) ) REPRESENTATION_CONTEXT ( 'NONE', 'WORKASPACE' ) );
#44 = DIRECTION ( 'NONE',  ( -1.000000000000000000, -1.821231995776182135E-16, 0.000000000000000000 ) ) ;
#45 = EDGE_CURVE ( 'NONE', #71, #222, #94, .T. ) ;
#46 = FACE_OUTER_BOUND ( 'NONE', #56, .T. ) ;
#47 = PRODUCT_DEFINITION_SHAPE ( 'NONE', 'NONE',  #157 ) ;
#48 = CIRCLE ( 'NONE', #196, 0.09374999999999987510 ) ;
#49 = AXIS2_PLACEMENT_3D ( 'NONE', #122, #86, #169 ) ;
#50 =( CONVERSION_BASED_UNIT ( 'INCH', #146 ) LENGTH_UNIT ( ) NAMED_UNIT ( #262 ) );
#51 = APPLICATION_CONTEXT ( 'automotive_design' ) ;
#52 = LENGTH_MEASURE_WITH_UNIT ( LENGTH_MEASURE( 0.02539999999999999897 ), #234 );
#53 = STYLED_ITEM ( 'NONE', ( #227 ), #160 ) ;
#54 = DIRECTION ( 'NONE',  ( -1.000000000000000000, 0.000000000000000000, 0.000000000000000000 ) ) ;
#55 = PRESENTATION_LAYER_ASSIGNMENT (  '', '', ( #213 ) ) ;
#56 = EDGE_LOOP ( 'NONE', ( #12, #134 ) ) ;
#57 = CARTESIAN_POINT ( 'NONE',  ( 1.224646799147353700E-16, 2.000000000000000000, 0.000000000000000000 ) ) ;
#58 = ORIENTED_EDGE ( 'NONE', *, *, #175, .T. ) ;
#59 = ORIENTED_EDGE ( 'NONE', *, *, #202, .T. ) ;
#60 = CARTESIAN_POINT ( 'NONE',  ( -0.09374999999999930611, 0.09374999999999976408, 0.000000000000000000 ) ) ;
#61 = DIRECTION ( 'NONE',  ( -1.000000000000000000, -1.821231995776182135E-16, 0.000000000000000000 ) ) ;
#62 = CARTESIAN_POINT ( 'NONE',  ( 3.414809992080329023E-16, 0.09374999999999979183, 0.000000000000000000 ) ) ;
#63 = SURFACE_STYLE_FILL_AREA ( #265 ) ;
#64 = DIRECTION ( 'NONE',  ( -1.148938068423855903E-16, 1.000000000000000000, -0.000000000000000000 ) ) ;
#65 = DIRECTION ( 'NONE',  ( -1.148938068423855903E-16, 1.000000000000000000, -0.000000000000000000 ) ) ;
#66 = ADVANCED_FACE ( 'NONE', ( #136 ), #42, .T. ) ;
#67 = DIRECTION ( 'NONE',  ( 0.000000000000000000, 0.7071067811865463515, 0.7071067811865486830 ) ) ;
#68 = AXIS2_PLACEMENT_3D ( 'NONE', #57, #240, #54 ) ;
#69 = ADVANCED_FACE ( 'NONE', ( #81 ), #164, .T. ) ;
#70 = SURFACE_STYLE_USAGE ( .BOTH. , #87 ) ;
#71 = VERTEX_POINT ( 'NONE', #158 ) ;
#72 = CARTESIAN_POINT ( 'NONE',  ( 3.414809992080329023E-16, 0.09374999999999979183, 0.000000000000000000 ) ) ;
#73 = EDGE_CURVE ( 'NONE', #243, #153, #48, .T. ) ;
#74 = CARTESIAN_POINT ( 'NONE',  ( 0.000000000000000000, 39.37007874015748143, 0.000000000000000000 ) ) ;
#75 = PRESENTATION_LAYER_ASSIGNMENT (  '', '', ( #239 ) ) ;
#76 = DIRECTION ( 'NONE',  ( 0.000000000000000000, -0.000000000000000000, 1.000000000000000000 ) ) ;
#77 = ORIENTED_EDGE ( 'NONE', *, *, #21, .T. ) ;
#78 = COLOUR_RGB ( '',0.7921568627450980005, 0.8196078431372548767, 0.9333333333333333481 ) ;
#79 = AXIS2_PLACEMENT_3D ( 'NONE', #130, #8, #76 ) ;
#80 = AXIS2_PLACEMENT_3D ( 'NONE', #39, #226, #117 ) ;
#81 = FACE_OUTER_BOUND ( 'NONE', #219, .T. ) ;
#82 = VECTOR ( 'NONE', #67, 39.37007874015748143 ) ;
#83 = SURFACE_STYLE_FILL_AREA ( #184 ) ;
#84 = DIRECTION ( 'NONE',  ( -1.148938068423855903E-16, 1.000000000000000000, -0.000000000000000000 ) ) ;
#85 = AXIS2_PLACEMENT_3D ( 'NONE', #72, #112, #61 ) ;
#86 = DIRECTION ( 'NONE',  ( -1.148938068423855903E-16, 1.000000000000000000, 0.000000000000000000 ) ) ;
#87 = SURFACE_SIDE_STYLE ('',( #101 ) ) ;
#88 = FILL_AREA_STYLE_COLOUR ( '', #139 ) ;
#89 = SURFACE_STYLE_FILL_AREA ( #104 ) ;
#90 =( NAMED_UNIT ( * ) SI_UNIT ( $, .STERADIAN. ) SOLID_ANGLE_UNIT ( ) );
#91 = ORIENTED_EDGE ( 'NONE', *, *, #202, .F. ) ;
#92 = DIRECTION ( 'NONE',  ( 0.000000000000000000, 1.000000000000000000, 0.000000000000000000 ) ) ;
#93 =( NAMED_UNIT ( * ) PLANE_ANGLE_UNIT ( ) SI_UNIT ( $, .RADIAN. ) );
#94 = CIRCLE ( 'NONE', #154, 0.09374999999999998612 ) ;
#95 = CARTESIAN_POINT ( 'NONE',  ( 1.224646799147353700E-16, 2.000000000000000000, 0.000000000000000000 ) ) ;
#96 = DIRECTION ( 'NONE',  ( -1.000000000000000000, 0.000000000000000000, 0.000000000000000000 ) ) ;
#97 = FACE_OUTER_BOUND ( 'NONE', #258, .T. ) ;
#98 = STYLED_ITEM ( 'NONE', ( #118 ), #159 ) ;
#99 = PLANE ( 'NONE',  #79 ) ;
#100 = PRODUCT_RELATED_PRODUCT_CATEGORY ( 'part', '', ( #22 ) ) ;
#101 = SURFACE_STYLE_FILL_AREA ( #2 ) ;
#102 = DIRECTION ( 'NONE',  ( 1.000000000000000000, 1.148938068423855903E-16, 0.000000000000000000 ) ) ;
#103 = CARTESIAN_POINT ( 'NONE',  ( -0.09374999999999962530, 2.000000000000000000, 0.000000000000000000 ) ) ;
#104 = FILL_AREA_STYLE ('',( #201 ) ) ;
#105 =( GEOMETRIC_REPRESENTATION_CONTEXT ( 3 ) GLOBAL_UNCERTAINTY_ASSIGNED_CONTEXT ( ( #11 ) ) GLOBAL_UNIT_ASSIGNED_CONTEXT ( ( #217, #254, #143 ) ) REPRESENTATION_CONTEXT ( 'NONE', 'WORKASPACE' ) );
#106 =( NAMED_UNIT ( * ) PLANE_ANGLE_UNIT ( ) SI_UNIT ( $, .RADIAN. ) );
#107 = ORIENTED_EDGE ( 'NONE', *, *, #45, .F. ) ;
#108 = COLOUR_RGB ( '',1.000000000000000000, 0.000000000000000000, 0.000000000000000000 ) ;
#109 = ORIENTED_EDGE ( 'NONE', *, *, #228, .T. ) ;
#110 = ORIENTED_EDGE ( 'NONE', *, *, #224, .F. ) ;
#111 = MECHANICAL_DESIGN_GEOMETRIC_PRESENTATION_REPRESENTATION (  '', ( #239 ), #105 ) ;
#112 = DIRECTION ( 'NONE',  ( -1.148938068423855903E-16, 1.000000000000000000, -0.000000000000000000 ) ) ;
#113 = PRESENTATION_LAYER_ASSIGNMENT (  '', '', ( #53 ) ) ;
#114 =( CONVERSION_BASED_UNIT ( 'INCH', #187 ) LENGTH_UNIT ( ) NAMED_UNIT ( #137 ) );
#115 = PLANE ( 'NONE',  #41 ) ;
#116 = DIMENSIONAL_EXPONENTS ( 1.000000000000000000, 0.000000000000000000, 0.000000000000000000, 0.000000000000000000, 0.000000000000000000, 0.000000000000000000, 0.000000000000000000 ) ;
#117 = DIRECTION ( 'NONE',  ( 1.000000000000000000, 0.000000000000000000, 0.000000000000000000 ) ) ;
#118 = PRESENTATION_STYLE_ASSIGNMENT (( #19 ) ) ;
#119 =( GEOMETRIC_REPRESENTATION_CONTEXT ( 3 ) GLOBAL_UNCERTAINTY_ASSIGNED_CONTEXT ( ( #183 ) ) GLOBAL_UNIT_ASSIGNED_CONTEXT ( ( #30, #195, #90 ) ) REPRESENTATION_CONTEXT ( 'NONE', 'WORKASPACE' ) );
#120 = CARTESIAN_POINT ( 'NONE',  ( 0.09374999999999998612, 2.000000000000000000, 1.148106374200641398E-17 ) ) ;
#121 = COLOUR_RGB ( '',1.000000000000000000, 0.000000000000000000, 0.000000000000000000 ) ;
#122 = CARTESIAN_POINT ( 'NONE',  ( 3.414809992080329023E-16, 0.09374999999999968081, 0.000000000000000000 ) ) ;
#123 = CONICAL_SURFACE ( 'NONE', #180, 39.37007874015760933, 0.7853981633974499443 ) ;
#124 =( NAMED_UNIT ( * ) PLANE_ANGLE_UNIT ( ) SI_UNIT ( $, .RADIAN. ) );
#125 = EDGE_CURVE ( 'NONE', #15, #71, #223, .T. ) ;
#126 = CARTESIAN_POINT ( 'NONE',  ( 0.09374999999999987510, 2.000000000000000000, 1.148106374200640627E-17 ) ) ;
#127 =( GEOMETRIC_REPRESENTATION_CONTEXT ( 3 ) GLOBAL_UNCERTAINTY_ASSIGNED_CONTEXT ( ( #140 ) ) GLOBAL_UNIT_ASSIGNED_CONTEXT ( ( #131, #252, #237 ) ) REPRESENTATION_CONTEXT ( 'NONE', 'WORKASPACE' ) );
#128 =( NAMED_UNIT ( * ) SI_UNIT ( $, .STERADIAN. ) SOLID_ANGLE_UNIT ( ) );
#129 = ORIENTED_EDGE ( 'NONE', *, *, #73, .F. ) ;
#130 = CARTESIAN_POINT ( 'NONE',  ( 0.000000000000000000, 0.09374999999999968081, 0.000000000000000000 ) ) ;
#131 =( CONVERSION_BASED_UNIT ( 'INCH', #193 ) LENGTH_UNIT ( ) NAMED_UNIT ( #257 ) );
#132 = EDGE_CURVE ( 'NONE', #241, #214, #264, .T. ) ;
#133 = EDGE_LOOP ( 'NONE', ( #35, #9, #6, #91 ) ) ;
#134 = ORIENTED_EDGE ( 'NONE', *, *, #132, .F. ) ;
#135 = FACE_OUTER_BOUND ( 'NONE', #151, .T. ) ;
#136 = FACE_OUTER_BOUND ( 'NONE', #133, .T. ) ;
#137 = DIMENSIONAL_EXPONENTS ( 1.000000000000000000, 0.000000000000000000, 0.000000000000000000, 0.000000000000000000, 0.000000000000000000, 0.000000000000000000, 0.000000000000000000 ) ;
#138 = VECTOR ( 'NONE', #192, 39.37007874015748143 ) ;
#139 = COLOUR_RGB ( '',1.000000000000000000, 0.000000000000000000, 0.000000000000000000 ) ;
#140 = UNCERTAINTY_MEASURE_WITH_UNIT (LENGTH_MEASURE( 1.000000000000000082E-05 ), #131, 'distance_accuracy_value', 'NONE');
#141 = DIMENSIONAL_EXPONENTS ( 1.000000000000000000, 0.000000000000000000, 0.000000000000000000, 0.000000000000000000, 0.000000000000000000, 0.000000000000000000, 0.000000000000000000 ) ;
#142 = SURFACE_STYLE_USAGE ( .BOTH. , #245 ) ;
#143 =( NAMED_UNIT ( * ) SI_UNIT ( $, .STERADIAN. ) SOLID_ANGLE_UNIT ( ) );
#144 = ADVANCED_BREP_SHAPE_REPRESENTATION ( '06123', ( #160, #159, #80 ), #127 ) ;
#145 = CARTESIAN_POINT ( 'NONE',  ( 0.000000000000000000, 0.000000000000000000, 0.000000000000000000 ) ) ;
#146 = LENGTH_MEASURE_WITH_UNIT ( LENGTH_MEASURE( 0.02539999999999999897 ), #249 );
#147 = STYLED_ITEM ( 'NONE', ( #170 ), #190 ) ;
#148 = ORIENTED_EDGE ( 'NONE', *, *, #125, .T. ) ;
#149 = DIRECTION ( 'NONE',  ( 0.000000000000000000, 0.000000000000000000, 1.000000000000000000 ) ) ;
#150 = CIRCLE ( 'NONE', #23, 0.09374999999999998612 ) ;
#151 = EDGE_LOOP ( 'NONE', ( #236, #148, #194 ) ) ;
#152 =( LENGTH_UNIT ( ) NAMED_UNIT ( * ) SI_UNIT ( $, .METRE. ) );
#153 = VERTEX_POINT ( 'NONE', #120 ) ;
#154 = AXIS2_PLACEMENT_3D ( 'NONE', #229, #260, #244 ) ;
#155 = CARTESIAN_POINT ( 'NONE',  ( 0.09374999999999998612, 0.09374999999999980571, 1.148106374200641398E-17 ) ) ;
#156 = ORIENTED_EDGE ( 'NONE', *, *, #125, .F. ) ;
#157 = PRODUCT_DEFINITION ( 'UNKNOWN', '', #1, #204 ) ;
#158 = CARTESIAN_POINT ( 'NONE',  ( 0.000000000000000000, 0.09374999999999968081, 0.09374999999999998612 ) ) ;
#159 = MANIFOLD_SOLID_BREP ( 'Revolve - Tool Body (Pointed)', #233 ) ;
#160 = MANIFOLD_SOLID_BREP ( 'Revolve - Cutting Edge', #211 ) ;
#161 = ADVANCED_FACE ( 'NONE', ( #97 ), #115, .F. ) ;
#162 = CARTESIAN_POINT ( 'NONE',  ( 0.09374999999999998612, 2.000000000000000000, 0.000000000000000000 ) ) ;
#163 = EDGE_CURVE ( 'NONE', #241, #153, #232, .T. ) ;
#164 = CYLINDRICAL_SURFACE ( 'NONE', #188, 0.09374999999999975020 ) ;
#165 = DIRECTION ( 'NONE',  ( -1.000000000000000000, 0.000000000000000000, 0.000000000000000000 ) ) ;
#166 = CONICAL_SURFACE ( 'NONE', #7, 39.37007874015760933, 0.7853981633974499443 ) ;
#167 =( CONVERSION_BASED_UNIT ( 'INCH', #52 ) LENGTH_UNIT ( ) NAMED_UNIT ( #141 ) );
#168 = ADVANCED_FACE ( 'NONE', ( #46 ), #210, .F. ) ;
#169 = DIRECTION ( 'NONE',  ( -1.000000000000000000, -1.148938068423855903E-16, 0.000000000000000000 ) ) ;
#170 = PRESENTATION_STYLE_ASSIGNMENT (( #70 ) ) ;
#171 = DIRECTION ( 'NONE',  ( -1.148938068423855903E-16, 1.000000000000000000, -0.000000000000000000 ) ) ;
#172 = AXIS2_PLACEMENT_3D ( 'NONE', #95, #84, #17 ) ;
#173 = CARTESIAN_POINT ( 'NONE',  ( 0.000000000000000000, 39.37007874015748143, 0.000000000000000000 ) ) ;
#174 = SURFACE_SIDE_STYLE ('',( #89 ) ) ;
#175 = EDGE_CURVE ( 'NONE', #222, #71, #150, .T. ) ;
#176 =( LENGTH_UNIT ( ) NAMED_UNIT ( * ) SI_UNIT ( $, .METRE. ) );
#177 = ORIENTED_EDGE ( 'NONE', *, *, #175, .F. ) ;
#178 = MECHANICAL_DESIGN_GEOMETRIC_PRESENTATION_REPRESENTATION (  '', ( #53 ), #206 ) ;
#179 = UNCERTAINTY_MEASURE_WITH_UNIT (LENGTH_MEASURE( 1.000000000000000082E-05 ), #114, 'distance_accuracy_value', 'NONE');
#180 = AXIS2_PLACEMENT_3D ( 'NONE', #74, #198, #149 ) ;
#181 = DIRECTION ( 'NONE',  ( 0.000000000000000000, 0.000000000000000000, 1.000000000000000000 ) ) ;
#182 =( NAMED_UNIT ( * ) SI_UNIT ( $, .STERADIAN. ) SOLID_ANGLE_UNIT ( ) );
#183 = UNCERTAINTY_MEASURE_WITH_UNIT (LENGTH_MEASURE( 1.000000000000000082E-05 ), #30, 'distance_accuracy_value', 'NONE');
#184 = FILL_AREA_STYLE ('',( #18 ) ) ;
#185 = COLOUR_RGB ( '',0.7921568627450980005, 0.8196078431372548767, 0.9333333333333333481 ) ;
#186 = CARTESIAN_POINT ( 'NONE',  ( 1.224646799147353700E-16, 2.000000000000000000, 0.000000000000000000 ) ) ;
#187 = LENGTH_MEASURE_WITH_UNIT ( LENGTH_MEASURE( 0.02539999999999999897 ), #40 );
#188 = AXIS2_PLACEMENT_3D ( 'NONE', #231, #64, #165 ) ;
#189 = FILL_AREA_STYLE_COLOUR ( '', #108 ) ;
#190 = ADVANCED_FACE ( 'NONE', ( #26 ), #99, .T. ) ;
#191 = MECHANICAL_DESIGN_GEOMETRIC_PRESENTATION_REPRESENTATION (  '', ( #147 ), #209 ) ;
#192 = DIRECTION ( 'NONE',  ( 8.659560562354947649E-17, 0.7071067811865463515, -0.7071067811865486830 ) ) ;
#193 = LENGTH_MEASURE_WITH_UNIT ( LENGTH_MEASURE( 0.02539999999999999897 ), #152 );
#194 = ORIENTED_EDGE ( 'NONE', *, *, #45, .T. ) ;
#195 =( NAMED_UNIT ( * ) PLANE_ANGLE_UNIT ( ) SI_UNIT ( $, .RADIAN. ) );
#196 = AXIS2_PLACEMENT_3D ( 'NONE', #186, #203, #96 ) ;
#197 = SURFACE_SIDE_STYLE ('',( #215 ) ) ;
#198 = DIRECTION ( 'NONE',  ( 0.000000000000000000, 1.000000000000000000, 0.000000000000000000 ) ) ;
#199 = CARTESIAN_POINT ( 'NONE',  ( 0.000000000000000000, 0.000000000000000000, 0.000000000000000000 ) ) ;
#200 = APPLICATION_CONTEXT ( 'automotive_design' ) ;
#201 = FILL_AREA_STYLE_COLOUR ( '', #121 ) ;
#202 = EDGE_CURVE ( 'NONE', #153, #243, #259, .T. ) ;
#203 = DIRECTION ( 'NONE',  ( -1.148938068423855903E-16, 1.000000000000000000, -0.000000000000000000 ) ) ;
#204 = PRODUCT_DEFINITION_CONTEXT ( 'detailed design', #51, 'design' ) ;
#205 = MECHANICAL_DESIGN_GEOMETRIC_PRESENTATION_REPRESENTATION (  '', ( #98 ), #43 ) ;
#206 =( GEOMETRIC_REPRESENTATION_CONTEXT ( 3 ) GLOBAL_UNCERTAINTY_ASSIGNED_CONTEXT ( ( #38 ) ) GLOBAL_UNIT_ASSIGNED_CONTEXT ( ( #167, #124, #3 ) ) REPRESENTATION_CONTEXT ( 'NONE', 'WORKASPACE' ) );
#207 = APPLICATION_PROTOCOL_DEFINITION ( 'draft international standard', 'automotive_design', 1998, #51 ) ;
#208 = SURFACE_SIDE_STYLE ('',( #63 ) ) ;
#209 =( GEOMETRIC_REPRESENTATION_CONTEXT ( 3 ) GLOBAL_UNCERTAINTY_ASSIGNED_CONTEXT ( ( #261 ) ) GLOBAL_UNIT_ASSIGNED_CONTEXT ( ( #50, #106, #128 ) ) REPRESENTATION_CONTEXT ( 'NONE', 'WORKASPACE' ) );
#210 = PLANE ( 'NONE',  #49 ) ;
#211 = CLOSED_SHELL ( 'NONE', ( #216, #190, #31 ) ) ;
#212 = SURFACE_STYLE_USAGE ( .BOTH. , #197 ) ;
#213 = STYLED_ITEM ( 'NONE', ( #13 ), #216 ) ;
#214 = VERTEX_POINT ( 'NONE', #60 ) ;
#215 = SURFACE_STYLE_FILL_AREA ( #218 ) ;
#216 = ADVANCED_FACE ( 'NONE', ( #255 ), #123, .T. ) ;
#217 =( CONVERSION_BASED_UNIT ( 'INCH', #238 ) LENGTH_UNIT ( ) NAMED_UNIT ( #116 ) );
#218 = FILL_AREA_STYLE ('',( #88 ) ) ;
#219 = EDGE_LOOP ( 'NONE', ( #77, #32, #129, #110 ) ) ;
#220 = DIRECTION ( 'NONE',  ( -1.148938068423855903E-16, 1.000000000000000000, -0.000000000000000000 ) ) ;
#221 = PRESENTATION_STYLE_ASSIGNMENT (( #253 ) ) ;
#222 = VERTEX_POINT ( 'NONE', #28 ) ;
#223 = LINE ( 'NONE', #145, #82 ) ;
#224 = EDGE_CURVE ( 'NONE', #214, #243, #27, .T. ) ;
#225 = DIMENSIONAL_EXPONENTS ( 1.000000000000000000, 0.000000000000000000, 0.000000000000000000, 0.000000000000000000, 0.000000000000000000, 0.000000000000000000, 0.000000000000000000 ) ;
#226 = DIRECTION ( 'NONE',  ( 0.000000000000000000, 0.000000000000000000, 1.000000000000000000 ) ) ;
#227 = PRESENTATION_STYLE_ASSIGNMENT (( #142 ) ) ;
#228 = EDGE_CURVE ( 'NONE', #15, #222, #235, .T. ) ;
#229 = CARTESIAN_POINT ( 'NONE',  ( 0.000000000000000000, 0.09374999999999968081, 0.000000000000000000 ) ) ;
#230 = PRESENTATION_LAYER_ASSIGNMENT (  '', '', ( #147 ) ) ;
#231 = CARTESIAN_POINT ( 'NONE',  ( 1.224646799147353700E-16, 2.000000000000000000, 0.000000000000000000 ) ) ;
#232 = LINE ( 'NONE', #126, #242 ) ;
#233 = CLOSED_SHELL ( 'NONE', ( #69, #168, #66, #161 ) ) ;
#234 =( LENGTH_UNIT ( ) NAMED_UNIT ( * ) SI_UNIT ( $, .METRE. ) );
#235 = LINE ( 'NONE', #34, #138 ) ;
#236 = ORIENTED_EDGE ( 'NONE', *, *, #228, .F. ) ;
#237 =( NAMED_UNIT ( * ) SI_UNIT ( $, .STERADIAN. ) SOLID_ANGLE_UNIT ( ) );
#238 = LENGTH_MEASURE_WITH_UNIT ( LENGTH_MEASURE( 0.02539999999999999897 ), #36 );
#239 = STYLED_ITEM ( 'NONE', ( #221 ), #31 ) ;
#240 = DIRECTION ( 'NONE',  ( -1.148938068423855903E-16, 1.000000000000000000, -0.000000000000000000 ) ) ;
#241 = VERTEX_POINT ( 'NONE', #155 ) ;
#242 = VECTOR ( 'NONE', #171, 39.37007874015748143 ) ;
#243 = VERTEX_POINT ( 'NONE', #4 ) ;
#244 = DIRECTION ( 'NONE',  ( 0.000000000000000000, 0.000000000000000000, -1.000000000000000000 ) ) ;
#245 = SURFACE_SIDE_STYLE ('',( #83 ) ) ;
#246 = FILL_AREA_STYLE_COLOUR ( '', #185 ) ;
#247 = DIRECTION ( 'NONE',  ( 1.148938068423855903E-16, -1.000000000000000000, 0.000000000000000000 ) ) ;
#248 = CARTESIAN_POINT ( 'NONE',  ( 0.000000000000000000, 0.09374999999999968081, 0.000000000000000000 ) ) ;
#249 =( LENGTH_UNIT ( ) NAMED_UNIT ( * ) SI_UNIT ( $, .METRE. ) );
#250 = DIRECTION ( 'NONE',  ( 0.000000000000000000, 0.000000000000000000, -1.000000000000000000 ) ) ;
#251 = PRESENTATION_LAYER_ASSIGNMENT (  '', '', ( #98 ) ) ;
#252 =( NAMED_UNIT ( * ) PLANE_ANGLE_UNIT ( ) SI_UNIT ( $, .RADIAN. ) );
#253 = SURFACE_STYLE_USAGE ( .BOTH. , #174 ) ;
#254 =( NAMED_UNIT ( * ) PLANE_ANGLE_UNIT ( ) SI_UNIT ( $, .RADIAN. ) );
#255 = FACE_OUTER_BOUND ( 'NONE', #37, .T. ) ;
#256 = ORIENTED_EDGE ( 'NONE', *, *, #73, .T. ) ;
#257 = DIMENSIONAL_EXPONENTS ( 1.000000000000000000, 0.000000000000000000, 0.000000000000000000, 0.000000000000000000, 0.000000000000000000, 0.000000000000000000, 0.000000000000000000 ) ;
#258 = EDGE_LOOP ( 'NONE', ( #256, #59 ) ) ;
#259 = CIRCLE ( 'NONE', #68, 0.09374999999999987510 ) ;
#260 = DIRECTION ( 'NONE',  ( -0.000000000000000000, -1.000000000000000000, -0.000000000000000000 ) ) ;
#261 = UNCERTAINTY_MEASURE_WITH_UNIT (LENGTH_MEASURE( 1.000000000000000082E-05 ), #50, 'distance_accuracy_value', 'NONE');
#262 = DIMENSIONAL_EXPONENTS ( 1.000000000000000000, 0.000000000000000000, 0.000000000000000000, 0.000000000000000000, 0.000000000000000000, 0.000000000000000000, 0.000000000000000000 ) ;
#263 = APPLICATION_PROTOCOL_DEFINITION ( 'draft international standard', 'automotive_design', 1998, #200 ) ;
#264 = CIRCLE ( 'NONE', #33, 0.09374999999999965306 ) ;
#265 = FILL_AREA_STYLE ('',( #246 ) ) ;
ENDSEC;
END-ISO-10303-21;
