ISO-10303-21;
HEADER;
FILE_DESCRIPTION (( 'STEP AP214' ),
    '1' );
FILE_NAME ('49390.STEP',
    '2023-06-30T22:02:16',
    ( '' ),
    ( '' ),
    'SwSTEP 2.0',
    'SolidWorks 2023',
    '' );
FILE_SCHEMA (( 'AUTOMOTIVE_DESIGN' ));
ENDSEC;

DATA;
#1 =( NAMED_UNIT ( * ) SI_UNIT ( $, .STERADIAN. ) SOLID_ANGLE_UNIT ( ) );
#2 = EDGE_LOOP ( 'NONE', ( #139, #166, #116, #125, #162 ) ) ;
#3 = AXIS2_PLACEMENT_3D ( 'NONE', #367, #373, #167 ) ;
#4 = LINE ( 'NONE', #186, #155 ) ;
#5 = ORIENTED_EDGE ( 'NONE', *, *, #115, .F. ) ;
#6 = EDGE_CURVE ( 'NONE', #28, #224, #35, .T. ) ;
#7 = CARTESIAN_POINT ( 'NONE',  ( 0.000000000000000000, 0.3750000000000001110, -0.3749999999999998890 ) ) ;
#8 = ORIENTED_EDGE ( 'NONE', *, *, #372, .T. ) ;
#9 = ORIENTED_EDGE ( 'NONE', *, *, #6, .T. ) ;
#10 = CIRCLE ( 'NONE', #357, 0.3749999999999998890 ) ;
#11 = PRESENTATION_LAYER_ASSIGNMENT (  '', '', ( #239 ) ) ;
#12 = PRODUCT_DEFINITION ( 'UNKNOWN', '', #156, #312 ) ;
#13 = DIMENSIONAL_EXPONENTS ( 1.000000000000000000, 0.000000000000000000, 0.000000000000000000, 0.000000000000000000, 0.000000000000000000, 0.000000000000000000, 0.000000000000000000 ) ;
#14 =( CONVERSION_BASED_UNIT ( 'INCH', #234 ) LENGTH_UNIT ( ) NAMED_UNIT ( #299 ) );
#15 = ORIENTED_EDGE ( 'NONE', *, *, #98, .F. ) ;
#16 = DIRECTION ( 'NONE',  ( 0.000000000000000000, 0.000000000000000000, -1.000000000000000000 ) ) ;
#17 = AXIS2_PLACEMENT_3D ( 'NONE', #349, #199, #206 ) ;
#18 = LENGTH_MEASURE_WITH_UNIT ( LENGTH_MEASURE( 0.02539999999999999897 ), #73 );
#19 = LENGTH_MEASURE_WITH_UNIT ( LENGTH_MEASURE( 0.02539999999999999897 ), #48 );
#20 = DIRECTION ( 'NONE',  ( 0.000000000000000000, 0.000000000000000000, -1.000000000000000000 ) ) ;
#21 = ORIENTED_EDGE ( 'NONE', *, *, #200, .T. ) ;
#22 = STYLED_ITEM ( 'NONE', ( #76 ), #160 ) ;
#23 = EDGE_CURVE ( 'NONE', #82, #283, #195, .T. ) ;
#24 = ORIENTED_EDGE ( 'NONE', *, *, #42, .T. ) ;
#25 = SURFACE_STYLE_USAGE ( .BOTH. , #223 ) ;
#26 = ORIENTED_EDGE ( 'NONE', *, *, #200, .F. ) ;
#27 = DIRECTION ( 'NONE',  ( 0.000000000000000000, 0.000000000000000000, -1.000000000000000000 ) ) ;
#28 = VERTEX_POINT ( 'NONE', #69 ) ;
#29 = LENGTH_MEASURE_WITH_UNIT ( LENGTH_MEASURE( 0.02539999999999999897 ), #119 );
#30 =( CONVERSION_BASED_UNIT ( 'INCH', #173 ) LENGTH_UNIT ( ) NAMED_UNIT ( #13 ) );
#31 = FILL_AREA_STYLE_COLOUR ( '', #46 ) ;
#32 = SURFACE_STYLE_USAGE ( .BOTH. , #40 ) ;
#33 = SURFACE_STYLE_USAGE ( .BOTH. , #294 ) ;
#34 = DIMENSIONAL_EXPONENTS ( 1.000000000000000000, 0.000000000000000000, 0.000000000000000000, 0.000000000000000000, 0.000000000000000000, 0.000000000000000000, 0.000000000000000000 ) ;
#35 = CIRCLE ( 'NONE', #243, 0.3749999999999997780 ) ;
#36 = AXIS2_PLACEMENT_3D ( 'NONE', #346, #343, #355 ) ;
#37 = CARTESIAN_POINT ( 'NONE',  ( 1.224646799147352714E-16, 3.000000000000000444, 0.000000000000000000 ) ) ;
#38 =( NAMED_UNIT ( * ) PLANE_ANGLE_UNIT ( ) SI_UNIT ( $, .RADIAN. ) );
#39 = UNCERTAINTY_MEASURE_WITH_UNIT (LENGTH_MEASURE( 1.000000000000000082E-05 ), #251, 'distance_accuracy_value', 'NONE');
#40 = SURFACE_SIDE_STYLE ('',( #65 ) ) ;
#41 = DIRECTION ( 'NONE',  ( -0.000000000000000000, -1.000000000000000000, -0.000000000000000000 ) ) ;
#42 = EDGE_CURVE ( 'NONE', #56, #28, #289, .T. ) ;
#43 = DIRECTION ( 'NONE',  ( 1.000000000000000000, 0.000000000000000000, 0.000000000000000000 ) ) ;
#44 = ADVANCED_BREP_SHAPE_REPRESENTATION ( '49390', ( #47, #160, #225 ), #61 ) ;
#45 = COLOUR_RGB ( '',0.7921568627450980005, 0.8196078431372548767, 0.9333333333333333481 ) ;
#46 = COLOUR_RGB ( '',1.000000000000000000, 0.000000000000000000, 0.000000000000000000 ) ;
#47 = MANIFOLD_SOLID_BREP ( 'Revolve - Cutting Edge', #151 ) ;
#48 =( LENGTH_UNIT ( ) NAMED_UNIT ( * ) SI_UNIT ( $, .METRE. ) );
#49 =( GEOMETRIC_REPRESENTATION_CONTEXT ( 3 ) GLOBAL_UNCERTAINTY_ASSIGNED_CONTEXT ( ( #260 ) ) GLOBAL_UNIT_ASSIGNED_CONTEXT ( ( #109, #305, #150 ) ) REPRESENTATION_CONTEXT ( 'NONE', 'WORKASPACE' ) );
#50 = CARTESIAN_POINT ( 'NONE',  ( 3.662136745233418595E-16, 1.000000000000000000, 0.000000000000000000 ) ) ;
#51 = DIRECTION ( 'NONE',  ( 1.224646799147353207E-16, -0.000000000000000000, 1.000000000000000000 ) ) ;
#52 = ORIENTED_EDGE ( 'NONE', *, *, #311, .F. ) ;
#53 = PRODUCT ( '49390', '49390', '', ( #333 ) ) ;
#54 = COLOUR_RGB ( '',1.000000000000000000, 0.000000000000000000, 0.000000000000000000 ) ;
#55 = CYLINDRICAL_SURFACE ( 'NONE', #36, 0.3749999999999998890 ) ;
#56 = VERTEX_POINT ( 'NONE', #64 ) ;
#57 =( NAMED_UNIT ( * ) PLANE_ANGLE_UNIT ( ) SI_UNIT ( $, .RADIAN. ) );
#58 = EDGE_LOOP ( 'NONE', ( #8, #280, #26, #342 ) ) ;
#59 = PRESENTATION_STYLE_ASSIGNMENT (( #297 ) ) ;
#60 =( GEOMETRIC_REPRESENTATION_CONTEXT ( 3 ) GLOBAL_UNCERTAINTY_ASSIGNED_CONTEXT ( ( #39 ) ) GLOBAL_UNIT_ASSIGNED_CONTEXT ( ( #251, #87, #1 ) ) REPRESENTATION_CONTEXT ( 'NONE', 'WORKASPACE' ) );
#61 =( GEOMETRIC_REPRESENTATION_CONTEXT ( 3 ) GLOBAL_UNCERTAINTY_ASSIGNED_CONTEXT ( ( #128 ) ) GLOBAL_UNIT_ASSIGNED_CONTEXT ( ( #273, #242, #364 ) ) REPRESENTATION_CONTEXT ( 'NONE', 'WORKASPACE' ) );
#62 =( NAMED_UNIT ( * ) SI_UNIT ( $, .STERADIAN. ) SOLID_ANGLE_UNIT ( ) );
#63 = CARTESIAN_POINT ( 'NONE',  ( 0.3749999999999998335, 3.000000000000000444, 4.592425496802570521E-17 ) ) ;
#64 = CARTESIAN_POINT ( 'NONE',  ( 0.3749999999999998335, 1.000000000000000000, 4.592425496802570521E-17 ) ) ;
#65 = SURFACE_STYLE_FILL_AREA ( #301 ) ;
#66 = SURFACE_SIDE_STYLE ('',( #240 ) ) ;
#67 = AXIS2_PLACEMENT_3D ( 'NONE', #81, #138, #370 ) ;
#68 = DIRECTION ( 'NONE',  ( -1.000000000000000000, 0.000000000000000000, 0.000000000000000000 ) ) ;
#69 = CARTESIAN_POINT ( 'NONE',  ( 0.3749999999999998890, 3.000000000000000444, 4.592425496802571754E-17 ) ) ;
#70 = ADVANCED_FACE ( 'NONE', ( #353 ), #358, .T. ) ;
#71 = COLOUR_RGB ( '',1.000000000000000000, 0.000000000000000000, 0.000000000000000000 ) ;
#72 = CARTESIAN_POINT ( 'NONE',  ( 0.000000000000000000, 1.000000000000000000, 0.000000000000000000 ) ) ;
#73 =( LENGTH_UNIT ( ) NAMED_UNIT ( * ) SI_UNIT ( $, .METRE. ) );
#74 = LENGTH_MEASURE_WITH_UNIT ( LENGTH_MEASURE( 0.02539999999999999897 ), #272 );
#75 = SHAPE_DEFINITION_REPRESENTATION ( #117, #44 ) ;
#76 = PRESENTATION_STYLE_ASSIGNMENT (( #332 ) ) ;
#77 = MECHANICAL_DESIGN_GEOMETRIC_PRESENTATION_REPRESENTATION (  '', ( #205 ), #164 ) ;
#78 = DIRECTION ( 'NONE',  ( -1.218744973043033064E-16, 1.000000000000000000, -0.000000000000000000 ) ) ;
#79 = DIRECTION ( 'NONE',  ( 1.000000000000000000, 0.000000000000000000, -1.224646799147353207E-16 ) ) ;
#80 = ORIENTED_EDGE ( 'NONE', *, *, #259, .T. ) ;
#81 = CARTESIAN_POINT ( 'NONE',  ( 0.000000000000000000, 1.000000000000000000, 0.000000000000000000 ) ) ;
#82 = VERTEX_POINT ( 'NONE', #258 ) ;
#83 = UNCERTAINTY_MEASURE_WITH_UNIT (LENGTH_MEASURE( 1.000000000000000082E-05 ), #14, 'distance_accuracy_value', 'NONE');
#84 = STYLED_ITEM ( 'NONE', ( #182 ), #214 ) ;
#85 = PLANE ( 'NONE',  #219 ) ;
#86 = ORIENTED_EDGE ( 'NONE', *, *, #345, .F. ) ;
#87 =( NAMED_UNIT ( * ) PLANE_ANGLE_UNIT ( ) SI_UNIT ( $, .RADIAN. ) );
#88 = EDGE_LOOP ( 'NONE', ( #192, #344, #90, #221 ) ) ;
#89 = UNCERTAINTY_MEASURE_WITH_UNIT (LENGTH_MEASURE( 1.000000000000000082E-05 ), #140, 'distance_accuracy_value', 'NONE');
#90 = ORIENTED_EDGE ( 'NONE', *, *, #222, .T. ) ;
#91 = CARTESIAN_POINT ( 'NONE',  ( 1.224646799147352714E-16, 3.000000000000000444, 0.000000000000000000 ) ) ;
#92 = DIRECTION ( 'NONE',  ( -1.000000000000000000, 0.000000000000000000, 0.000000000000000000 ) ) ;
#93 = MECHANICAL_DESIGN_GEOMETRIC_PRESENTATION_REPRESENTATION (  '', ( #106 ), #244 ) ;
#94 = EDGE_CURVE ( 'NONE', #190, #338, #129, .T. ) ;
#95 = CARTESIAN_POINT ( 'NONE',  ( 4.592425496802572986E-17, 0.3750000000000001110, 0.3749999999999998890 ) ) ;
#96 = DIRECTION ( 'NONE',  ( 0.000000000000000000, 0.000000000000000000, -1.000000000000000000 ) ) ;
#97 = DIRECTION ( 'NONE',  ( -1.218744973043033064E-16, 1.000000000000000000, -0.000000000000000000 ) ) ;
#98 = EDGE_CURVE ( 'NONE', #120, #56, #328, .T. ) ;
#99 = MECHANICAL_DESIGN_GEOMETRIC_PRESENTATION_REPRESENTATION (  '', ( #239 ), #60 ) ;
#100 = PRESENTATION_LAYER_ASSIGNMENT (  '', '', ( #220 ) ) ;
#101 = CARTESIAN_POINT ( 'NONE',  ( 0.000000000000000000, 0.000000000000000000, 0.000000000000000000 ) ) ;
#102 = CARTESIAN_POINT ( 'NONE',  ( 0.000000000000000000, 0.3750000000000001110, 0.000000000000000000 ) ) ;
#103 = DIRECTION ( 'NONE',  ( 0.000000000000000000, 0.000000000000000000, 1.000000000000000000 ) ) ;
#104 = APPLICATION_PROTOCOL_DEFINITION ( 'draft international standard', 'automotive_design', 1998, #321 ) ;
#105 = FILL_AREA_STYLE_COLOUR ( '', #340 ) ;
#106 = STYLED_ITEM ( 'NONE', ( #266 ), #136 ) ;
#107 = DIRECTION ( 'NONE',  ( -0.000000000000000000, -1.000000000000000000, -0.000000000000000000 ) ) ;
#108 = DIRECTION ( 'NONE',  ( -1.000000000000000000, -1.218744973043033064E-16, 0.000000000000000000 ) ) ;
#109 =( CONVERSION_BASED_UNIT ( 'INCH', #74 ) LENGTH_UNIT ( ) NAMED_UNIT ( #126 ) );
#110 = SURFACE_SIDE_STYLE ('',( #366 ) ) ;
#111 = AXIS2_PLACEMENT_3D ( 'NONE', #233, #230, #92 ) ;
#112 = FACE_OUTER_BOUND ( 'NONE', #118, .T. ) ;
#113 = CARTESIAN_POINT ( 'NONE',  ( -4.592425496802575451E-17, 0.3750000000000000555, 0.000000000000000000 ) ) ;
#114 = ORIENTED_EDGE ( 'NONE', *, *, #94, .T. ) ;
#115 = EDGE_CURVE ( 'NONE', #369, #254, #303, .T. ) ;
#116 = ORIENTED_EDGE ( 'NONE', *, *, #311, .T. ) ;
#117 = PRODUCT_DEFINITION_SHAPE ( 'NONE', 'NONE',  #12 ) ;
#118 = EDGE_LOOP ( 'NONE', ( #286, #143, #141, #314, #52 ) ) ;
#119 =( LENGTH_UNIT ( ) NAMED_UNIT ( * ) SI_UNIT ( $, .METRE. ) );
#120 = VERTEX_POINT ( 'NONE', #201 ) ;
#121 = DIRECTION ( 'NONE',  ( 0.000000000000000000, 0.000000000000000000, -1.000000000000000000 ) ) ;
#122 = AXIS2_PLACEMENT_3D ( 'NONE', #264, #41, #235 ) ;
#123 = FACE_OUTER_BOUND ( 'NONE', #278, .T. ) ;
#124 =( GEOMETRIC_REPRESENTATION_CONTEXT ( 3 ) GLOBAL_UNCERTAINTY_ASSIGNED_CONTEXT ( ( #89 ) ) GLOBAL_UNIT_ASSIGNED_CONTEXT ( ( #140, #57, #226 ) ) REPRESENTATION_CONTEXT ( 'NONE', 'WORKASPACE' ) );
#125 = ORIENTED_EDGE ( 'NONE', *, *, #94, .F. ) ;
#126 = DIMENSIONAL_EXPONENTS ( 1.000000000000000000, 0.000000000000000000, 0.000000000000000000, 0.000000000000000000, 0.000000000000000000, 0.000000000000000000, 0.000000000000000000 ) ;
#127 = FACE_OUTER_BOUND ( 'NONE', #88, .T. ) ;
#128 = UNCERTAINTY_MEASURE_WITH_UNIT (LENGTH_MEASURE( 1.000000000000000082E-05 ), #273, 'distance_accuracy_value', 'NONE');
#129 = CIRCLE ( 'NONE', #218, 0.3749999999999998890 ) ;
#130 = VECTOR ( 'NONE', #257, 39.37007874015748143 ) ;
#131 =( NAMED_UNIT ( * ) PLANE_ANGLE_UNIT ( ) SI_UNIT ( $, .RADIAN. ) );
#132 = PRESENTATION_LAYER_ASSIGNMENT (  '', '', ( #106 ) ) ;
#133 = CARTESIAN_POINT ( 'NONE',  ( 0.000000000000000000, 0.000000000000000000, 0.000000000000000000 ) ) ;
#134 = FILL_AREA_STYLE_COLOUR ( '', #71 ) ;
#135 = DIRECTION ( 'NONE',  ( -1.000000000000000000, 0.000000000000000000, 0.000000000000000000 ) ) ;
#136 = ADVANCED_FACE ( 'NONE', ( #198 ), #309, .T. ) ;
#137 =( LENGTH_UNIT ( ) NAMED_UNIT ( * ) SI_UNIT ( $, .METRE. ) );
#138 = DIRECTION ( 'NONE',  ( 0.000000000000000000, 1.000000000000000000, 0.000000000000000000 ) ) ;
#139 = ORIENTED_EDGE ( 'NONE', *, *, #284, .F. ) ;
#140 =( CONVERSION_BASED_UNIT ( 'INCH', #335 ) LENGTH_UNIT ( ) NAMED_UNIT ( #204 ) );
#141 = ORIENTED_EDGE ( 'NONE', *, *, #23, .F. ) ;
#142 = STYLED_ITEM ( 'NONE', ( #59 ), #277 ) ;
#143 = ORIENTED_EDGE ( 'NONE', *, *, #284, .T. ) ;
#144 = DIRECTION ( 'NONE',  ( -1.000000000000000000, 0.000000000000000000, 0.000000000000000000 ) ) ;
#145 = DIRECTION ( 'NONE',  ( -1.218744973043033064E-16, 1.000000000000000000, -0.000000000000000000 ) ) ;
#146 = CARTESIAN_POINT ( 'NONE',  ( 1.224646799147352714E-16, 3.000000000000000444, 0.000000000000000000 ) ) ;
#147 = FILL_AREA_STYLE ('',( #175 ) ) ;
#148 = CIRCLE ( 'NONE', #318, 0.3749999999999998890 ) ;
#149 = FILL_AREA_STYLE ('',( #191 ) ) ;
#150 =( NAMED_UNIT ( * ) SI_UNIT ( $, .STERADIAN. ) SOLID_ANGLE_UNIT ( ) );
#151 = CLOSED_SHELL ( 'NONE', ( #136, #277, #214, #352, #271 ) ) ;
#152 = CIRCLE ( 'NONE', #196, 0.3749999999999997780 ) ;
#153 = DIRECTION ( 'NONE',  ( 0.000000000000000000, 0.000000000000000000, -1.000000000000000000 ) ) ;
#154 = DIRECTION ( 'NONE',  ( 0.000000000000000000, 0.000000000000000000, 1.000000000000000000 ) ) ;
#155 = VECTOR ( 'NONE', #78, 39.37007874015748143 ) ;
#156 = PRODUCT_DEFINITION_FORMATION_WITH_SPECIFIED_SOURCE ( 'ANY', '', #53, .NOT_KNOWN. ) ;
#157 = ADVANCED_FACE ( 'NONE', ( #123 ), #246, .F. ) ;
#158 = SURFACE_STYLE_FILL_AREA ( #248 ) ;
#159 = ORIENTED_EDGE ( 'NONE', *, *, #241, .F. ) ;
#160 = MANIFOLD_SOLID_BREP ( 'Revolve - Tool Body (Straight Shanked)', #212 ) ;
#161 = FACE_OUTER_BOUND ( 'NONE', #252, .T. ) ;
#162 = ORIENTED_EDGE ( 'NONE', *, *, #372, .F. ) ;
#163 = COLOUR_RGB ( '',1.000000000000000000, 0.000000000000000000, 0.000000000000000000 ) ;
#164 =( GEOMETRIC_REPRESENTATION_CONTEXT ( 3 ) GLOBAL_UNCERTAINTY_ASSIGNED_CONTEXT ( ( #351 ) ) GLOBAL_UNIT_ASSIGNED_CONTEXT ( ( #30, #38, #268 ) ) REPRESENTATION_CONTEXT ( 'NONE', 'WORKASPACE' ) );
#165 = LENGTH_MEASURE_WITH_UNIT ( LENGTH_MEASURE( 0.02539999999999999897 ), #253 );
#166 = ORIENTED_EDGE ( 'NONE', *, *, #170, .T. ) ;
#167 = DIRECTION ( 'NONE',  ( 1.000000000000000000, 0.000000000000000000, 0.000000000000000000 ) ) ;
#168 = ORIENTED_EDGE ( 'NONE', *, *, #345, .T. ) ;
#169 = CARTESIAN_POINT ( 'NONE',  ( 4.592425496802572986E-17, 1.000000000000000000, 0.3749999999999998890 ) ) ;
#170 = EDGE_CURVE ( 'NONE', #254, #369, #10, .T. ) ;
#171 = AXIS2_PLACEMENT_3D ( 'NONE', #302, #154, #43 ) ;
#172 = CYLINDRICAL_SURFACE ( 'NONE', #368, 0.3749999999999996669 ) ;
#173 = LENGTH_MEASURE_WITH_UNIT ( LENGTH_MEASURE( 0.02539999999999999897 ), #207 );
#174 = DIRECTION ( 'NONE',  ( -0.000000000000000000, -1.000000000000000000, -0.000000000000000000 ) ) ;
#175 = FILL_AREA_STYLE_COLOUR ( '', #45 ) ;
#176 =( NAMED_UNIT ( * ) PLANE_ANGLE_UNIT ( ) SI_UNIT ( $, .RADIAN. ) );
#177 =( NAMED_UNIT ( * ) SI_UNIT ( $, .STERADIAN. ) SOLID_ANGLE_UNIT ( ) );
#178 = PRESENTATION_LAYER_ASSIGNMENT (  '', '', ( #22 ) ) ;
#179 = DIRECTION ( 'NONE',  ( -1.000000000000000000, 0.000000000000000000, 0.000000000000000000 ) ) ;
#180 = SURFACE_STYLE_USAGE ( .BOTH. , #66 ) ;
#181 = FACE_OUTER_BOUND ( 'NONE', #187, .T. ) ;
#182 = PRESENTATION_STYLE_ASSIGNMENT (( #270 ) ) ;
#183 = AXIS2_PLACEMENT_3D ( 'NONE', #113, #51, #79 ) ;
#184 = SPHERICAL_SURFACE ( 'NONE', #3, 0.3749999999999999445 ) ;
#185 = ORIENTED_EDGE ( 'NONE', *, *, #98, .T. ) ;
#186 = CARTESIAN_POINT ( 'NONE',  ( -0.3749999999999995559, 3.000000000000000444, 0.000000000000000000 ) ) ;
#187 = EDGE_LOOP ( 'NONE', ( #5, #255 ) ) ;
#188 =( GEOMETRIC_REPRESENTATION_CONTEXT ( 3 ) GLOBAL_UNCERTAINTY_ASSIGNED_CONTEXT ( ( #83 ) ) GLOBAL_UNIT_ASSIGNED_CONTEXT ( ( #14, #176, #62 ) ) REPRESENTATION_CONTEXT ( 'NONE', 'WORKASPACE' ) );
#189 = FACE_OUTER_BOUND ( 'NONE', #238, .T. ) ;
#190 = VERTEX_POINT ( 'NONE', #307 ) ;
#191 = FILL_AREA_STYLE_COLOUR ( '', #324 ) ;
#192 = ORIENTED_EDGE ( 'NONE', *, *, #42, .F. ) ;
#193 = SURFACE_STYLE_FILL_AREA ( #149 ) ;
#194 = ORIENTED_EDGE ( 'NONE', *, *, #300, .F. ) ;
#195 = CIRCLE ( 'NONE', #122, 0.3749999999999998890 ) ;
#196 = AXIS2_PLACEMENT_3D ( 'NONE', #91, #291, #68 ) ;
#197 = SURFACE_SIDE_STYLE ('',( #193 ) ) ;
#198 = FACE_OUTER_BOUND ( 'NONE', #58, .T. ) ;
#199 = DIRECTION ( 'NONE',  ( -1.218744973043033064E-16, 1.000000000000000000, -0.000000000000000000 ) ) ;
#200 = EDGE_CURVE ( 'NONE', #82, #371, #310, .T. ) ;
#201 = CARTESIAN_POINT ( 'NONE',  ( -0.3749999999999991673, 1.000000000000000000, 0.000000000000000000 ) ) ;
#202 = UNCERTAINTY_MEASURE_WITH_UNIT (LENGTH_MEASURE( 1.000000000000000082E-05 ), #232, 'distance_accuracy_value', 'NONE');
#203 = FILL_AREA_STYLE_COLOUR ( '', #163 ) ;
#204 = DIMENSIONAL_EXPONENTS ( 1.000000000000000000, 0.000000000000000000, 0.000000000000000000, 0.000000000000000000, 0.000000000000000000, 0.000000000000000000, 0.000000000000000000 ) ;
#205 = STYLED_ITEM ( 'NONE', ( #320 ), #47 ) ;
#206 = DIRECTION ( 'NONE',  ( -1.000000000000000000, 0.000000000000000000, 0.000000000000000000 ) ) ;
#207 =( LENGTH_UNIT ( ) NAMED_UNIT ( * ) SI_UNIT ( $, .METRE. ) );
#208 = DIMENSIONAL_EXPONENTS ( 1.000000000000000000, 0.000000000000000000, 0.000000000000000000, 0.000000000000000000, 0.000000000000000000, 0.000000000000000000, 0.000000000000000000 ) ;
#209 = DIRECTION ( 'NONE',  ( -0.000000000000000000, -1.000000000000000000, -0.000000000000000000 ) ) ;
#210 = PRODUCT_RELATED_PRODUCT_CATEGORY ( 'part', '', ( #53 ) ) ;
#211 = FILL_AREA_STYLE ('',( #105 ) ) ;
#212 = CLOSED_SHELL ( 'NONE', ( #70, #157, #331, #227 ) ) ;
#213 = SURFACE_STYLE_FILL_AREA ( #211 ) ;
#214 = ADVANCED_FACE ( 'NONE', ( #181 ), #247, .T. ) ;
#215 = DIRECTION ( 'NONE',  ( -0.000000000000000000, -1.000000000000000000, -0.000000000000000000 ) ) ;
#216 = FILL_AREA_STYLE ('',( #134 ) ) ;
#217 = FILL_AREA_STYLE_COLOUR ( '', #54 ) ;
#218 = AXIS2_PLACEMENT_3D ( 'NONE', #102, #209, #121 ) ;
#219 = AXIS2_PLACEMENT_3D ( 'NONE', #337, #287, #339 ) ;
#220 = STYLED_ITEM ( 'NONE', ( #322 ), #352 ) ;
#221 = ORIENTED_EDGE ( 'NONE', *, *, #6, .F. ) ;
#222 = EDGE_CURVE ( 'NONE', #120, #224, #4, .T. ) ;
#223 = SURFACE_SIDE_STYLE ('',( #158 ) ) ;
#224 = VERTEX_POINT ( 'NONE', #341 ) ;
#225 = AXIS2_PLACEMENT_3D ( 'NONE', #133, #103, #327 ) ;
#226 =( NAMED_UNIT ( * ) SI_UNIT ( $, .STERADIAN. ) SOLID_ANGLE_UNIT ( ) );
#227 = ADVANCED_FACE ( 'NONE', ( #161 ), #85, .F. ) ;
#228 = CARTESIAN_POINT ( 'NONE',  ( 4.592425496802572986E-17, 0.000000000000000000, 0.3749999999999998890 ) ) ;
#229 = ORIENTED_EDGE ( 'NONE', *, *, #222, .F. ) ;
#230 = DIRECTION ( 'NONE',  ( -1.218744973043033064E-16, 1.000000000000000000, -0.000000000000000000 ) ) ;
#231 = MECHANICAL_DESIGN_GEOMETRIC_PRESENTATION_REPRESENTATION (  '', ( #22 ), #49 ) ;
#232 =( CONVERSION_BASED_UNIT ( 'INCH', #29 ) LENGTH_UNIT ( ) NAMED_UNIT ( #208 ) );
#233 = CARTESIAN_POINT ( 'NONE',  ( 3.662136745233419088E-16, 1.000000000000000000, 0.000000000000000000 ) ) ;
#234 = LENGTH_MEASURE_WITH_UNIT ( LENGTH_MEASURE( 0.02539999999999999897 ), #267 );
#235 = DIRECTION ( 'NONE',  ( 0.000000000000000000, 0.000000000000000000, -1.000000000000000000 ) ) ;
#236 = DIMENSIONAL_EXPONENTS ( 1.000000000000000000, 0.000000000000000000, 0.000000000000000000, 0.000000000000000000, 0.000000000000000000, 0.000000000000000000, 0.000000000000000000 ) ;
#237 = FACE_OUTER_BOUND ( 'NONE', #2, .T. ) ;
#238 = EDGE_LOOP ( 'NONE', ( #159, #114, #80, #21 ) ) ;
#239 = STYLED_ITEM ( 'NONE', ( #313 ), #271 ) ;
#240 = SURFACE_STYLE_FILL_AREA ( #147 ) ;
#241 = EDGE_CURVE ( 'NONE', #190, #371, #296, .T. ) ;
#242 =( NAMED_UNIT ( * ) PLANE_ANGLE_UNIT ( ) SI_UNIT ( $, .RADIAN. ) );
#243 = AXIS2_PLACEMENT_3D ( 'NONE', #292, #97, #356 ) ;
#244 =( GEOMETRIC_REPRESENTATION_CONTEXT ( 3 ) GLOBAL_UNCERTAINTY_ASSIGNED_CONTEXT ( ( #290 ) ) GLOBAL_UNIT_ASSIGNED_CONTEXT ( ( #334, #131, #360 ) ) REPRESENTATION_CONTEXT ( 'NONE', 'WORKASPACE' ) );
#245 = APPLICATION_PROTOCOL_DEFINITION ( 'draft international standard', 'automotive_design', 1998, #315 ) ;
#246 = PLANE ( 'NONE',  #288 ) ;
#247 = PLANE ( 'NONE',  #67 ) ;
#248 = FILL_AREA_STYLE ('',( #217 ) ) ;
#249 = CIRCLE ( 'NONE', #348, 0.3749999999999998890 ) ;
#250 =( GEOMETRIC_REPRESENTATION_CONTEXT ( 3 ) GLOBAL_UNCERTAINTY_ASSIGNED_CONTEXT ( ( #202 ) ) GLOBAL_UNIT_ASSIGNED_CONTEXT ( ( #232, #262, #177 ) ) REPRESENTATION_CONTEXT ( 'NONE', 'WORKASPACE' ) );
#251 =( CONVERSION_BASED_UNIT ( 'INCH', #165 ) LENGTH_UNIT ( ) NAMED_UNIT ( #236 ) );
#252 = EDGE_LOOP ( 'NONE', ( #168, #9 ) ) ;
#253 =( LENGTH_UNIT ( ) NAMED_UNIT ( * ) SI_UNIT ( $, .METRE. ) );
#254 = VERTEX_POINT ( 'NONE', #169 ) ;
#255 = ORIENTED_EDGE ( 'NONE', *, *, #170, .F. ) ;
#256 = LINE ( 'NONE', #228, #130 ) ;
#257 = DIRECTION ( 'NONE',  ( -0.000000000000000000, -1.000000000000000000, -0.000000000000000000 ) ) ;
#258 = CARTESIAN_POINT ( 'NONE',  ( 0.3749999999999998890, 0.3750000000000001110, 0.000000000000000000 ) ) ;
#259 = EDGE_CURVE ( 'NONE', #338, #82, #249, .T. ) ;
#260 = UNCERTAINTY_MEASURE_WITH_UNIT (LENGTH_MEASURE( 1.000000000000000082E-05 ), #109, 'distance_accuracy_value', 'NONE');
#261 = PRESENTATION_LAYER_ASSIGNMENT (  '', '', ( #142 ) ) ;
#262 =( NAMED_UNIT ( * ) PLANE_ANGLE_UNIT ( ) SI_UNIT ( $, .RADIAN. ) );
#263 = MECHANICAL_DESIGN_GEOMETRIC_PRESENTATION_REPRESENTATION (  '', ( #220 ), #250 ) ;
#264 = CARTESIAN_POINT ( 'NONE',  ( 0.000000000000000000, 0.3750000000000001110, 0.000000000000000000 ) ) ;
#265 = LINE ( 'NONE', #325, #269 ) ;
#266 = PRESENTATION_STYLE_ASSIGNMENT (( #33 ) ) ;
#267 =( LENGTH_UNIT ( ) NAMED_UNIT ( * ) SI_UNIT ( $, .METRE. ) );
#268 =( NAMED_UNIT ( * ) SI_UNIT ( $, .STERADIAN. ) SOLID_ANGLE_UNIT ( ) );
#269 = VECTOR ( 'NONE', #174, 39.37007874015748143 ) ;
#270 = SURFACE_STYLE_USAGE ( .BOTH. , #110 ) ;
#271 = ADVANCED_FACE ( 'NONE', ( #189 ), #184, .T. ) ;
#272 =( LENGTH_UNIT ( ) NAMED_UNIT ( * ) SI_UNIT ( $, .METRE. ) );
#273 =( CONVERSION_BASED_UNIT ( 'INCH', #18 ) LENGTH_UNIT ( ) NAMED_UNIT ( #354 ) );
#274 = CARTESIAN_POINT ( 'NONE',  ( -4.592425496802575451E-17, 0.3750000000000000555, 0.000000000000000000 ) ) ;
#275 = PRESENTATION_LAYER_ASSIGNMENT (  '', '', ( #84 ) ) ;
#276 = DIRECTION ( 'NONE',  ( -0.000000000000000000, -1.000000000000000000, -0.000000000000000000 ) ) ;
#277 = ADVANCED_FACE ( 'NONE', ( #112 ), #55, .T. ) ;
#278 = EDGE_LOOP ( 'NONE', ( #15, #194 ) ) ;
#279 = DIRECTION ( 'NONE',  ( -0.000000000000000000, -1.000000000000000000, -0.000000000000000000 ) ) ;
#280 = ORIENTED_EDGE ( 'NONE', *, *, #241, .T. ) ;
#281 = AXIS2_PLACEMENT_3D ( 'NONE', #146, #326, #179 ) ;
#282 = MECHANICAL_DESIGN_GEOMETRIC_PRESENTATION_REPRESENTATION (  '', ( #84 ), #124 ) ;
#283 = VERTEX_POINT ( 'NONE', #95 ) ;
#284 = EDGE_CURVE ( 'NONE', #254, #283, #256, .T. ) ;
#285 = CARTESIAN_POINT ( 'NONE',  ( 0.000000000000000000, 0.3750000000000001110, 0.000000000000000000 ) ) ;
#286 = ORIENTED_EDGE ( 'NONE', *, *, #115, .T. ) ;
#287 = DIRECTION ( 'NONE',  ( 1.218744973043033064E-16, -1.000000000000000000, 0.000000000000000000 ) ) ;
#288 = AXIS2_PLACEMENT_3D ( 'NONE', #50, #365, #108 ) ;
#289 = LINE ( 'NONE', #63, #295 ) ;
#290 = UNCERTAINTY_MEASURE_WITH_UNIT (LENGTH_MEASURE( 1.000000000000000082E-05 ), #334, 'distance_accuracy_value', 'NONE');
#291 = DIRECTION ( 'NONE',  ( -1.218744973043033064E-16, 1.000000000000000000, -0.000000000000000000 ) ) ;
#292 = CARTESIAN_POINT ( 'NONE',  ( 1.224646799147352714E-16, 3.000000000000000444, 0.000000000000000000 ) ) ;
#293 = DIRECTION ( 'NONE',  ( -1.218744973043033064E-16, 1.000000000000000000, -0.000000000000000000 ) ) ;
#294 = SURFACE_SIDE_STYLE ('',( #323 ) ) ;
#295 = VECTOR ( 'NONE', #145, 39.37007874015748143 ) ;
#296 = CIRCLE ( 'NONE', #183, 0.3749999999999999445 ) ;
#297 = SURFACE_STYLE_USAGE ( .BOTH. , #197 ) ;
#298 = CARTESIAN_POINT ( 'NONE',  ( 0.000000000000000000, 1.000000000000000000, 0.000000000000000000 ) ) ;
#299 = DIMENSIONAL_EXPONENTS ( 1.000000000000000000, 0.000000000000000000, 0.000000000000000000, 0.000000000000000000, 0.000000000000000000, 0.000000000000000000, 0.000000000000000000 ) ;
#300 = EDGE_CURVE ( 'NONE', #56, #120, #336, .T. ) ;
#301 = FILL_AREA_STYLE ('',( #31 ) ) ;
#302 = CARTESIAN_POINT ( 'NONE',  ( -4.592425496802575451E-17, 0.3750000000000000555, 0.000000000000000000 ) ) ;
#303 = CIRCLE ( 'NONE', #329, 0.3749999999999998890 ) ;
#304 = AXIS2_PLACEMENT_3D ( 'NONE', #274, #20, #135 ) ;
#305 =( NAMED_UNIT ( * ) PLANE_ANGLE_UNIT ( ) SI_UNIT ( $, .RADIAN. ) );
#306 = CARTESIAN_POINT ( 'NONE',  ( -2.296212748401288342E-17, 6.829619984160658046E-17, 0.000000000000000000 ) ) ;
#307 = CARTESIAN_POINT ( 'NONE',  ( -0.3749999999999999445, 0.3750000000000001110, 4.592425496802572986E-17 ) ) ;
#308 = PRESENTATION_LAYER_ASSIGNMENT (  '', '', ( #205 ) ) ;
#309 = SPHERICAL_SURFACE ( 'NONE', #171, 0.3749999999999999445 ) ;
#310 = CIRCLE ( 'NONE', #304, 0.3749999999999999445 ) ;
#311 = EDGE_CURVE ( 'NONE', #369, #338, #265, .T. ) ;
#312 = PRODUCT_DEFINITION_CONTEXT ( 'detailed design', #315, 'design' ) ;
#313 = PRESENTATION_STYLE_ASSIGNMENT (( #25 ) ) ;
#314 = ORIENTED_EDGE ( 'NONE', *, *, #259, .F. ) ;
#315 = APPLICATION_CONTEXT ( 'automotive_design' ) ;
#316 = CYLINDRICAL_SURFACE ( 'NONE', #363, 0.3749999999999998890 ) ;
#317 = MECHANICAL_DESIGN_GEOMETRIC_PRESENTATION_REPRESENTATION (  '', ( #142 ), #188 ) ;
#318 = AXIS2_PLACEMENT_3D ( 'NONE', #359, #215, #16 ) ;
#319 = FILL_AREA_STYLE ('',( #203 ) ) ;
#320 = PRESENTATION_STYLE_ASSIGNMENT (( #180 ) ) ;
#321 = APPLICATION_CONTEXT ( 'automotive_design' ) ;
#322 = PRESENTATION_STYLE_ASSIGNMENT (( #32 ) ) ;
#323 = SURFACE_STYLE_FILL_AREA ( #319 ) ;
#324 = COLOUR_RGB ( '',1.000000000000000000, 0.000000000000000000, 0.000000000000000000 ) ;
#325 = CARTESIAN_POINT ( 'NONE',  ( 0.000000000000000000, 0.000000000000000000, -0.3749999999999998890 ) ) ;
#326 = DIRECTION ( 'NONE',  ( -1.218744973043033064E-16, 1.000000000000000000, -0.000000000000000000 ) ) ;
#327 = DIRECTION ( 'NONE',  ( 1.000000000000000000, 0.000000000000000000, 0.000000000000000000 ) ) ;
#328 = CIRCLE ( 'NONE', #111, 0.3749999999999995004 ) ;
#329 = AXIS2_PLACEMENT_3D ( 'NONE', #298, #347, #96 ) ;
#330 = DIRECTION ( 'NONE',  ( 0.000000000000000000, 0.000000000000000000, -1.000000000000000000 ) ) ;
#331 = ADVANCED_FACE ( 'NONE', ( #127 ), #172, .T. ) ;
#332 = SURFACE_STYLE_USAGE ( .BOTH. , #362 ) ;
#333 = PRODUCT_CONTEXT ( 'NONE', #321, 'mechanical' ) ;
#334 =( CONVERSION_BASED_UNIT ( 'INCH', #19 ) LENGTH_UNIT ( ) NAMED_UNIT ( #34 ) );
#335 = LENGTH_MEASURE_WITH_UNIT ( LENGTH_MEASURE( 0.02539999999999999897 ), #137 );
#336 = CIRCLE ( 'NONE', #17, 0.3749999999999995004 ) ;
#337 = CARTESIAN_POINT ( 'NONE',  ( 0.3749999999999998890, 3.000000000000000444, 0.000000000000000000 ) ) ;
#338 = VERTEX_POINT ( 'NONE', #7 ) ;
#339 = DIRECTION ( 'NONE',  ( 1.000000000000000000, 1.218744973043033064E-16, 0.000000000000000000 ) ) ;
#340 = COLOUR_RGB ( '',0.7921568627450980005, 0.8196078431372548767, 0.9333333333333333481 ) ;
#341 = CARTESIAN_POINT ( 'NONE',  ( -0.3749999999999996114, 3.000000000000000444, 0.000000000000000000 ) ) ;
#342 = ORIENTED_EDGE ( 'NONE', *, *, #23, .T. ) ;
#343 = DIRECTION ( 'NONE',  ( -0.000000000000000000, -1.000000000000000000, -0.000000000000000000 ) ) ;
#344 = ORIENTED_EDGE ( 'NONE', *, *, #300, .T. ) ;
#345 = EDGE_CURVE ( 'NONE', #224, #28, #152, .T. ) ;
#346 = CARTESIAN_POINT ( 'NONE',  ( 0.000000000000000000, 0.000000000000000000, 0.000000000000000000 ) ) ;
#347 = DIRECTION ( 'NONE',  ( -0.000000000000000000, -1.000000000000000000, -0.000000000000000000 ) ) ;
#348 = AXIS2_PLACEMENT_3D ( 'NONE', #285, #279, #27 ) ;
#349 = CARTESIAN_POINT ( 'NONE',  ( 3.662136745233419088E-16, 1.000000000000000000, 0.000000000000000000 ) ) ;
#350 = EDGE_LOOP ( 'NONE', ( #185, #24, #86, #229 ) ) ;
#351 = UNCERTAINTY_MEASURE_WITH_UNIT (LENGTH_MEASURE( 1.000000000000000082E-05 ), #30, 'distance_accuracy_value', 'NONE');
#352 = ADVANCED_FACE ( 'NONE', ( #237 ), #316, .T. ) ;
#353 = FACE_OUTER_BOUND ( 'NONE', #350, .T. ) ;
#354 = DIMENSIONAL_EXPONENTS ( 1.000000000000000000, 0.000000000000000000, 0.000000000000000000, 0.000000000000000000, 0.000000000000000000, 0.000000000000000000, 0.000000000000000000 ) ;
#355 = DIRECTION ( 'NONE',  ( 0.000000000000000000, 0.000000000000000000, -1.000000000000000000 ) ) ;
#356 = DIRECTION ( 'NONE',  ( -1.000000000000000000, 0.000000000000000000, 0.000000000000000000 ) ) ;
#357 = AXIS2_PLACEMENT_3D ( 'NONE', #72, #276, #153 ) ;
#358 = CYLINDRICAL_SURFACE ( 'NONE', #281, 0.3749999999999996669 ) ;
#359 = CARTESIAN_POINT ( 'NONE',  ( 0.000000000000000000, 0.3750000000000001110, 0.000000000000000000 ) ) ;
#360 =( NAMED_UNIT ( * ) SI_UNIT ( $, .STERADIAN. ) SOLID_ANGLE_UNIT ( ) );
#361 = CARTESIAN_POINT ( 'NONE',  ( 0.000000000000000000, 1.000000000000000000, -0.3749999999999998890 ) ) ;
#362 = SURFACE_SIDE_STYLE ('',( #213 ) ) ;
#363 = AXIS2_PLACEMENT_3D ( 'NONE', #101, #107, #330 ) ;
#364 =( NAMED_UNIT ( * ) SI_UNIT ( $, .STERADIAN. ) SOLID_ANGLE_UNIT ( ) );
#365 = DIRECTION ( 'NONE',  ( -1.218744973043033064E-16, 1.000000000000000000, 0.000000000000000000 ) ) ;
#366 = SURFACE_STYLE_FILL_AREA ( #216 ) ;
#367 = CARTESIAN_POINT ( 'NONE',  ( -4.592425496802575451E-17, 0.3750000000000000555, 0.000000000000000000 ) ) ;
#368 = AXIS2_PLACEMENT_3D ( 'NONE', #37, #293, #144 ) ;
#369 = VERTEX_POINT ( 'NONE', #361 ) ;
#370 = DIRECTION ( 'NONE',  ( 0.000000000000000000, -0.000000000000000000, 1.000000000000000000 ) ) ;
#371 = VERTEX_POINT ( 'NONE', #306 ) ;
#372 = EDGE_CURVE ( 'NONE', #283, #190, #148, .T. ) ;
#373 = DIRECTION ( 'NONE',  ( 0.000000000000000000, 0.000000000000000000, 1.000000000000000000 ) ) ;
ENDSEC;
END-ISO-10303-21;
