ISO-10303-21;
HEADER;
FILE_DESCRIPTION (( 'STEP AP214' ),
    '1' );
FILE_NAME ('Micro_MMBM-010-11X.STEP',
    '2021-09-03T16:25:28',
    ( '' ),
    ( '' ),
    'SwSTEP 2.0',
    'SolidWorks 2020',
    '' );
FILE_SCHEMA (( 'AUTOMOTIVE_DESIGN' ));
ENDSEC;

DATA;
#1 = DIRECTION ( 'NONE',  ( -0.0000000000000000000, -0.0000000000000000000, -1.000000000000000000 ) ) ;
#2 = LINE ( 'NONE', #115, #168 ) ;
#3 = DIRECTION ( 'NONE',  ( -0.0000000000000000000, -0.0000000000000000000, -1.000000000000000000 ) ) ;
#4 = EDGE_CURVE ( 'NONE', #95, #270, #142, .T. ) ;
#5 = FACE_OUTER_BOUND ( 'NONE', #189, .T. ) ;
#6 = CIRCLE ( 'NONE', #45, 0.01968303149999999294 ) ;
#7 = AXIS2_PLACEMENT_3D ( 'NONE', #9, #368, #297 ) ;
#8 = DIRECTION ( 'NONE',  ( -0.0000000000000000000, -0.0000000000000000000, -1.000000000000000000 ) ) ;
#9 = CARTESIAN_POINT ( 'NONE',  ( 0.0000000000000000000, 0.0000000000000000000, 2.244094000000000033 ) ) ;
#10 = CARTESIAN_POINT ( 'NONE',  ( -0.1181100000000000066, 0.0000000000000000000, 0.4330709999999999837 ) ) ;
#11 = ORIENTED_EDGE ( 'NONE', *, *, #370, .F. ) ;
#12 = CARTESIAN_POINT ( 'NONE',  ( 0.1031100000000002570, 1.354581824536888722E-17, 2.244094000000000033 ) ) ;
#13 = CIRCLE ( 'NONE', #63, 0.01870100000000005092 ) ;
#14 = ORIENTED_EDGE ( 'NONE', *, *, #362, .F. ) ;
#15 = LINE ( 'NONE', #276, #20 ) ;
#16 = EDGE_LOOP ( 'NONE', ( #283, #342, #98, #278 ) ) ;
#17 = CARTESIAN_POINT ( 'NONE',  ( -0.01870100000000005092, 0.0000000000000000000, 0.4330709999999999837 ) ) ;
#18 = ORIENTED_EDGE ( 'NONE', *, *, #193, .F. ) ;
#19 = VERTEX_POINT ( 'NONE', #260 ) ;
#20 = VECTOR ( 'NONE', #214, 39.37007874015748854 ) ;
#21 = DIRECTION ( 'NONE',  ( -0.0000000000000000000, -0.0000000000000000000, -1.000000000000000000 ) ) ;
#22 =( NAMED_UNIT ( * ) SI_UNIT ( $, .STERADIAN. ) SOLID_ANGLE_UNIT ( ) );
#23 = FILL_AREA_STYLE ('',( #199 ) ) ;
#24 = UNCERTAINTY_MEASURE_WITH_UNIT (LENGTH_MEASURE( 1.000000000000000082E-05 ), #164, 'distance_accuracy_value', 'NONE');
#25 = ORIENTED_EDGE ( 'NONE', *, *, #238, .T. ) ;
#26 = AXIS2_PLACEMENT_3D ( 'NONE', #120, #38, #179 ) ;
#27 =( GEOMETRIC_REPRESENTATION_CONTEXT ( 3 ) GLOBAL_UNCERTAINTY_ASSIGNED_CONTEXT ( ( #24 ) ) GLOBAL_UNIT_ASSIGNED_CONTEXT ( ( #164, #102, #22 ) ) REPRESENTATION_CONTEXT ( 'NONE', 'WORKASPACE' ) );
#28 = ADVANCED_FACE ( 'NONE', ( #225 ), #111, .T. ) ;
#29 = ORIENTED_EDGE ( 'NONE', *, *, #4, .T. ) ;
#30 = ORIENTED_EDGE ( 'NONE', *, *, #331, .F. ) ;
#31 = DIRECTION ( 'NONE',  ( -0.0000000000000000000, -0.0000000000000000000, -1.000000000000000000 ) ) ;
#32 = EDGE_CURVE ( 'NONE', #339, #371, #226, .T. ) ;
#33 = ADVANCED_FACE ( 'NONE', ( #78 ), #84, .T. ) ;
#34 =( CONVERSION_BASED_UNIT ( 'INCH', #291 ) LENGTH_UNIT ( ) NAMED_UNIT ( #61 ) );
#35 = DIRECTION ( 'NONE',  ( -0.0000000000000000000, -0.0000000000000000000, -1.000000000000000000 ) ) ;
#36 = FACE_OUTER_BOUND ( 'NONE', #275, .T. ) ;
#37 = AXIS2_PLACEMENT_3D ( 'NONE', #316, #35, #200 ) ;
#38 = DIRECTION ( 'NONE',  ( -0.0000000000000000000, -0.0000000000000000000, -1.000000000000000000 ) ) ;
#39 = EDGE_CURVE ( 'NONE', #371, #250, #145, .T. ) ;
#40 = DIRECTION ( 'NONE',  ( 1.000000000000000000, 0.0000000000000000000, 0.0000000000000000000 ) ) ;
#41 = ORIENTED_EDGE ( 'NONE', *, *, #261, .T. ) ;
#42 = CARTESIAN_POINT ( 'NONE',  ( 0.0000000000000000000, 0.0000000000000000000, 2.244094000000000033 ) ) ;
#43 = ORIENTED_EDGE ( 'NONE', *, *, #258, .T. ) ;
#44 = DIRECTION ( 'NONE',  ( -0.0000000000000000000, -0.0000000000000000000, -1.000000000000000000 ) ) ;
#45 = AXIS2_PLACEMENT_3D ( 'NONE', #232, #354, #201 ) ;
#46 = EDGE_LOOP ( 'NONE', ( #124, #101, #172, #108 ) ) ;
#47 = LINE ( 'NONE', #154, #208 ) ;
#48 = DIRECTION ( 'NONE',  ( -1.000000000000000000, 0.0000000000000000000, 0.0000000000000000000 ) ) ;
#49 = ORIENTED_EDGE ( 'NONE', *, *, #261, .F. ) ;
#50 = DIRECTION ( 'NONE',  ( -1.000000000000000000, 0.0000000000000000000, 0.0000000000000000000 ) ) ;
#51 = EDGE_CURVE ( 'NONE', #244, #339, #216, .T. ) ;
#52 = AXIS2_PLACEMENT_3D ( 'NONE', #141, #259, #221 ) ;
#53 = EDGE_CURVE ( 'NONE', #270, #192, #79, .T. ) ;
#54 = ORIENTED_EDGE ( 'NONE', *, *, #227, .T. ) ;
#55 = ORIENTED_EDGE ( 'NONE', *, *, #118, .F. ) ;
#56 = EDGE_LOOP ( 'NONE', ( #299, #222, #215, #82 ) ) ;
#57 = EDGE_CURVE ( 'NONE', #19, #169, #150, .T. ) ;
#58 = VECTOR ( 'NONE', #68, 39.37007874015748143 ) ;
#59 = AXIS2_PLACEMENT_3D ( 'NONE', #137, #348, #369 ) ;
#60 = CARTESIAN_POINT ( 'NONE',  ( 0.0000000000000000000, 0.0000000000000000000, 2.244094000000000033 ) ) ;
#61 = DIMENSIONAL_EXPONENTS ( 1.000000000000000000, 0.0000000000000000000, 0.0000000000000000000, 0.0000000000000000000, 0.0000000000000000000, 0.0000000000000000000, 0.0000000000000000000 ) ;
#62 = LINE ( 'NONE', #202, #310 ) ;
#63 = AXIS2_PLACEMENT_3D ( 'NONE', #355, #8, #319 ) ;
#64 = CARTESIAN_POINT ( 'NONE',  ( 0.0000000000000000000, 0.0000000000000000000, 2.244094000000000033 ) ) ;
#65 = MANIFOLD_SOLID_BREP ( 'Cut-Revolve1', #129 ) ;
#66 = CARTESIAN_POINT ( 'NONE',  ( 0.01870100000000005092, 0.0000000000000000000, 0.4330709999999999837 ) ) ;
#67 = AXIS2_PLACEMENT_3D ( 'NONE', #99, #341, #328 ) ;
#68 = DIRECTION ( 'NONE',  ( -0.0000000000000000000, -0.0000000000000000000, -1.000000000000000000 ) ) ;
#69 = FACE_OUTER_BOUND ( 'NONE', #56, .T. ) ;
#70 = ORIENTED_EDGE ( 'NONE', *, *, #362, .T. ) ;
#71 = CARTESIAN_POINT ( 'NONE',  ( 0.0000000000000000000, 0.0000000000000000000, 0.0000000000000000000 ) ) ;
#72 = EDGE_LOOP ( 'NONE', ( #251, #210, #191, #361 ) ) ;
#73 = CARTESIAN_POINT ( 'NONE',  ( 0.0000000000000000000, 0.0000000000000000000, 2.244094000000000033 ) ) ;
#74 = AXIS2_PLACEMENT_3D ( 'NONE', #196, #21, #50 ) ;
#75 = STYLED_ITEM ( 'NONE', ( #132 ), #257 ) ;
#76 = VERTEX_POINT ( 'NONE', #90 ) ;
#77 = CARTESIAN_POINT ( 'NONE',  ( 0.0000000000000000000, 0.0000000000000000000, 0.03937000000000000222 ) ) ;
#78 = FACE_OUTER_BOUND ( 'NONE', #330, .T. ) ;
#79 = LINE ( 'NONE', #105, #207 ) ;
#80 = CIRCLE ( 'NONE', #67, 0.01870100000000000581 ) ;
#81 = LENGTH_MEASURE_WITH_UNIT ( LENGTH_MEASURE( 0.02539999999999999897 ), #313 );
#82 = ORIENTED_EDGE ( 'NONE', *, *, #171, .F. ) ;
#83 = ADVANCED_FACE ( 'NONE', ( #326 ), #186, .T. ) ;
#84 = CYLINDRICAL_SURFACE ( 'NONE', #274, 0.1181100000000000066 ) ;
#85 = EDGE_LOOP ( 'NONE', ( #55, #246, #43, #30 ) ) ;
#86 = CIRCLE ( 'NONE', #249, 0.01870100000000005092 ) ;
#87 = DIRECTION ( 'NONE',  ( -1.000000000000000000, 0.0000000000000000000, 0.0000000000000000000 ) ) ;
#88 =( NAMED_UNIT ( * ) SI_UNIT ( $, .STERADIAN. ) SOLID_ANGLE_UNIT ( ) );
#89 = CYLINDRICAL_SURFACE ( 'NONE', #107, 0.1181100000000000066 ) ;
#90 = CARTESIAN_POINT ( 'NONE',  ( -0.01968303149999999294, 0.0000000000000000000, 0.03937000000000000222 ) ) ;
#91 = APPLICATION_CONTEXT ( 'automotive_design' ) ;
#92 = FACE_OUTER_BOUND ( 'NONE', #135, .T. ) ;
#93 = CARTESIAN_POINT ( 'NONE',  ( 0.0000000000000000000, 0.0000000000000000000, 0.0000000000000000000 ) ) ;
#94 = CARTESIAN_POINT ( 'NONE',  ( 0.0000000000000000000, 0.0000000000000000000, 2.244094000000000033 ) ) ;
#95 = VERTEX_POINT ( 'NONE', #325 ) ;
#96 = CARTESIAN_POINT ( 'NONE',  ( -0.01870100000000000581, 0.0000000000000000000, 0.04493937739224183880 ) ) ;
#97 = DIRECTION ( 'NONE',  ( 0.0000000000000000000, 0.0000000000000000000, -1.000000000000000000 ) ) ;
#98 = ORIENTED_EDGE ( 'NONE', *, *, #193, .T. ) ;
#99 = CARTESIAN_POINT ( 'NONE',  ( 0.0000000000000000000, 0.0000000000000000000, 0.04493937739224183880 ) ) ;
#100 = AXIS2_PLACEMENT_3D ( 'NONE', #285, #198, #282 ) ;
#101 = ORIENTED_EDGE ( 'NONE', *, *, #51, .F. ) ;
#102 =( NAMED_UNIT ( * ) PLANE_ANGLE_UNIT ( ) SI_UNIT ( $, .RADIAN. ) );
#103 = SURFACE_STYLE_USAGE ( .BOTH. , #138 ) ;
#104 = ADVANCED_FACE ( 'NONE', ( #5 ), #293, .T. ) ;
#105 = CARTESIAN_POINT ( 'NONE',  ( 0.01968303149999999294, 2.410476152399151743E-18, 0.03937000000000000222 ) ) ;
#106 = PRODUCT_CONTEXT ( 'NONE', #286, 'mechanical' ) ;
#107 = AXIS2_PLACEMENT_3D ( 'NONE', #64, #173, #321 ) ;
#108 = ORIENTED_EDGE ( 'NONE', *, *, #39, .F. ) ;
#109 = ADVANCED_FACE ( 'NONE', ( #234, #292 ), #147, .T. ) ;
#110 =( LENGTH_UNIT ( ) NAMED_UNIT ( * ) SI_UNIT ( $, .METRE. ) );
#111 = CYLINDRICAL_SURFACE ( 'NONE', #74, 0.01870100000000002663 ) ;
#112 = SURFACE_STYLE_USAGE ( .BOTH. , #318 ) ;
#113 = CARTESIAN_POINT ( 'NONE',  ( 0.0000000000000000000, 0.0000000000000000000, 0.0000000000000000000 ) ) ;
#114 = CARTESIAN_POINT ( 'NONE',  ( 0.01968303149999999294, 2.410476152399151743E-18, 0.03937000000000000222 ) ) ;
#115 = CARTESIAN_POINT ( 'NONE',  ( -0.1181100000000000066, 0.0000000000000000000, 2.244094000000000033 ) ) ;
#116 = CARTESIAN_POINT ( 'NONE',  ( 0.0000000000000000000, 0.0000000000000000000, 0.0000000000000000000 ) ) ;
#117 = AXIS2_PLACEMENT_3D ( 'NONE', #66, #144, #233 ) ;
#118 = EDGE_CURVE ( 'NONE', #192, #169, #62, .T. ) ;
#119 = AXIS2_PLACEMENT_3D ( 'NONE', #93, #130, #48 ) ;
#120 = CARTESIAN_POINT ( 'NONE',  ( 0.0000000000000000000, 0.0000000000000000000, 0.03937000000000000222 ) ) ;
#121 = EDGE_CURVE ( 'NONE', #256, #95, #13, .T. ) ;
#122 = DIRECTION ( 'NONE',  ( -1.000000000000000000, 0.0000000000000000000, 0.0000000000000000000 ) ) ;
#123 = FACE_OUTER_BOUND ( 'NONE', #46, .T. ) ;
#124 = ORIENTED_EDGE ( 'NONE', *, *, #32, .F. ) ;
#125 = AXIS2_PLACEMENT_3D ( 'NONE', #113, #343, #314 ) ;
#126 = DIRECTION ( 'NONE',  ( -1.000000000000000000, 0.0000000000000000000, 0.0000000000000000000 ) ) ;
#127 = ORIENTED_EDGE ( 'NONE', *, *, #331, .T. ) ;
#128 = CARTESIAN_POINT ( 'NONE',  ( -0.1181100000000000066, 0.0000000000000000000, 2.229093999999999465 ) ) ;
#129 = CLOSED_SHELL ( 'NONE', ( #104, #280, #83, #320, #33, #136, #272, #353, #109, #131, #28, #334, #149 ) ) ;
#130 = DIRECTION ( 'NONE',  ( -0.0000000000000000000, -0.0000000000000000000, -1.000000000000000000 ) ) ;
#131 = ADVANCED_FACE ( 'NONE', ( #92 ), #351, .T. ) ;
#132 = PRESENTATION_STYLE_ASSIGNMENT (( #112 ) ) ;
#133 = AXIS2_PLACEMENT_3D ( 'NONE', #94, #357, #245 ) ;
#134 = ORIENTED_EDGE ( 'NONE', *, *, #227, .F. ) ;
#135 = EDGE_LOOP ( 'NONE', ( #185, #70, #25, #333 ) ) ;
#136 = ADVANCED_FACE ( 'NONE', ( #327 ), #89, .T. ) ;
#137 = CARTESIAN_POINT ( 'NONE',  ( 0.0000000000000000000, 0.0000000000000000000, 0.0000000000000000000 ) ) ;
#138 = SURFACE_SIDE_STYLE ('',( #228 ) ) ;
#139 = ORIENTED_EDGE ( 'NONE', *, *, #121, .T. ) ;
#140 = AXIS2_PLACEMENT_3D ( 'NONE', #73, #97, #298 ) ;
#141 = CARTESIAN_POINT ( 'NONE',  ( 0.0000000000000000000, 0.0000000000000000000, 2.229093999999999465 ) ) ;
#142 = LINE ( 'NONE', #165, #288 ) ;
#143 = CARTESIAN_POINT ( 'NONE',  ( 0.1031100000000002570, 1.262733314600838667E-17, 2.244094000000000033 ) ) ;
#144 = DIRECTION ( 'NONE',  ( -0.0000000000000000000, 0.0000000000000000000, -1.000000000000000000 ) ) ;
#145 = CIRCLE ( 'NONE', #266, 0.1181100000000000066 ) ;
#146 = CONICAL_SURFACE ( 'NONE', #7, 0.1031100000000002570, 0.7853981633974318477 ) ;
#147 = PLANE ( 'NONE',  #117 ) ;
#148 = CARTESIAN_POINT ( 'NONE',  ( 0.01968303149999999294, 2.410476152399151743E-18, 0.0000000000000000000 ) ) ;
#149 = ADVANCED_FACE ( 'NONE', ( #36 ), #151, .F. ) ;
#150 = CIRCLE ( 'NONE', #125, 0.01968303149999999294 ) ;
#151 = PLANE ( 'NONE',  #323 ) ;
#152 = CARTESIAN_POINT ( 'NONE',  ( 0.0000000000000000000, 0.0000000000000000000, 0.04493937739224183880 ) ) ;
#153 = EDGE_LOOP ( 'NONE', ( #374, #41, #240, #14 ) ) ;
#154 = CARTESIAN_POINT ( 'NONE',  ( -0.01870100000000002663, 0.0000000000000000000, 0.0000000000000000000 ) ) ;
#155 = ORIENTED_EDGE ( 'NONE', *, *, #177, .T. ) ;
#156 = VECTOR ( 'NONE', #356, 39.37007874015748854 ) ;
#157 = FACE_OUTER_BOUND ( 'NONE', #376, .T. ) ;
#158 = DIRECTION ( 'NONE',  ( -1.000000000000000000, 0.0000000000000000000, 0.0000000000000000000 ) ) ;
#159 = ORIENTED_EDGE ( 'NONE', *, *, #57, .F. ) ;
#160 = LENGTH_MEASURE_WITH_UNIT ( LENGTH_MEASURE( 0.02539999999999999897 ), #110 );
#161 = FILL_AREA_STYLE_COLOUR ( '', #242 ) ;
#162 = VECTOR ( 'NONE', #302, 39.37007874015748143 ) ;
#163 = DIRECTION ( 'NONE',  ( -0.0000000000000000000, -0.0000000000000000000, -1.000000000000000000 ) ) ;
#164 =( CONVERSION_BASED_UNIT ( 'INCH', #160 ) LENGTH_UNIT ( ) NAMED_UNIT ( #203 ) );
#165 = CARTESIAN_POINT ( 'NONE',  ( 0.01870100000000002663, 2.290211979085468414E-18, 0.0000000000000000000 ) ) ;
#166 = UNCERTAINTY_MEASURE_WITH_UNIT (LENGTH_MEASURE( 1.000000000000000082E-05 ), #34, 'distance_accuracy_value', 'NONE');
#167 = ORIENTED_EDGE ( 'NONE', *, *, #367, .T. ) ;
#168 = VECTOR ( 'NONE', #230, 39.37007874015748143 ) ;
#169 = VERTEX_POINT ( 'NONE', #148 ) ;
#170 = AXIS2_PLACEMENT_3D ( 'NONE', #182, #44, #205 ) ;
#171 = EDGE_CURVE ( 'NONE', #244, #250, #264, .T. ) ;
#172 = ORIENTED_EDGE ( 'NONE', *, *, #171, .T. ) ;
#173 = DIRECTION ( 'NONE',  ( -0.0000000000000000000, -0.0000000000000000000, -1.000000000000000000 ) ) ;
#174 = CARTESIAN_POINT ( 'NONE',  ( 0.0000000000000000000, 0.0000000000000000000, 0.4330709999999999837 ) ) ;
#175 = AXIS2_PLACEMENT_3D ( 'NONE', #116, #31, #294 ) ;
#176 = MECHANICAL_DESIGN_GEOMETRIC_PRESENTATION_REPRESENTATION (  '', ( #75 ), #27 ) ;
#177 = EDGE_CURVE ( 'NONE', #336, #345, #375, .T. ) ;
#178 = CARTESIAN_POINT ( 'NONE',  ( 0.0000000000000000000, 0.0000000000000000000, 0.0000000000000000000 ) ) ;
#179 = DIRECTION ( 'NONE',  ( -1.000000000000000000, 0.0000000000000000000, 0.0000000000000000000 ) ) ;
#180 = DIRECTION ( 'NONE',  ( -1.000000000000000000, 0.0000000000000000000, 0.0000000000000000000 ) ) ;
#181 = PRODUCT_RELATED_PRODUCT_CATEGORY ( 'part', '', ( #337 ) ) ;
#182 = CARTESIAN_POINT ( 'NONE',  ( 0.0000000000000000000, 0.0000000000000000000, 0.0000000000000000000 ) ) ;
#183 = ORIENTED_EDGE ( 'NONE', *, *, #307, .F. ) ;
#184 = CARTESIAN_POINT ( 'NONE',  ( -0.1031100000000002570, 0.0000000000000000000, 2.244094000000000033 ) ) ;
#185 = ORIENTED_EDGE ( 'NONE', *, *, #53, .F. ) ;
#186 = CONICAL_SURFACE ( 'NONE', #37, 0.01968303149999999294, 0.1745329251994327535 ) ;
#187 = CONICAL_SURFACE ( 'NONE', #140, 0.1031100000000002570, 0.7853981633974318477 ) ;
#188 = DIRECTION ( 'NONE',  ( -0.0000000000000000000, -0.0000000000000000000, -1.000000000000000000 ) ) ;
#189 = EDGE_LOOP ( 'NONE', ( #206, #303, #159, #366 ) ) ;
#190 = LINE ( 'NONE', #211, #58 ) ;
#191 = ORIENTED_EDGE ( 'NONE', *, *, #213, .F. ) ;
#192 = VERTEX_POINT ( 'NONE', #114 ) ;
#193 = EDGE_CURVE ( 'NONE', #250, #345, #2, .T. ) ;
#194 = CIRCLE ( 'NONE', #119, 0.01968303149999999294 ) ;
#195 = DIRECTION ( 'NONE',  ( 0.1736481776669301647, 2.126576849575769450E-17, -0.9848077530122080203 ) ) ;
#196 = CARTESIAN_POINT ( 'NONE',  ( 0.0000000000000000000, 0.0000000000000000000, 0.0000000000000000000 ) ) ;
#197 =( NAMED_UNIT ( * ) SI_UNIT ( $, .STERADIAN. ) SOLID_ANGLE_UNIT ( ) );
#198 = DIRECTION ( 'NONE',  ( 0.0000000000000000000, 0.0000000000000000000, 1.000000000000000000 ) ) ;
#199 = FILL_AREA_STYLE_COLOUR ( '', #311 ) ;
#200 = DIRECTION ( 'NONE',  ( -1.000000000000000000, 0.0000000000000000000, 0.0000000000000000000 ) ) ;
#201 = DIRECTION ( 'NONE',  ( -1.000000000000000000, 0.0000000000000000000, 0.0000000000000000000 ) ) ;
#202 = CARTESIAN_POINT ( 'NONE',  ( 0.01968303149999999294, 2.410476152399151743E-18, 0.0000000000000000000 ) ) ;
#203 = DIMENSIONAL_EXPONENTS ( 1.000000000000000000, 0.0000000000000000000, 0.0000000000000000000, 0.0000000000000000000, 0.0000000000000000000, 0.0000000000000000000, 0.0000000000000000000 ) ;
#204 = CARTESIAN_POINT ( 'NONE',  ( -0.1031100000000002570, 0.0000000000000000000, 2.244094000000000033 ) ) ;
#205 = DIRECTION ( 'NONE',  ( -1.000000000000000000, 0.0000000000000000000, 0.0000000000000000000 ) ) ;
#206 = ORIENTED_EDGE ( 'NONE', *, *, #213, .T. ) ;
#207 = VECTOR ( 'NONE', #195, 39.37007874015748854 ) ;
#208 = VECTOR ( 'NONE', #271, 39.37007874015748143 ) ;
#209 = DIRECTION ( 'NONE',  ( -1.000000000000000000, 0.0000000000000000000, 0.0000000000000000000 ) ) ;
#210 = ORIENTED_EDGE ( 'NONE', *, *, #53, .T. ) ;
#211 = CARTESIAN_POINT ( 'NONE',  ( 0.1181100000000000066, 1.446430334472939084E-17, 2.244094000000000033 ) ) ;
#212 = EDGE_LOOP ( 'NONE', ( #273, #49 ) ) ;
#213 = EDGE_CURVE ( 'NONE', #76, #192, #6, .T. ) ;
#214 = DIRECTION ( 'NONE',  ( -0.1736481776669301647, 0.0000000000000000000, -0.9848077530122080203 ) ) ;
#215 = ORIENTED_EDGE ( 'NONE', *, *, #379, .F. ) ;
#216 = CIRCLE ( 'NONE', #100, 0.1031100000000002570 ) ;
#217 = CIRCLE ( 'NONE', #284, 0.1031100000000002570 ) ;
#218 = CARTESIAN_POINT ( 'NONE',  ( 0.1181100000000000066, 1.446430334472939084E-17, 0.4330709999999999837 ) ) ;
#219 = CARTESIAN_POINT ( 'NONE',  ( 0.1181100000000000066, 1.446430334472939084E-17, 2.229093999999999465 ) ) ;
#220 =( LENGTH_UNIT ( ) NAMED_UNIT ( * ) SI_UNIT ( $, .METRE. ) );
#221 = DIRECTION ( 'NONE',  ( 1.000000000000000000, 0.0000000000000000000, 0.0000000000000000000 ) ) ;
#222 = ORIENTED_EDGE ( 'NONE', *, *, #32, .T. ) ;
#223 = VECTOR ( 'NONE', #349, 39.37007874015748854 ) ;
#224 = APPLICATION_PROTOCOL_DEFINITION ( 'draft international standard', 'automotive_design', 1998, #91 ) ;
#225 = FACE_OUTER_BOUND ( 'NONE', #153, .T. ) ;
#226 = LINE ( 'NONE', #143, #223 ) ;
#227 = EDGE_CURVE ( 'NONE', #345, #336, #300, .T. ) ;
#228 = SURFACE_STYLE_FILL_AREA ( #23 ) ;
#229 = CIRCLE ( 'NONE', #340, 0.01968303149999999294 ) ;
#230 = DIRECTION ( 'NONE',  ( -0.0000000000000000000, -0.0000000000000000000, -1.000000000000000000 ) ) ;
#231 = EDGE_CURVE ( 'NONE', #371, #336, #190, .T. ) ;
#232 = CARTESIAN_POINT ( 'NONE',  ( 0.0000000000000000000, 0.0000000000000000000, 0.03937000000000000222 ) ) ;
#233 = DIRECTION ( 'NONE',  ( -1.000000000000000000, 0.0000000000000000000, 0.0000000000000000000 ) ) ;
#234 = FACE_BOUND ( 'NONE', #212, .T. ) ;
#235 = DIRECTION ( 'NONE',  ( 0.0000000000000000000, 0.0000000000000000000, 1.000000000000000000 ) ) ;
#236 = PRODUCT_DEFINITION ( 'UNKNOWN', '', #267, #262 ) ;
#237 = CARTESIAN_POINT ( 'NONE',  ( 0.0000000000000000000, 0.0000000000000000000, 0.4330709999999999837 ) ) ;
#238 = EDGE_CURVE ( 'NONE', #309, #76, #15, .T. ) ;
#239 = DIRECTION ( 'NONE',  ( -0.0000000000000000000, -0.0000000000000000000, -1.000000000000000000 ) ) ;
#240 = ORIENTED_EDGE ( 'NONE', *, *, #307, .T. ) ;
#241 = STYLED_ITEM ( 'NONE', ( #254 ), #65 ) ;
#242 = COLOUR_RGB ( '',0.7921568627450980005, 0.8196078431372548767, 0.9333333333333333481 ) ;
#243 = DIRECTION ( 'NONE',  ( -0.0000000000000000000, -0.0000000000000000000, -1.000000000000000000 ) ) ;
#244 = VERTEX_POINT ( 'NONE', #184 ) ;
#245 = DIRECTION ( 'NONE',  ( 1.000000000000000000, 0.0000000000000000000, -0.0000000000000000000 ) ) ;
#246 = ORIENTED_EDGE ( 'NONE', *, *, #252, .T. ) ;
#247 = FACE_OUTER_BOUND ( 'NONE', #85, .T. ) ;
#248 = PRESENTATION_LAYER_ASSIGNMENT (  '', '', ( #241 ) ) ;
#249 = AXIS2_PLACEMENT_3D ( 'NONE', #237, #332, #158 ) ;
#250 = VERTEX_POINT ( 'NONE', #128 ) ;
#251 = ORIENTED_EDGE ( 'NONE', *, *, #370, .T. ) ;
#252 = EDGE_CURVE ( 'NONE', #192, #76, #229, .T. ) ;
#253 = APPLICATION_PROTOCOL_DEFINITION ( 'draft international standard', 'automotive_design', 1998, #286 ) ;
#254 = PRESENTATION_STYLE_ASSIGNMENT (( #103 ) ) ;
#255 = SHAPE_DEFINITION_REPRESENTATION ( #304, #257 ) ;
#256 = VERTEX_POINT ( 'NONE', #17 ) ;
#257 = ADVANCED_BREP_SHAPE_REPRESENTATION ( 'Micro_MMBM-010-11X', ( #65, #59 ), #312 ) ;
#258 = EDGE_CURVE ( 'NONE', #76, #19, #338, .T. ) ;
#259 = DIRECTION ( 'NONE',  ( 0.0000000000000000000, 0.0000000000000000000, -1.000000000000000000 ) ) ;
#260 = CARTESIAN_POINT ( 'NONE',  ( -0.01968303149999999294, 0.0000000000000000000, 0.0000000000000000000 ) ) ;
#261 = EDGE_CURVE ( 'NONE', #95, #256, #86, .T. ) ;
#262 = PRODUCT_DEFINITION_CONTEXT ( 'detailed design', #91, 'design' ) ;
#263 = DIRECTION ( 'NONE',  ( -1.000000000000000000, 0.0000000000000000000, 0.0000000000000000000 ) ) ;
#264 = LINE ( 'NONE', #204, #156 ) ;
#265 =( NAMED_UNIT ( * ) PLANE_ANGLE_UNIT ( ) SI_UNIT ( $, .RADIAN. ) );
#266 = AXIS2_PLACEMENT_3D ( 'NONE', #378, #350, #281 ) ;
#267 = PRODUCT_DEFINITION_FORMATION_WITH_SPECIFIED_SOURCE ( 'ANY', '', #337, .NOT_KNOWN. ) ;
#268 = CYLINDRICAL_SURFACE ( 'NONE', #170, 0.01968303149999999294 ) ;
#269 = CARTESIAN_POINT ( 'NONE',  ( 0.01870100000000000581, 2.350344065742308730E-18, 0.04493937739224183880 ) ) ;
#270 = VERTEX_POINT ( 'NONE', #269 ) ;
#271 = DIRECTION ( 'NONE',  ( -0.0000000000000000000, -0.0000000000000000000, -1.000000000000000000 ) ) ;
#272 = ADVANCED_FACE ( 'NONE', ( #157 ), #305, .T. ) ;
#273 = ORIENTED_EDGE ( 'NONE', *, *, #121, .F. ) ;
#274 = AXIS2_PLACEMENT_3D ( 'NONE', #60, #163, #263 ) ;
#275 = EDGE_LOOP ( 'NONE', ( #296, #127 ) ) ;
#276 = CARTESIAN_POINT ( 'NONE',  ( -0.01968303149999999294, 0.0000000000000000000, 0.03937000000000000222 ) ) ;
#277 = EDGE_LOOP ( 'NONE', ( #54, #155 ) ) ;
#278 = ORIENTED_EDGE ( 'NONE', *, *, #177, .F. ) ;
#279 = AXIS2_PLACEMENT_3D ( 'NONE', #174, #243, #180 ) ;
#280 = ADVANCED_FACE ( 'NONE', ( #363 ), #335, .T. ) ;
#281 = DIRECTION ( 'NONE',  ( 1.000000000000000000, 0.0000000000000000000, 0.0000000000000000000 ) ) ;
#282 = DIRECTION ( 'NONE',  ( 1.000000000000000000, 0.0000000000000000000, 0.0000000000000000000 ) ) ;
#283 = ORIENTED_EDGE ( 'NONE', *, *, #231, .F. ) ;
#284 = AXIS2_PLACEMENT_3D ( 'NONE', #42, #295, #40 ) ;
#285 = CARTESIAN_POINT ( 'NONE',  ( 0.0000000000000000000, 0.0000000000000000000, 2.244094000000000033 ) ) ;
#286 = APPLICATION_CONTEXT ( 'automotive_design' ) ;
#287 = ORIENTED_EDGE ( 'NONE', *, *, #379, .T. ) ;
#288 = VECTOR ( 'NONE', #373, 39.37007874015748143 ) ;
#289 = DIRECTION ( 'NONE',  ( 1.000000000000000000, 0.0000000000000000000, -0.0000000000000000000 ) ) ;
#290 = CIRCLE ( 'NONE', #301, 0.01870100000000000581 ) ;
#291 = LENGTH_MEASURE_WITH_UNIT ( LENGTH_MEASURE( 0.02539999999999999897 ), #220 );
#292 = FACE_OUTER_BOUND ( 'NONE', #277, .T. ) ;
#293 = CYLINDRICAL_SURFACE ( 'NONE', #175, 0.01968303149999999294 ) ;
#294 = DIRECTION ( 'NONE',  ( -1.000000000000000000, 0.0000000000000000000, 0.0000000000000000000 ) ) ;
#295 = DIRECTION ( 'NONE',  ( 0.0000000000000000000, 0.0000000000000000000, 1.000000000000000000 ) ) ;
#296 = ORIENTED_EDGE ( 'NONE', *, *, #57, .T. ) ;
#297 = DIRECTION ( 'NONE',  ( -1.000000000000000000, 0.0000000000000000000, 0.0000000000000000000 ) ) ;
#298 = DIRECTION ( 'NONE',  ( -1.000000000000000000, 0.0000000000000000000, 0.0000000000000000000 ) ) ;
#299 = ORIENTED_EDGE ( 'NONE', *, *, #367, .F. ) ;
#300 = CIRCLE ( 'NONE', #279, 0.1181100000000000066 ) ;
#301 = AXIS2_PLACEMENT_3D ( 'NONE', #152, #239, #126 ) ;
#302 = DIRECTION ( 'NONE',  ( -0.0000000000000000000, -0.0000000000000000000, -1.000000000000000000 ) ) ;
#303 = ORIENTED_EDGE ( 'NONE', *, *, #118, .T. ) ;
#304 = PRODUCT_DEFINITION_SHAPE ( 'NONE', 'NONE',  #236 ) ;
#305 = PLANE ( 'NONE',  #133 ) ;
#306 = ORIENTED_EDGE ( 'NONE', *, *, #231, .T. ) ;
#307 = EDGE_CURVE ( 'NONE', #256, #309, #47, .T. ) ;
#308 =( CONVERSION_BASED_UNIT ( 'INCH', #81 ) LENGTH_UNIT ( ) NAMED_UNIT ( #322 ) );
#309 = VERTEX_POINT ( 'NONE', #96 ) ;
#310 = VECTOR ( 'NONE', #3, 39.37007874015748143 ) ;
#311 = COLOUR_RGB ( '',0.7921568627450980005, 0.8196078431372548767, 0.9333333333333333481 ) ;
#312 =( GEOMETRIC_REPRESENTATION_CONTEXT ( 3 ) GLOBAL_UNCERTAINTY_ASSIGNED_CONTEXT ( ( #317 ) ) GLOBAL_UNIT_ASSIGNED_CONTEXT ( ( #308, #344, #197 ) ) REPRESENTATION_CONTEXT ( 'NONE', 'WORKASPACE' ) );
#313 =( LENGTH_UNIT ( ) NAMED_UNIT ( * ) SI_UNIT ( $, .METRE. ) );
#314 = DIRECTION ( 'NONE',  ( -1.000000000000000000, 0.0000000000000000000, 0.0000000000000000000 ) ) ;
#315 = ORIENTED_EDGE ( 'NONE', *, *, #51, .T. ) ;
#316 = CARTESIAN_POINT ( 'NONE',  ( 0.0000000000000000000, 0.0000000000000000000, 0.03937000000000000222 ) ) ;
#317 = UNCERTAINTY_MEASURE_WITH_UNIT (LENGTH_MEASURE( 1.000000000000000082E-05 ), #308, 'distance_accuracy_value', 'NONE');
#318 = SURFACE_SIDE_STYLE ('',( #372 ) ) ;
#319 = DIRECTION ( 'NONE',  ( -1.000000000000000000, 0.0000000000000000000, 0.0000000000000000000 ) ) ;
#320 = ADVANCED_FACE ( 'NONE', ( #69 ), #187, .T. ) ;
#321 = DIRECTION ( 'NONE',  ( -1.000000000000000000, 0.0000000000000000000, 0.0000000000000000000 ) ) ;
#322 = DIMENSIONAL_EXPONENTS ( 1.000000000000000000, 0.0000000000000000000, 0.0000000000000000000, 0.0000000000000000000, 0.0000000000000000000, 0.0000000000000000000, 0.0000000000000000000 ) ;
#323 = AXIS2_PLACEMENT_3D ( 'NONE', #178, #235, #289 ) ;
#324 = CIRCLE ( 'NONE', #52, 0.1181100000000000066 ) ;
#325 = CARTESIAN_POINT ( 'NONE',  ( 0.01870100000000005439, 2.290211979085471495E-18, 0.4330709999999999837 ) ) ;
#326 = FACE_OUTER_BOUND ( 'NONE', #72, .T. ) ;
#327 = FACE_OUTER_BOUND ( 'NONE', #16, .T. ) ;
#328 = DIRECTION ( 'NONE',  ( -1.000000000000000000, 0.0000000000000000000, 0.0000000000000000000 ) ) ;
#329 = AXIS2_PLACEMENT_3D ( 'NONE', #352, #1, #87 ) ;
#330 = EDGE_LOOP ( 'NONE', ( #287, #306, #134, #18 ) ) ;
#331 = EDGE_CURVE ( 'NONE', #169, #19, #194, .T. ) ;
#332 = DIRECTION ( 'NONE',  ( -0.0000000000000000000, -0.0000000000000000000, -1.000000000000000000 ) ) ;
#333 = ORIENTED_EDGE ( 'NONE', *, *, #252, .F. ) ;
#334 = ADVANCED_FACE ( 'NONE', ( #247 ), #268, .T. ) ;
#335 = CYLINDRICAL_SURFACE ( 'NONE', #360, 0.01870100000000002663 ) ;
#336 = VERTEX_POINT ( 'NONE', #218 ) ;
#337 = PRODUCT ( 'Micro_MMBM-010-11X', 'Micro_MMBM-010-11X', '', ( #106 ) ) ;
#338 = LINE ( 'NONE', #365, #162 ) ;
#339 = VERTEX_POINT ( 'NONE', #12 ) ;
#340 = AXIS2_PLACEMENT_3D ( 'NONE', #77, #358, #122 ) ;
#341 = DIRECTION ( 'NONE',  ( -0.0000000000000000000, -0.0000000000000000000, -1.000000000000000000 ) ) ;
#342 = ORIENTED_EDGE ( 'NONE', *, *, #39, .T. ) ;
#343 = DIRECTION ( 'NONE',  ( -0.0000000000000000000, -0.0000000000000000000, -1.000000000000000000 ) ) ;
#344 =( NAMED_UNIT ( * ) PLANE_ANGLE_UNIT ( ) SI_UNIT ( $, .RADIAN. ) );
#345 = VERTEX_POINT ( 'NONE', #10 ) ;
#346 =( GEOMETRIC_REPRESENTATION_CONTEXT ( 3 ) GLOBAL_UNCERTAINTY_ASSIGNED_CONTEXT ( ( #166 ) ) GLOBAL_UNIT_ASSIGNED_CONTEXT ( ( #34, #265, #88 ) ) REPRESENTATION_CONTEXT ( 'NONE', 'WORKASPACE' ) );
#347 = PRESENTATION_LAYER_ASSIGNMENT (  '', '', ( #75 ) ) ;
#348 = DIRECTION ( 'NONE',  ( 0.0000000000000000000, 0.0000000000000000000, 1.000000000000000000 ) ) ;
#349 = DIRECTION ( 'NONE',  ( 0.7071067811865358044, 8.659560562354788645E-17, -0.7071067811865590080 ) ) ;
#350 = DIRECTION ( 'NONE',  ( 0.0000000000000000000, 0.0000000000000000000, -1.000000000000000000 ) ) ;
#351 = CONICAL_SURFACE ( 'NONE', #26, 0.01968303149999999294, 0.1745329251994327535 ) ;
#352 = CARTESIAN_POINT ( 'NONE',  ( 0.0000000000000000000, 0.0000000000000000000, 0.4330709999999999837 ) ) ;
#353 = ADVANCED_FACE ( 'NONE', ( #123 ), #146, .T. ) ;
#354 = DIRECTION ( 'NONE',  ( -0.0000000000000000000, -0.0000000000000000000, -1.000000000000000000 ) ) ;
#355 = CARTESIAN_POINT ( 'NONE',  ( 0.0000000000000000000, 0.0000000000000000000, 0.4330709999999999837 ) ) ;
#356 = DIRECTION ( 'NONE',  ( -0.7071067811865358044, 0.0000000000000000000, -0.7071067811865590080 ) ) ;
#357 = DIRECTION ( 'NONE',  ( 0.0000000000000000000, 0.0000000000000000000, 1.000000000000000000 ) ) ;
#358 = DIRECTION ( 'NONE',  ( -0.0000000000000000000, -0.0000000000000000000, -1.000000000000000000 ) ) ;
#359 = MECHANICAL_DESIGN_GEOMETRIC_PRESENTATION_REPRESENTATION (  '', ( #241 ), #346 ) ;
#360 = AXIS2_PLACEMENT_3D ( 'NONE', #71, #188, #209 ) ;
#361 = ORIENTED_EDGE ( 'NONE', *, *, #238, .F. ) ;
#362 = EDGE_CURVE ( 'NONE', #270, #309, #80, .T. ) ;
#363 = FACE_OUTER_BOUND ( 'NONE', #364, .T. ) ;
#364 = EDGE_LOOP ( 'NONE', ( #139, #29, #11, #183 ) ) ;
#365 = CARTESIAN_POINT ( 'NONE',  ( -0.01968303149999999294, 0.0000000000000000000, 0.0000000000000000000 ) ) ;
#366 = ORIENTED_EDGE ( 'NONE', *, *, #258, .F. ) ;
#367 = EDGE_CURVE ( 'NONE', #339, #244, #217, .T. ) ;
#368 = DIRECTION ( 'NONE',  ( 0.0000000000000000000, 0.0000000000000000000, -1.000000000000000000 ) ) ;
#369 = DIRECTION ( 'NONE',  ( 1.000000000000000000, 0.0000000000000000000, 0.0000000000000000000 ) ) ;
#370 = EDGE_CURVE ( 'NONE', #309, #270, #290, .T. ) ;
#371 = VERTEX_POINT ( 'NONE', #219 ) ;
#372 = SURFACE_STYLE_FILL_AREA ( #377 ) ;
#373 = DIRECTION ( 'NONE',  ( -0.0000000000000000000, -0.0000000000000000000, -1.000000000000000000 ) ) ;
#374 = ORIENTED_EDGE ( 'NONE', *, *, #4, .F. ) ;
#375 = CIRCLE ( 'NONE', #329, 0.1181100000000000066 ) ;
#376 = EDGE_LOOP ( 'NONE', ( #315, #167 ) ) ;
#377 = FILL_AREA_STYLE ('',( #161 ) ) ;
#378 = CARTESIAN_POINT ( 'NONE',  ( 0.0000000000000000000, 0.0000000000000000000, 2.229093999999999465 ) ) ;
#379 = EDGE_CURVE ( 'NONE', #250, #371, #324, .T. ) ;
ENDSEC;
END-ISO-10303-21;
