ISO-10303-21;
HEADER;
FILE_DESCRIPTION (( 'STEP AP214' ),
    '1' );
FILE_NAME ('59685.STEP',
    '2023-07-24T15:23:46',
    ( '' ),
    ( '' ),
    'SwSTEP 2.0',
    'SolidWorks 2023',
    '' );
FILE_SCHEMA (( 'AUTOMOTIVE_DESIGN' ));
ENDSEC;

DATA;
#1 = ADVANCED_FACE ( 'NONE', ( #274 ), #39, .T. ) ;
#2 = SURFACE_STYLE_USAGE ( .BOTH. , #345 ) ;
#3 = UNCERTAINTY_MEASURE_WITH_UNIT (LENGTH_MEASURE( 1.000000000000000082E-05 ), #295, 'distance_accuracy_value', 'NONE');
#4 = DIRECTION ( 'NONE',  ( -1.000000000000000000, 0.000000000000000000, 0.000000000000000000 ) ) ;
#5 = CLOSED_SHELL ( 'NONE', ( #360, #1, #297, #17, #86, #155 ) ) ;
#6 = AXIS2_PLACEMENT_3D ( 'NONE', #305, #167, #338 ) ;
#7 = VECTOR ( 'NONE', #241, 1000.000000000000000 ) ;
#8 = DIRECTION ( 'NONE',  ( -0.000000000000000000, -1.000000000000000000, -0.000000000000000000 ) ) ;
#9 = CARTESIAN_POINT ( 'NONE',  ( 3.673940397442058882E-16, 0.000000000000000000, 2.999999999999999112 ) ) ;
#10 = PRODUCT_RELATED_PRODUCT_CATEGORY ( 'part', '', ( #148 ) ) ;
#11 = CARTESIAN_POINT ( 'NONE',  ( -2.999999999999970690, 18.00000000000000355, 0.000000000000000000 ) ) ;
#12 = COLOUR_RGB ( '',1.000000000000000000, 0.000000000000000000, 0.000000000000000000 ) ;
#13 = STYLED_ITEM ( 'NONE', ( #343 ), #360 ) ;
#14 = DIRECTION ( 'NONE',  ( -1.000000000000000000, 0.000000000000000000, 0.000000000000000000 ) ) ;
#15 = PRESENTATION_STYLE_ASSIGNMENT (( #315 ) ) ;
#16 = ORIENTED_EDGE ( 'NONE', *, *, #336, .T. ) ;
#17 = ADVANCED_FACE ( 'NONE', ( #341 ), #195, .T. ) ;
#18 = FILL_AREA_STYLE ('',( #161 ) ) ;
#19 = EDGE_LOOP ( 'NONE', ( #101, #310 ) ) ;
#20 = CARTESIAN_POINT ( 'NONE',  ( 0.000000000000000000, 0.000000000000000000, -2.999999999999999112 ) ) ;
#21 = PRESENTATION_LAYER_ASSIGNMENT (  '', '', ( #348 ) ) ;
#22 = SURFACE_STYLE_USAGE ( .BOTH. , #159 ) ;
#23 = AXIS2_PLACEMENT_3D ( 'NONE', #215, #8, #236 ) ;
#24 = EDGE_LOOP ( 'NONE', ( #275, #216, #128, #185 ) ) ;
#25 = APPLICATION_CONTEXT ( 'automotive_design' ) ;
#26 = PRODUCT_DEFINITION_SHAPE ( 'NONE', 'NONE',  #269 ) ;
#27 = SURFACE_SIDE_STYLE ('',( #218 ) ) ;
#28 = ORIENTED_EDGE ( 'NONE', *, *, #351, .T. ) ;
#29 = FACE_OUTER_BOUND ( 'NONE', #81, .T. ) ;
#30 = AXIS2_PLACEMENT_3D ( 'NONE', #322, #265, #347 ) ;
#31 = CIRCLE ( 'NONE', #23, 2.999999999999999112 ) ;
#32 = EDGE_CURVE ( 'NONE', #366, #189, #200, .T. ) ;
#33 = PRESENTATION_STYLE_ASSIGNMENT (( #197 ) ) ;
#34 = PRODUCT_DEFINITION_CONTEXT ( 'detailed design', #25, 'design' ) ;
#35 =( LENGTH_UNIT ( ) NAMED_UNIT ( * ) SI_UNIT ( .MILLI., .METRE. ) );
#36 = UNCERTAINTY_MEASURE_WITH_UNIT (LENGTH_MEASURE( 1.000000000000000082E-05 ), #149, 'distance_accuracy_value', 'NONE');
#37 =( NAMED_UNIT ( * ) PLANE_ANGLE_UNIT ( ) SI_UNIT ( $, .RADIAN. ) );
#38 = DIRECTION ( 'NONE',  ( 0.000000000000000000, -1.000000000000000000, -0.000000000000000000 ) ) ;
#39 = TOROIDAL_SURFACE ( 'NONE', #247, 2.499999999999998668, 0.5000000000000002220 ) ;
#40 =( NAMED_UNIT ( * ) PLANE_ANGLE_UNIT ( ) SI_UNIT ( $, .RADIAN. ) );
#41 = ADVANCED_FACE ( 'NONE', ( #344 ), #307, .T. ) ;
#42 = DIRECTION ( 'NONE',  ( 0.000000000000000000, 0.000000000000000000, -1.000000000000000000 ) ) ;
#43 = CARTESIAN_POINT ( 'NONE',  ( 0.000000000000000000, 0.000000000000000000, 0.000000000000000000 ) ) ;
#44 = MECHANICAL_DESIGN_GEOMETRIC_PRESENTATION_REPRESENTATION (  '', ( #255 ), #179 ) ;
#45 = DIRECTION ( 'NONE',  ( -1.444848463910660280E-16, 1.000000000000000000, -0.000000000000000000 ) ) ;
#46 = EDGE_CURVE ( 'NONE', #242, #189, #365, .T. ) ;
#47 = CARTESIAN_POINT ( 'NONE',  ( 1.409462824231155764E-14, 18.00000000000000355, 0.000000000000000000 ) ) ;
#48 =( NAMED_UNIT ( * ) SI_UNIT ( $, .STERADIAN. ) SOLID_ANGLE_UNIT ( ) );
#49 = ORIENTED_EDGE ( 'NONE', *, *, #150, .F. ) ;
#50 = AXIS2_PLACEMENT_3D ( 'NONE', #135, #45, #280 ) ;
#51 = CIRCLE ( 'NONE', #6, 0.5000000000000004441 ) ;
#52 = CARTESIAN_POINT ( 'NONE',  ( -2.999999999999980460, 63.00000000000000000, 0.000000000000000000 ) ) ;
#53 = AXIS2_PLACEMENT_3D ( 'NONE', #43, #96, #361 ) ;
#54 = FACE_OUTER_BOUND ( 'NONE', #19, .T. ) ;
#55 = EDGE_CURVE ( 'NONE', #329, #132, #83, .T. ) ;
#56 = PRESENTATION_STYLE_ASSIGNMENT (( #85 ) ) ;
#57 = STYLED_ITEM ( 'NONE', ( #15 ), #1 ) ;
#58 =( NAMED_UNIT ( * ) PLANE_ANGLE_UNIT ( ) SI_UNIT ( $, .RADIAN. ) );
#59 = COLOUR_RGB ( '',1.000000000000000000, 0.000000000000000000, 0.000000000000000000 ) ;
#60 =( GEOMETRIC_REPRESENTATION_CONTEXT ( 3 ) GLOBAL_UNCERTAINTY_ASSIGNED_CONTEXT ( ( #3 ) ) GLOBAL_UNIT_ASSIGNED_CONTEXT ( ( #295, #37, #154 ) ) REPRESENTATION_CONTEXT ( 'NONE', 'WORKASPACE' ) );
#61 = FILL_AREA_STYLE ('',( #294 ) ) ;
#62 =( LENGTH_UNIT ( ) NAMED_UNIT ( * ) SI_UNIT ( .MILLI., .METRE. ) );
#63 = STYLED_ITEM ( 'NONE', ( #302 ), #297 ) ;
#64 = EDGE_CURVE ( 'NONE', #242, #277, #227, .T. ) ;
#65 = DIRECTION ( 'NONE',  ( -1.444848463910660280E-16, 1.000000000000000000, -0.000000000000000000 ) ) ;
#66 =( LENGTH_UNIT ( ) NAMED_UNIT ( * ) SI_UNIT ( .MILLI., .METRE. ) );
#67 = CARTESIAN_POINT ( 'NONE',  ( 0.000000000000000000, 0.5000000000000000000, -2.499999999999998668 ) ) ;
#68 = MANIFOLD_SOLID_BREP ( 'Revolve - Tool Body (Straight Shanked)', #291 ) ;
#69 = PRODUCT_DEFINITION_FORMATION_WITH_SPECIFIED_SOURCE ( 'ANY', '', #148, .NOT_KNOWN. ) ;
#70 = SURFACE_STYLE_FILL_AREA ( #362 ) ;
#71 = APPLICATION_PROTOCOL_DEFINITION ( 'draft international standard', 'automotive_design', 1998, #25 ) ;
#72 = MANIFOLD_SOLID_BREP ( 'Revolve - Cutting Edge', #5 ) ;
#73 = CARTESIAN_POINT ( 'NONE',  ( 0.000000000000000000, 18.00000000000000355, -2.999999999999999112 ) ) ;
#74 = ORIENTED_EDGE ( 'NONE', *, *, #129, .F. ) ;
#75 = AXIS2_PLACEMENT_3D ( 'NONE', #283, #137, #90 ) ;
#76 = PRESENTATION_STYLE_ASSIGNMENT (( #22 ) ) ;
#77 = SURFACE_STYLE_FILL_AREA ( #221 ) ;
#78 = ORIENTED_EDGE ( 'NONE', *, *, #196, .F. ) ;
#79 = CARTESIAN_POINT ( 'NONE',  ( 7.592810154713587074E-15, 63.00000000000000000, 0.000000000000000000 ) ) ;
#80 =( NAMED_UNIT ( * ) PLANE_ANGLE_UNIT ( ) SI_UNIT ( $, .RADIAN. ) );
#81 = EDGE_LOOP ( 'NONE', ( #28, #250, #110, #309 ) ) ;
#82 = ADVANCED_FACE ( 'NONE', ( #288 ), #261, .F. ) ;
#83 = CIRCLE ( 'NONE', #75, 2.999999999999999112 ) ;
#84 = FILL_AREA_STYLE_COLOUR ( '', #349 ) ;
#85 = SURFACE_STYLE_USAGE ( .BOTH. , #171 ) ;
#86 = ADVANCED_FACE ( 'NONE', ( #230 ), #235, .T. ) ;
#87 = CYLINDRICAL_SURFACE ( 'NONE', #293, 2.999999999999999112 ) ;
#88 = FILL_AREA_STYLE_COLOUR ( '', #12 ) ;
#89 = CIRCLE ( 'NONE', #299, 2.499999999999998668 ) ;
#90 = DIRECTION ( 'NONE',  ( 0.000000000000000000, 0.000000000000000000, -1.000000000000000000 ) ) ;
#91 = DIRECTION ( 'NONE',  ( -1.444848463910660280E-16, 1.000000000000000000, -0.000000000000000000 ) ) ;
#92 = FILL_AREA_STYLE_COLOUR ( '', #133 ) ;
#93 = CARTESIAN_POINT ( 'NONE',  ( 1.409462824231155764E-14, 18.00000000000000355, 0.000000000000000000 ) ) ;
#94 = ADVANCED_FACE ( 'NONE', ( #223 ), #187, .T. ) ;
#95 =( NAMED_UNIT ( * ) SI_UNIT ( $, .STERADIAN. ) SOLID_ANGLE_UNIT ( ) );
#96 = DIRECTION ( 'NONE',  ( 0.000000000000000000, 0.000000000000000000, 1.000000000000000000 ) ) ;
#97 = CARTESIAN_POINT ( 'NONE',  ( 0.000000000000000000, 0.000000000000000000, 0.000000000000000000 ) ) ;
#98 =( NAMED_UNIT ( * ) SI_UNIT ( $, .STERADIAN. ) SOLID_ANGLE_UNIT ( ) );
#99 = ORIENTED_EDGE ( 'NONE', *, *, #55, .T. ) ;
#100 = CARTESIAN_POINT ( 'NONE',  ( 0.000000000000000000, 18.00000000000000355, 0.000000000000000000 ) ) ;
#101 = ORIENTED_EDGE ( 'NONE', *, *, #64, .F. ) ;
#102 = ORIENTED_EDGE ( 'NONE', *, *, #112, .F. ) ;
#103 = MECHANICAL_DESIGN_GEOMETRIC_PRESENTATION_REPRESENTATION (  '', ( #357 ), #107 ) ;
#104 = CARTESIAN_POINT ( 'NONE',  ( 0.000000000000000000, 0.5000000000000000000, 0.000000000000000000 ) ) ;
#105 = VERTEX_POINT ( 'NONE', #73 ) ;
#106 = SURFACE_SIDE_STYLE ('',( #138 ) ) ;
#107 =( GEOMETRIC_REPRESENTATION_CONTEXT ( 3 ) GLOBAL_UNCERTAINTY_ASSIGNED_CONTEXT ( ( #321 ) ) GLOBAL_UNIT_ASSIGNED_CONTEXT ( ( #352, #316, #256 ) ) REPRESENTATION_CONTEXT ( 'NONE', 'WORKASPACE' ) );
#108 = DIRECTION ( 'NONE',  ( 0.000000000000000000, 0.000000000000000000, -1.000000000000000000 ) ) ;
#109 = AXIS2_PLACEMENT_3D ( 'NONE', #67, #326, #119 ) ;
#110 = ORIENTED_EDGE ( 'NONE', *, *, #272, .F. ) ;
#111 = DIRECTION ( 'NONE',  ( 0.000000000000000000, 0.000000000000000000, -1.000000000000000000 ) ) ;
#112 = EDGE_CURVE ( 'NONE', #337, #163, #323, .T. ) ;
#113 = UNCERTAINTY_MEASURE_WITH_UNIT (LENGTH_MEASURE( 1.000000000000000082E-05 ), #62, 'distance_accuracy_value', 'NONE');
#114 = AXIS2_PLACEMENT_3D ( 'NONE', #93, #184, #4 ) ;
#115 = FILL_AREA_STYLE_COLOUR ( '', #248 ) ;
#116 = PLANE ( 'NONE',  #324 ) ;
#117 = ADVANCED_FACE ( 'NONE', ( #54 ), #276, .F. ) ;
#118 = SURFACE_STYLE_USAGE ( .BOTH. , #173 ) ;
#119 = DIRECTION ( 'NONE',  ( 0.000000000000000000, 0.000000000000000000, 1.000000000000000000 ) ) ;
#120 = STYLED_ITEM ( 'NONE', ( #33 ), #68 ) ;
#121 = FACE_OUTER_BOUND ( 'NONE', #136, .T. ) ;
#122 = SURFACE_STYLE_USAGE ( .BOTH. , #181 ) ;
#123 = UNCERTAINTY_MEASURE_WITH_UNIT (LENGTH_MEASURE( 1.000000000000000082E-05 ), #131, 'distance_accuracy_value', 'NONE');
#124 =( NAMED_UNIT ( * ) PLANE_ANGLE_UNIT ( ) SI_UNIT ( $, .RADIAN. ) );
#125 = COLOUR_RGB ( '',1.000000000000000000, 0.000000000000000000, 0.000000000000000000 ) ;
#126 = VECTOR ( 'NONE', #166, 1000.000000000000000 ) ;
#127 = CARTESIAN_POINT ( 'NONE',  ( 3.367778697655220026E-16, 0.000000000000000000, 2.499999999999998668 ) ) ;
#128 = ORIENTED_EDGE ( 'NONE', *, *, #46, .T. ) ;
#129 = EDGE_CURVE ( 'NONE', #329, #337, #51, .T. ) ;
#130 = ORIENTED_EDGE ( 'NONE', *, *, #196, .T. ) ;
#131 =( LENGTH_UNIT ( ) NAMED_UNIT ( * ) SI_UNIT ( .MILLI., .METRE. ) );
#132 = VERTEX_POINT ( 'NONE', #252 ) ;
#133 = COLOUR_RGB ( '',1.000000000000000000, 0.000000000000000000, 0.000000000000000000 ) ;
#134 = DIRECTION ( 'NONE',  ( -0.000000000000000000, -1.000000000000000000, -0.000000000000000000 ) ) ;
#135 = CARTESIAN_POINT ( 'NONE',  ( 7.592810154713587074E-15, 63.00000000000000000, 0.000000000000000000 ) ) ;
#136 = EDGE_LOOP ( 'NONE', ( #245, #363 ) ) ;
#137 = DIRECTION ( 'NONE',  ( -0.000000000000000000, -1.000000000000000000, -0.000000000000000000 ) ) ;
#138 = SURFACE_STYLE_FILL_AREA ( #317 ) ;
#139 = DIRECTION ( 'NONE',  ( -0.000000000000000000, -1.000000000000000000, -0.000000000000000000 ) ) ;
#140 = AXIS2_PLACEMENT_3D ( 'NONE', #190, #246, #244 ) ;
#141 = FILL_AREA_STYLE ('',( #88 ) ) ;
#142 = SURFACE_STYLE_FILL_AREA ( #289 ) ;
#143 = AXIS2_PLACEMENT_3D ( 'NONE', #311, #228, #193 ) ;
#144 =( NAMED_UNIT ( * ) PLANE_ANGLE_UNIT ( ) SI_UNIT ( $, .RADIAN. ) );
#145 = EDGE_CURVE ( 'NONE', #105, #132, #279, .T. ) ;
#146 = PRESENTATION_STYLE_ASSIGNMENT (( #118 ) ) ;
#147 = DIRECTION ( 'NONE',  ( 0.000000000000000000, 0.000000000000000000, -1.000000000000000000 ) ) ;
#148 = PRODUCT ( '59685', '59685', '', ( #330 ) ) ;
#149 =( LENGTH_UNIT ( ) NAMED_UNIT ( * ) SI_UNIT ( .MILLI., .METRE. ) );
#150 = EDGE_CURVE ( 'NONE', #163, #337, #89, .T. ) ;
#151 = CARTESIAN_POINT ( 'NONE',  ( 3.673940397442058389E-16, 0.5000000000000000000, 2.999999999999999112 ) ) ;
#152 = AXIS2_PLACEMENT_3D ( 'NONE', #97, #300, #212 ) ;
#153 = AXIS2_PLACEMENT_3D ( 'NONE', #270, #296, #207 ) ;
#154 =( NAMED_UNIT ( * ) SI_UNIT ( $, .STERADIAN. ) SOLID_ANGLE_UNIT ( ) );
#155 = ADVANCED_FACE ( 'NONE', ( #285 ), #116, .T. ) ;
#156 = EDGE_LOOP ( 'NONE', ( #74, #99, #308, #102 ) ) ;
#157 = STYLED_ITEM ( 'NONE', ( #56 ), #72 ) ;
#158 = VECTOR ( 'NONE', #65, 1000.000000000000000 ) ;
#159 = SURFACE_SIDE_STYLE ('',( #77 ) ) ;
#160 = DIRECTION ( 'NONE',  ( -1.000000000000000000, 0.000000000000000000, 0.000000000000000000 ) ) ;
#161 = FILL_AREA_STYLE_COLOUR ( '', #125 ) ;
#162 = EDGE_LOOP ( 'NONE', ( #367, #78 ) ) ;
#163 = VERTEX_POINT ( 'NONE', #332 ) ;
#164 =( GEOMETRIC_REPRESENTATION_CONTEXT ( 3 ) GLOBAL_UNCERTAINTY_ASSIGNED_CONTEXT ( ( #257 ) ) GLOBAL_UNIT_ASSIGNED_CONTEXT ( ( #66, #298, #203 ) ) REPRESENTATION_CONTEXT ( 'NONE', 'WORKASPACE' ) );
#165 = CARTESIAN_POINT ( 'NONE',  ( 0.000000000000000000, 0.000000000000000000, 0.000000000000000000 ) ) ;
#166 = DIRECTION ( 'NONE',  ( -1.444848463910660280E-16, 1.000000000000000000, -0.000000000000000000 ) ) ;
#167 = DIRECTION ( 'NONE',  ( 1.000000000000000000, 0.000000000000000000, -1.224646799147353207E-16 ) ) ;
#168 =( NAMED_UNIT ( * ) SI_UNIT ( $, .STERADIAN. ) SOLID_ANGLE_UNIT ( ) );
#169 = COLOUR_RGB ( '',0.7921568627450980005, 0.8196078431372548767, 0.9333333333333333481 ) ;
#170 = COLOUR_RGB ( '',1.000000000000000000, 0.000000000000000000, 0.000000000000000000 ) ;
#171 = SURFACE_SIDE_STYLE ('',( #202 ) ) ;
#172 = CARTESIAN_POINT ( 'NONE',  ( 1.409462824231155764E-14, 18.00000000000000355, 0.000000000000000000 ) ) ;
#173 = SURFACE_SIDE_STYLE ('',( #142 ) ) ;
#174 = PRESENTATION_LAYER_ASSIGNMENT (  '', '', ( #157 ) ) ;
#175 = PRESENTATION_STYLE_ASSIGNMENT (( #2 ) ) ;
#176 = EDGE_CURVE ( 'NONE', #277, #242, #282, .T. ) ;
#177 = FILL_AREA_STYLE_COLOUR ( '', #170 ) ;
#178 = LINE ( 'NONE', #325, #158 ) ;
#179 =( GEOMETRIC_REPRESENTATION_CONTEXT ( 3 ) GLOBAL_UNCERTAINTY_ASSIGNED_CONTEXT ( ( #358 ) ) GLOBAL_UNIT_ASSIGNED_CONTEXT ( ( #188, #80, #48 ) ) REPRESENTATION_CONTEXT ( 'NONE', 'WORKASPACE' ) );
#180 = CIRCLE ( 'NONE', #153, 2.999999999999999112 ) ;
#181 = SURFACE_SIDE_STYLE ('',( #70 ) ) ;
#182 =( LENGTH_UNIT ( ) NAMED_UNIT ( * ) SI_UNIT ( .MILLI., .METRE. ) );
#183 = DIRECTION ( 'NONE',  ( -1.000000000000000000, -1.444848463910660280E-16, 0.000000000000000000 ) ) ;
#184 = DIRECTION ( 'NONE',  ( -1.444848463910660280E-16, 1.000000000000000000, -0.000000000000000000 ) ) ;
#185 = ORIENTED_EDGE ( 'NONE', *, *, #32, .F. ) ;
#186 = MECHANICAL_DESIGN_GEOMETRIC_PRESENTATION_REPRESENTATION (  '', ( #120 ), #342 ) ;
#187 = CYLINDRICAL_SURFACE ( 'NONE', #306, 2.999999999999988454 ) ;
#188 =( LENGTH_UNIT ( ) NAMED_UNIT ( * ) SI_UNIT ( .MILLI., .METRE. ) );
#189 = VERTEX_POINT ( 'NONE', #328 ) ;
#190 = CARTESIAN_POINT ( 'NONE',  ( 0.000000000000000000, 0.000000000000000000, 0.000000000000000000 ) ) ;
#191 = ORIENTED_EDGE ( 'NONE', *, *, #336, .F. ) ;
#192 = DIRECTION ( 'NONE',  ( -1.444848463910660280E-16, 1.000000000000000000, 0.000000000000000000 ) ) ;
#193 = DIRECTION ( 'NONE',  ( -1.000000000000000000, 0.000000000000000000, 0.000000000000000000 ) ) ;
#194 = EDGE_LOOP ( 'NONE', ( #16, #281 ) ) ;
#195 = TOROIDAL_SURFACE ( 'NONE', #263, 2.499999999999998668, 0.5000000000000002220 ) ;
#196 = EDGE_CURVE ( 'NONE', #340, #105, #180, .T. ) ;
#197 = SURFACE_STYLE_USAGE ( .BOTH. , #266 ) ;
#198 =( NAMED_UNIT ( * ) SI_UNIT ( $, .STERADIAN. ) SOLID_ANGLE_UNIT ( ) );
#199 = MECHANICAL_DESIGN_GEOMETRIC_PRESENTATION_REPRESENTATION (  '', ( #57 ), #204 ) ;
#200 = CIRCLE ( 'NONE', #143, 2.999999999999991562 ) ;
#201 = SURFACE_STYLE_FILL_AREA ( #141 ) ;
#202 = SURFACE_STYLE_FILL_AREA ( #61 ) ;
#203 =( NAMED_UNIT ( * ) SI_UNIT ( $, .STERADIAN. ) SOLID_ANGLE_UNIT ( ) );
#204 =( GEOMETRIC_REPRESENTATION_CONTEXT ( 3 ) GLOBAL_UNCERTAINTY_ASSIGNED_CONTEXT ( ( #123 ) ) GLOBAL_UNIT_ASSIGNED_CONTEXT ( ( #131, #369, #168 ) ) REPRESENTATION_CONTEXT ( 'NONE', 'WORKASPACE' ) );
#205 = CIRCLE ( 'NONE', #220, 2.999999999999999112 ) ;
#206 = CARTESIAN_POINT ( 'NONE',  ( 2.999999999999999556, 63.00000000000000000, 3.673940397442047542E-16 ) ) ;
#207 = DIRECTION ( 'NONE',  ( 0.000000000000000000, 0.000000000000000000, -1.000000000000000000 ) ) ;
#208 = PLANE ( 'NONE',  #286 ) ;
#209 = CARTESIAN_POINT ( 'NONE',  ( 0.000000000000000000, 0.000000000000000000, 0.000000000000000000 ) ) ;
#210 =( GEOMETRIC_REPRESENTATION_CONTEXT ( 3 ) GLOBAL_UNCERTAINTY_ASSIGNED_CONTEXT ( ( #346 ) ) GLOBAL_UNIT_ASSIGNED_CONTEXT ( ( #35, #144, #198 ) ) REPRESENTATION_CONTEXT ( 'NONE', 'WORKASPACE' ) );
#211 = CIRCLE ( 'NONE', #314, 2.999999999999991562 ) ;
#212 = DIRECTION ( 'NONE',  ( 0.000000000000000000, 0.000000000000000000, -1.000000000000000000 ) ) ;
#213 = EDGE_LOOP ( 'NONE', ( #284, #130, #222, #219 ) ) ;
#214 = DIRECTION ( 'NONE',  ( -0.000000000000000000, -1.000000000000000000, -0.000000000000000000 ) ) ;
#215 = CARTESIAN_POINT ( 'NONE',  ( 0.000000000000000000, 0.5000000000000000000, 0.000000000000000000 ) ) ;
#216 = ORIENTED_EDGE ( 'NONE', *, *, #176, .T. ) ;
#217 = EDGE_CURVE ( 'NONE', #340, #329, #303, .T. ) ;
#218 = SURFACE_STYLE_FILL_AREA ( #18 ) ;
#219 = ORIENTED_EDGE ( 'NONE', *, *, #55, .F. ) ;
#220 = AXIS2_PLACEMENT_3D ( 'NONE', #229, #224, #111 ) ;
#221 = FILL_AREA_STYLE ('',( #339 ) ) ;
#222 = ORIENTED_EDGE ( 'NONE', *, *, #145, .T. ) ;
#223 = FACE_OUTER_BOUND ( 'NONE', #24, .T. ) ;
#224 = DIRECTION ( 'NONE',  ( -0.000000000000000000, -1.000000000000000000, -0.000000000000000000 ) ) ;
#225 = PRESENTATION_LAYER_ASSIGNMENT (  '', '', ( #57 ) ) ;
#226 = SURFACE_STYLE_USAGE ( .BOTH. , #106 ) ;
#227 = CIRCLE ( 'NONE', #268, 2.999999999999984457 ) ;
#228 = DIRECTION ( 'NONE',  ( -1.444848463910660280E-16, 1.000000000000000000, -0.000000000000000000 ) ) ;
#229 = CARTESIAN_POINT ( 'NONE',  ( 0.000000000000000000, 18.00000000000000355, 0.000000000000000000 ) ) ;
#230 = FACE_OUTER_BOUND ( 'NONE', #213, .T. ) ;
#231 = APPLICATION_CONTEXT ( 'automotive_design' ) ;
#232 = CARTESIAN_POINT ( 'NONE',  ( 3.673940397442058882E-16, 18.00000000000000355, 2.999999999999999112 ) ) ;
#233 = MECHANICAL_DESIGN_GEOMETRIC_PRESENTATION_REPRESENTATION (  '', ( #348 ), #327 ) ;
#234 = DIRECTION ( 'NONE',  ( -1.000000000000000000, 0.000000000000000000, 0.000000000000000000 ) ) ;
#235 = CYLINDRICAL_SURFACE ( 'NONE', #152, 2.999999999999999112 ) ;
#236 = DIRECTION ( 'NONE',  ( 0.000000000000000000, 0.000000000000000000, -1.000000000000000000 ) ) ;
#237 = APPLICATION_PROTOCOL_DEFINITION ( 'draft international standard', 'automotive_design', 1998, #231 ) ;
#238 = PRESENTATION_LAYER_ASSIGNMENT (  '', '', ( #255 ) ) ;
#239 = MECHANICAL_DESIGN_GEOMETRIC_PRESENTATION_REPRESENTATION (  '', ( #63 ), #301 ) ;
#240 = SHAPE_DEFINITION_REPRESENTATION ( #26, #254 ) ;
#241 = DIRECTION ( 'NONE',  ( -0.000000000000000000, -1.000000000000000000, -0.000000000000000000 ) ) ;
#242 = VERTEX_POINT ( 'NONE', #11 ) ;
#243 = EDGE_CURVE ( 'NONE', #277, #366, #178, .T. ) ;
#244 = DIRECTION ( 'NONE',  ( 0.000000000000000000, 0.000000000000000000, -1.000000000000000000 ) ) ;
#245 = ORIENTED_EDGE ( 'NONE', *, *, #150, .T. ) ;
#246 = DIRECTION ( 'NONE',  ( -0.000000000000000000, -1.000000000000000000, -0.000000000000000000 ) ) ;
#247 = AXIS2_PLACEMENT_3D ( 'NONE', #334, #368, #335 ) ;
#248 = COLOUR_RGB ( '',0.7921568627450980005, 0.8196078431372548767, 0.9333333333333333481 ) ;
#249 = CIRCLE ( 'NONE', #109, 0.5000000000000004441 ) ;
#250 = ORIENTED_EDGE ( 'NONE', *, *, #217, .T. ) ;
#251 = ORIENTED_EDGE ( 'NONE', *, *, #64, .T. ) ;
#252 = CARTESIAN_POINT ( 'NONE',  ( 0.000000000000000000, 0.5000000000000000000, -2.999999999999999112 ) ) ;
#253 = DIRECTION ( 'NONE',  ( 0.000000000000000000, 0.000000000000000000, -1.000000000000000000 ) ) ;
#254 = ADVANCED_BREP_SHAPE_REPRESENTATION ( '59685', ( #72, #68, #53 ), #60 ) ;
#255 = STYLED_ITEM ( 'NONE', ( #76 ), #17 ) ;
#256 =( NAMED_UNIT ( * ) SI_UNIT ( $, .STERADIAN. ) SOLID_ANGLE_UNIT ( ) );
#257 = UNCERTAINTY_MEASURE_WITH_UNIT (LENGTH_MEASURE( 1.000000000000000082E-05 ), #66, 'distance_accuracy_value', 'NONE');
#258 = EDGE_LOOP ( 'NONE', ( #313, #304, #49, #359 ) ) ;
#259 = EDGE_CURVE ( 'NONE', #132, #163, #249, .T. ) ;
#260 =( NAMED_UNIT ( * ) SI_UNIT ( $, .STERADIAN. ) SOLID_ANGLE_UNIT ( ) );
#261 = PLANE ( 'NONE',  #30 ) ;
#262 = PRESENTATION_LAYER_ASSIGNMENT (  '', '', ( #120 ) ) ;
#263 = AXIS2_PLACEMENT_3D ( 'NONE', #104, #139, #253 ) ;
#264 = PRESENTATION_LAYER_ASSIGNMENT (  '', '', ( #13 ) ) ;
#265 = DIRECTION ( 'NONE',  ( 1.444848463910660280E-16, -1.000000000000000000, 0.000000000000000000 ) ) ;
#266 = SURFACE_SIDE_STYLE ('',( #287 ) ) ;
#267 = DIRECTION ( 'NONE',  ( 0.000000000000000000, -0.000000000000000000, 1.000000000000000000 ) ) ;
#268 = AXIS2_PLACEMENT_3D ( 'NONE', #172, #91, #234 ) ;
#269 = PRODUCT_DEFINITION ( 'UNKNOWN', '', #69, #34 ) ;
#270 = CARTESIAN_POINT ( 'NONE',  ( 0.000000000000000000, 18.00000000000000355, 0.000000000000000000 ) ) ;
#271 = DIRECTION ( 'NONE',  ( -1.444848463910660280E-16, 1.000000000000000000, -0.000000000000000000 ) ) ;
#272 = EDGE_CURVE ( 'NONE', #132, #329, #31, .T. ) ;
#273 = ORIENTED_EDGE ( 'NONE', *, *, #243, .T. ) ;
#274 = FACE_OUTER_BOUND ( 'NONE', #258, .T. ) ;
#275 = ORIENTED_EDGE ( 'NONE', *, *, #243, .F. ) ;
#276 = PLANE ( 'NONE',  #353 ) ;
#277 = VERTEX_POINT ( 'NONE', #354 ) ;
#278 = ORIENTED_EDGE ( 'NONE', *, *, #46, .F. ) ;
#279 = LINE ( 'NONE', #20, #318 ) ;
#280 = DIRECTION ( 'NONE',  ( -1.000000000000000000, 0.000000000000000000, 0.000000000000000000 ) ) ;
#281 = ORIENTED_EDGE ( 'NONE', *, *, #32, .T. ) ;
#282 = CIRCLE ( 'NONE', #114, 2.999999999999984457 ) ;
#283 = CARTESIAN_POINT ( 'NONE',  ( 0.000000000000000000, 0.5000000000000000000, 0.000000000000000000 ) ) ;
#284 = ORIENTED_EDGE ( 'NONE', *, *, #217, .F. ) ;
#285 = FACE_OUTER_BOUND ( 'NONE', #162, .T. ) ;
#286 = AXIS2_PLACEMENT_3D ( 'NONE', #209, #38, #42 ) ;
#287 = SURFACE_STYLE_FILL_AREA ( #290 ) ;
#288 = FACE_OUTER_BOUND ( 'NONE', #194, .T. ) ;
#289 = FILL_AREA_STYLE ('',( #92 ) ) ;
#290 = FILL_AREA_STYLE ('',( #115 ) ) ;
#291 = CLOSED_SHELL ( 'NONE', ( #41, #117, #94, #82 ) ) ;
#292 = DIRECTION ( 'NONE',  ( -0.000000000000000000, -1.000000000000000000, -0.000000000000000000 ) ) ;
#293 = AXIS2_PLACEMENT_3D ( 'NONE', #320, #292, #147 ) ;
#294 = FILL_AREA_STYLE_COLOUR ( '', #169 ) ;
#295 =( LENGTH_UNIT ( ) NAMED_UNIT ( * ) SI_UNIT ( .MILLI., .METRE. ) );
#296 = DIRECTION ( 'NONE',  ( -0.000000000000000000, -1.000000000000000000, -0.000000000000000000 ) ) ;
#297 = ADVANCED_FACE ( 'NONE', ( #121 ), #208, .T. ) ;
#298 =( NAMED_UNIT ( * ) PLANE_ANGLE_UNIT ( ) SI_UNIT ( $, .RADIAN. ) );
#299 = AXIS2_PLACEMENT_3D ( 'NONE', #165, #214, #108 ) ;
#300 = DIRECTION ( 'NONE',  ( -0.000000000000000000, -1.000000000000000000, -0.000000000000000000 ) ) ;
#301 =( GEOMETRIC_REPRESENTATION_CONTEXT ( 3 ) GLOBAL_UNCERTAINTY_ASSIGNED_CONTEXT ( ( #350 ) ) GLOBAL_UNIT_ASSIGNED_CONTEXT ( ( #182, #124, #98 ) ) REPRESENTATION_CONTEXT ( 'NONE', 'WORKASPACE' ) );
#302 = PRESENTATION_STYLE_ASSIGNMENT (( #122 ) ) ;
#303 = LINE ( 'NONE', #9, #7 ) ;
#304 = ORIENTED_EDGE ( 'NONE', *, *, #129, .T. ) ;
#305 = CARTESIAN_POINT ( 'NONE',  ( 3.061616997868381662E-16, 0.5000000000000000000, 2.499999999999998668 ) ) ;
#306 = AXIS2_PLACEMENT_3D ( 'NONE', #79, #331, #160 ) ;
#307 = CYLINDRICAL_SURFACE ( 'NONE', #50, 2.999999999999988454 ) ;
#308 = ORIENTED_EDGE ( 'NONE', *, *, #259, .T. ) ;
#309 = ORIENTED_EDGE ( 'NONE', *, *, #145, .F. ) ;
#310 = ORIENTED_EDGE ( 'NONE', *, *, #176, .F. ) ;
#311 = CARTESIAN_POINT ( 'NONE',  ( 7.592810154713587074E-15, 63.00000000000000000, 0.000000000000000000 ) ) ;
#312 = MECHANICAL_DESIGN_GEOMETRIC_PRESENTATION_REPRESENTATION (  '', ( #157 ), #210 ) ;
#313 = ORIENTED_EDGE ( 'NONE', *, *, #272, .T. ) ;
#314 = AXIS2_PLACEMENT_3D ( 'NONE', #355, #271, #14 ) ;
#315 = SURFACE_STYLE_USAGE ( .BOTH. , #27 ) ;
#316 =( NAMED_UNIT ( * ) PLANE_ANGLE_UNIT ( ) SI_UNIT ( $, .RADIAN. ) );
#317 = FILL_AREA_STYLE ('',( #84 ) ) ;
#318 = VECTOR ( 'NONE', #134, 1000.000000000000000 ) ;
#319 = MECHANICAL_DESIGN_GEOMETRIC_PRESENTATION_REPRESENTATION (  '', ( #13 ), #164 ) ;
#320 = CARTESIAN_POINT ( 'NONE',  ( 0.000000000000000000, 0.000000000000000000, 0.000000000000000000 ) ) ;
#321 = UNCERTAINTY_MEASURE_WITH_UNIT (LENGTH_MEASURE( 1.000000000000000082E-05 ), #352, 'distance_accuracy_value', 'NONE');
#322 = CARTESIAN_POINT ( 'NONE',  ( 2.999999999999999112, 63.00000000000000000, 0.000000000000000000 ) ) ;
#323 = CIRCLE ( 'NONE', #140, 2.499999999999998668 ) ;
#324 = AXIS2_PLACEMENT_3D ( 'NONE', #100, #356, #267 ) ;
#325 = CARTESIAN_POINT ( 'NONE',  ( 2.999999999999996003, 63.00000000000000000, 3.673940397442045077E-16 ) ) ;
#326 = DIRECTION ( 'NONE',  ( -1.000000000000000000, 0.000000000000000000, 0.000000000000000000 ) ) ;
#327 =( GEOMETRIC_REPRESENTATION_CONTEXT ( 3 ) GLOBAL_UNCERTAINTY_ASSIGNED_CONTEXT ( ( #36 ) ) GLOBAL_UNIT_ASSIGNED_CONTEXT ( ( #149, #40, #95 ) ) REPRESENTATION_CONTEXT ( 'NONE', 'WORKASPACE' ) );
#328 = CARTESIAN_POINT ( 'NONE',  ( -2.999999999999983569, 63.00000000000000000, 0.000000000000000000 ) ) ;
#329 = VERTEX_POINT ( 'NONE', #151 ) ;
#330 = PRODUCT_CONTEXT ( 'NONE', #231, 'mechanical' ) ;
#331 = DIRECTION ( 'NONE',  ( -1.444848463910660280E-16, 1.000000000000000000, -0.000000000000000000 ) ) ;
#332 = CARTESIAN_POINT ( 'NONE',  ( 0.000000000000000000, 0.000000000000000000, -2.499999999999998668 ) ) ;
#333 = PRESENTATION_LAYER_ASSIGNMENT (  '', '', ( #357 ) ) ;
#334 = CARTESIAN_POINT ( 'NONE',  ( 0.000000000000000000, 0.5000000000000000000, 0.000000000000000000 ) ) ;
#335 = DIRECTION ( 'NONE',  ( 0.000000000000000000, 0.000000000000000000, -1.000000000000000000 ) ) ;
#336 = EDGE_CURVE ( 'NONE', #189, #366, #211, .T. ) ;
#337 = VERTEX_POINT ( 'NONE', #127 ) ;
#338 = DIRECTION ( 'NONE',  ( -1.224646799147352468E-16, 0.000000000000000000, -1.000000000000000000 ) ) ;
#339 = FILL_AREA_STYLE_COLOUR ( '', #59 ) ;
#340 = VERTEX_POINT ( 'NONE', #232 ) ;
#341 = FACE_OUTER_BOUND ( 'NONE', #156, .T. ) ;
#342 =( GEOMETRIC_REPRESENTATION_CONTEXT ( 3 ) GLOBAL_UNCERTAINTY_ASSIGNED_CONTEXT ( ( #113 ) ) GLOBAL_UNIT_ASSIGNED_CONTEXT ( ( #62, #58, #260 ) ) REPRESENTATION_CONTEXT ( 'NONE', 'WORKASPACE' ) );
#343 = PRESENTATION_STYLE_ASSIGNMENT (( #226 ) ) ;
#344 = FACE_OUTER_BOUND ( 'NONE', #364, .T. ) ;
#345 = SURFACE_SIDE_STYLE ('',( #201 ) ) ;
#346 = UNCERTAINTY_MEASURE_WITH_UNIT (LENGTH_MEASURE( 1.000000000000000082E-05 ), #35, 'distance_accuracy_value', 'NONE');
#347 = DIRECTION ( 'NONE',  ( 1.000000000000000000, 1.444848463910660280E-16, 0.000000000000000000 ) ) ;
#348 = STYLED_ITEM ( 'NONE', ( #146 ), #155 ) ;
#349 = COLOUR_RGB ( '',1.000000000000000000, 0.000000000000000000, 0.000000000000000000 ) ;
#350 = UNCERTAINTY_MEASURE_WITH_UNIT (LENGTH_MEASURE( 1.000000000000000082E-05 ), #182, 'distance_accuracy_value', 'NONE');
#351 = EDGE_CURVE ( 'NONE', #105, #340, #205, .T. ) ;
#352 =( LENGTH_UNIT ( ) NAMED_UNIT ( * ) SI_UNIT ( .MILLI., .METRE. ) );
#353 = AXIS2_PLACEMENT_3D ( 'NONE', #47, #192, #183 ) ;
#354 = CARTESIAN_POINT ( 'NONE',  ( 2.999999999999999112, 18.00000000000000355, 3.673940397442046556E-16 ) ) ;
#355 = CARTESIAN_POINT ( 'NONE',  ( 7.592810154713587074E-15, 63.00000000000000000, 0.000000000000000000 ) ) ;
#356 = DIRECTION ( 'NONE',  ( 0.000000000000000000, 1.000000000000000000, 0.000000000000000000 ) ) ;
#357 = STYLED_ITEM ( 'NONE', ( #175 ), #86 ) ;
#358 = UNCERTAINTY_MEASURE_WITH_UNIT (LENGTH_MEASURE( 1.000000000000000082E-05 ), #188, 'distance_accuracy_value', 'NONE');
#359 = ORIENTED_EDGE ( 'NONE', *, *, #259, .F. ) ;
#360 = ADVANCED_FACE ( 'NONE', ( #29 ), #87, .T. ) ;
#361 = DIRECTION ( 'NONE',  ( 1.000000000000000000, 0.000000000000000000, 0.000000000000000000 ) ) ;
#362 = FILL_AREA_STYLE ('',( #177 ) ) ;
#363 = ORIENTED_EDGE ( 'NONE', *, *, #112, .T. ) ;
#364 = EDGE_LOOP ( 'NONE', ( #251, #273, #191, #278 ) ) ;
#365 = LINE ( 'NONE', #52, #126 ) ;
#366 = VERTEX_POINT ( 'NONE', #206 ) ;
#367 = ORIENTED_EDGE ( 'NONE', *, *, #351, .F. ) ;
#368 = DIRECTION ( 'NONE',  ( -0.000000000000000000, -1.000000000000000000, -0.000000000000000000 ) ) ;
#369 =( NAMED_UNIT ( * ) PLANE_ANGLE_UNIT ( ) SI_UNIT ( $, .RADIAN. ) );
#370 = PRESENTATION_LAYER_ASSIGNMENT (  '', '', ( #63 ) ) ;
ENDSEC;
END-ISO-10303-21;
