ISO-10303-21;
HEADER;
FILE_DESCRIPTION (( 'STEP AP214' ),
    '1' );
FILE_NAME ('Micro_BMR-014-2X.STEP',
    '2021-09-03T13:44:14',
    ( '' ),
    ( '' ),
    'SwSTEP 2.0',
    'SolidWorks 2020',
    '' );
FILE_SCHEMA (( 'AUTOMOTIVE_DESIGN' ));
ENDSEC;

DATA;
#1 = EDGE_CURVE ( 'NONE', #132, #276, #104, .T. ) ;
#2 = AXIS2_PLACEMENT_3D ( 'NONE', #106, #288, #7 ) ;
#3 = LENGTH_MEASURE_WITH_UNIT ( LENGTH_MEASURE( 0.02539999999999999897 ), #201 );
#4 = FACE_OUTER_BOUND ( 'NONE', #179, .T. ) ;
#5 = CARTESIAN_POINT ( 'NONE',  ( -0.04750000000000064587, 0.0000000000000000000, 1.500000000000000222 ) ) ;
#6 = ORIENTED_EDGE ( 'NONE', *, *, #318, .T. ) ;
#7 = DIRECTION ( 'NONE',  ( 1.000000000000000000, 0.0000000000000000000, 0.0000000000000000000 ) ) ;
#8 = VERTEX_POINT ( 'NONE', #306 ) ;
#9 = LINE ( 'NONE', #293, #254 ) ;
#10 = EDGE_CURVE ( 'NONE', #94, #316, #154, .T. ) ;
#11 = DIRECTION ( 'NONE',  ( 1.000000000000000000, 0.0000000000000000000, 0.0000000000000000000 ) ) ;
#12 = SHAPE_DEFINITION_REPRESENTATION ( #223, #136 ) ;
#13 = VERTEX_POINT ( 'NONE', #5 ) ;
#14 = FACE_OUTER_BOUND ( 'NONE', #279, .T. ) ;
#15 = AXIS2_PLACEMENT_3D ( 'NONE', #166, #267, #313 ) ;
#16 = PRODUCT_DEFINITION_FORMATION_WITH_SPECIFIED_SOURCE ( 'ANY', '', #105, .NOT_KNOWN. ) ;
#17 = ORIENTED_EDGE ( 'NONE', *, *, #10, .F. ) ;
#18 = LINE ( 'NONE', #93, #112 ) ;
#19 = DIRECTION ( 'NONE',  ( -1.000000000000000000, 0.0000000000000000000, 1.224646799147353454E-16 ) ) ;
#20 = ORIENTED_EDGE ( 'NONE', *, *, #84, .T. ) ;
#21 = EDGE_CURVE ( 'NONE', #13, #94, #142, .T. ) ;
#22 = DIRECTION ( 'NONE',  ( -0.0000000000000000000, -0.0000000000000000000, -1.000000000000000000 ) ) ;
#23 = DIRECTION ( 'NONE',  ( 0.0000000000000000000, 0.0000000000000000000, 1.000000000000000000 ) ) ;
#24 = VERTEX_POINT ( 'NONE', #281 ) ;
#25 = ORIENTED_EDGE ( 'NONE', *, *, #78, .F. ) ;
#26 = PRODUCT_DEFINITION_CONTEXT ( 'detailed design', #180, 'design' ) ;
#27 = COLOUR_RGB ( '',0.7921568627450980005, 0.8196078431372548767, 0.9333333333333333481 ) ;
#28 =( GEOMETRIC_REPRESENTATION_CONTEXT ( 3 ) GLOBAL_UNCERTAINTY_ASSIGNED_CONTEXT ( ( #312 ) ) GLOBAL_UNIT_ASSIGNED_CONTEXT ( ( #140, #258, #213 ) ) REPRESENTATION_CONTEXT ( 'NONE', 'WORKASPACE' ) );
#29 = MANIFOLD_SOLID_BREP ( 'Fillet1', #83 ) ;
#30 = CARTESIAN_POINT ( 'NONE',  ( 4.369488833579652901E-17, 0.0000000000000000000, 0.3567958399615186460 ) ) ;
#31 = ORIENTED_EDGE ( 'NONE', *, *, #294, .F. ) ;
#32 = CARTESIAN_POINT ( 'NONE',  ( 0.006993000000000007023, 0.0000000000000000000, 0.04200000000000000955 ) ) ;
#33 = AXIS2_PLACEMENT_3D ( 'NONE', #30, #234, #60 ) ;
#34 = DIRECTION ( 'NONE',  ( 1.000000000000000000, 0.0000000000000000000, 0.0000000000000000000 ) ) ;
#35 = LINE ( 'NONE', #216, #210 ) ;
#36 = LENGTH_MEASURE_WITH_UNIT ( LENGTH_MEASURE( 0.02539999999999999897 ), #64 );
#37 = ADVANCED_FACE ( 'NONE', ( #253 ), #208, .T. ) ;
#38 = LINE ( 'NONE', #32, #311 ) ;
#39 = CIRCLE ( 'NONE', #225, 0.06250000000000002776 ) ;
#40 = CARTESIAN_POINT ( 'NONE',  ( 5.143516556418885177E-18, 0.0000000000000000000, 0.04200000000000000955 ) ) ;
#41 = VECTOR ( 'NONE', #54, 39.37007874015747433 ) ;
#42 = ORIENTED_EDGE ( 'NONE', *, *, #1, .F. ) ;
#43 = DIRECTION ( 'NONE',  ( -1.224646799147353454E-16, -0.0000000000000000000, -1.000000000000000000 ) ) ;
#44 = ORIENTED_EDGE ( 'NONE', *, *, #21, .T. ) ;
#45 = ADVANCED_FACE ( 'NONE', ( #275 ), #122, .T. ) ;
#46 = CIRCLE ( 'NONE', #33, 0.06250000000000002776 ) ;
#47 =( LENGTH_UNIT ( ) NAMED_UNIT ( * ) SI_UNIT ( $, .METRE. ) );
#48 = DIRECTION ( 'NONE',  ( -1.224646799147353454E-16, -0.0000000000000000000, -1.000000000000000000 ) ) ;
#49 = DIMENSIONAL_EXPONENTS ( 1.000000000000000000, 0.0000000000000000000, 0.0000000000000000000, 0.0000000000000000000, 0.0000000000000000000, 0.0000000000000000000, 0.0000000000000000000 ) ;
#50 = FILL_AREA_STYLE ('',( #228 ) ) ;
#51 = EDGE_CURVE ( 'NONE', #174, #276, #76, .T. ) ;
#52 = CIRCLE ( 'NONE', #226, 0.006993000000000000951 ) ;
#53 = DIRECTION ( 'NONE',  ( -1.000000000000000000, 0.0000000000000000000, 0.0000000000000000000 ) ) ;
#54 = DIRECTION ( 'NONE',  ( -0.1736481776669311639, 2.126576849575783008E-17, 0.9848077530122080203 ) ) ;
#55 = AXIS2_PLACEMENT_3D ( 'NONE', #290, #160, #58 ) ;
#56 = FACE_OUTER_BOUND ( 'NONE', #251, .T. ) ;
#57 = PRODUCT_CONTEXT ( 'NONE', #86, 'mechanical' ) ;
#58 = DIRECTION ( 'NONE',  ( -1.000000000000000000, 0.0000000000000000000, 1.525994741205638118E-16 ) ) ;
#59 = ORIENTED_EDGE ( 'NONE', *, *, #323, .F. ) ;
#60 = DIRECTION ( 'NONE',  ( 1.000000000000000000, 0.0000000000000000000, 0.0000000000000000000 ) ) ;
#61 = AXIS2_PLACEMENT_3D ( 'NONE', #163, #264, #11 ) ;
#62 = DIRECTION ( 'NONE',  ( -1.000000000000000000, 0.0000000000000000000, 0.0000000000000000000 ) ) ;
#63 = DIRECTION ( 'NONE',  ( 0.0000000000000000000, 0.0000000000000000000, -1.000000000000000000 ) ) ;
#64 =( LENGTH_UNIT ( ) NAMED_UNIT ( * ) SI_UNIT ( $, .METRE. ) );
#65 = EDGE_CURVE ( 'NONE', #94, #13, #292, .T. ) ;
#66 = EDGE_LOOP ( 'NONE', ( #17, #256, #107, #296 ) ) ;
#67 = CARTESIAN_POINT ( 'NONE',  ( 0.0000000000000000000, 0.0000000000000000000, 0.0000000000000000000 ) ) ;
#68 = VECTOR ( 'NONE', #124, 39.37007874015748854 ) ;
#69 = AXIS2_PLACEMENT_3D ( 'NONE', #230, #113, #63 ) ;
#70 =( NAMED_UNIT ( * ) PLANE_ANGLE_UNIT ( ) SI_UNIT ( $, .RADIAN. ) );
#71 = ADVANCED_FACE ( 'NONE', ( #56 ), #131, .T. ) ;
#72 = EDGE_LOOP ( 'NONE', ( #44, #241 ) ) ;
#73 = FILL_AREA_STYLE_COLOUR ( '', #285 ) ;
#74 = DIRECTION ( 'NONE',  ( 1.000000000000000000, 0.0000000000000000000, 0.0000000000000000000 ) ) ;
#75 = CARTESIAN_POINT ( 'NONE',  ( -0.006992999999999996615, 8.563955066437442745E-19, 0.04200000000000000955 ) ) ;
#76 = CIRCLE ( 'NONE', #127, 0.06250000000000002776 ) ;
#77 = CARTESIAN_POINT ( 'NONE',  ( 0.0000000000000000000, 0.0000000000000000000, 1.500000000000000222 ) ) ;
#78 = EDGE_CURVE ( 'NONE', #181, #174, #38, .T. ) ;
#79 = ORIENTED_EDGE ( 'NONE', *, *, #78, .T. ) ;
#80 = CONICAL_SURFACE ( 'NONE', #61, 0.006993000000000001819, 0.1745329251994338637 ) ;
#81 = MECHANICAL_DESIGN_GEOMETRIC_PRESENTATION_REPRESENTATION (  '', ( #159 ), #28 ) ;
#82 = CYLINDRICAL_SURFACE ( 'NONE', #303, 0.006993000000000000951 ) ;
#83 = CLOSED_SHELL ( 'NONE', ( #45, #307, #155, #37, #299, #91, #184, #130, #71, #178, #164 ) ) ;
#84 = EDGE_CURVE ( 'NONE', #316, #174, #9, .T. ) ;
#85 = DIRECTION ( 'NONE',  ( -1.224646799147353454E-16, -0.0000000000000000000, -1.000000000000000000 ) ) ;
#86 = APPLICATION_CONTEXT ( 'automotive_design' ) ;
#87 = DIRECTION ( 'NONE',  ( -0.0000000000000000000, -0.0000000000000000000, -1.000000000000000000 ) ) ;
#88 = DIRECTION ( 'NONE',  ( 1.000000000000000000, 0.0000000000000000000, 0.0000000000000000000 ) ) ;
#89 = SPHERICAL_SURFACE ( 'NONE', #2, 0.006993000000000000084 ) ;
#90 = PLANE ( 'NONE',  #247 ) ;
#91 = ADVANCED_FACE ( 'NONE', ( #310 ), #237, .T. ) ;
#92 = ORIENTED_EDGE ( 'NONE', *, *, #304, .T. ) ;
#93 = CARTESIAN_POINT ( 'NONE',  ( -0.06250000000000002776, 0.0000000000000000000, 1.500000000000000222 ) ) ;
#94 = VERTEX_POINT ( 'NONE', #189 ) ;
#95 = CARTESIAN_POINT ( 'NONE',  ( 0.0000000000000000000, 0.0000000000000000000, 1.485000000000000764 ) ) ;
#96 = AXIS2_PLACEMENT_3D ( 'NONE', #298, #246, #143 ) ;
#97 = ORIENTED_EDGE ( 'NONE', *, *, #1, .T. ) ;
#98 = DIRECTION ( 'NONE',  ( 1.224646799147353454E-16, 0.0000000000000000000, 1.000000000000000000 ) ) ;
#99 = DIRECTION ( 'NONE',  ( 1.000000000000000000, 0.0000000000000000000, 0.0000000000000000000 ) ) ;
#100 = DIMENSIONAL_EXPONENTS ( 1.000000000000000000, 0.0000000000000000000, 0.0000000000000000000, 0.0000000000000000000, 0.0000000000000000000, 0.0000000000000000000, 0.0000000000000000000 ) ;
#101 = CARTESIAN_POINT ( 'NONE',  ( 8.563955066437441783E-19, 0.0000000000000000000, 0.006993000000000000084 ) ) ;
#102 = ORIENTED_EDGE ( 'NONE', *, *, #294, .T. ) ;
#103 = CIRCLE ( 'NONE', #222, 0.06250000000000002776 ) ;
#104 = LINE ( 'NONE', #75, #41 ) ;
#105 = PRODUCT ( 'Micro_BMR-014-2X', 'Micro_BMR-014-2X', '', ( #57 ) ) ;
#106 = CARTESIAN_POINT ( 'NONE',  ( 8.563955066437441783E-19, 0.0000000000000000000, 0.006993000000000000084 ) ) ;
#107 = ORIENTED_EDGE ( 'NONE', *, *, #168, .T. ) ;
#108 = CIRCLE ( 'NONE', #69, 0.006993000000000000084 ) ;
#109 = PRODUCT_DEFINITION ( 'UNKNOWN', '', #16, #26 ) ;
#110 = ORIENTED_EDGE ( 'NONE', *, *, #266, .F. ) ;
#111 = UNCERTAINTY_MEASURE_WITH_UNIT (LENGTH_MEASURE( 1.000000000000000082E-05 ), #197, 'distance_accuracy_value', 'NONE');
#112 = VECTOR ( 'NONE', #22, 39.37007874015748143 ) ;
#113 = DIRECTION ( 'NONE',  ( 0.0000000000000000000, -1.000000000000000000, 0.0000000000000000000 ) ) ;
#114 = EDGE_LOOP ( 'NONE', ( #186, #220, #287, #273 ) ) ;
#115 = DIRECTION ( 'NONE',  ( 0.0000000000000000000, 0.0000000000000000000, -1.000000000000000000 ) ) ;
#116 = DIRECTION ( 'NONE',  ( 1.224646799147353454E-16, 0.0000000000000000000, 1.000000000000000000 ) ) ;
#117 = SURFACE_SIDE_STYLE ('',( #235 ) ) ;
#118 = CARTESIAN_POINT ( 'NONE',  ( 0.0000000000000000000, 0.0000000000000000000, 1.485000000000000764 ) ) ;
#119 = PRESENTATION_STYLE_ASSIGNMENT (( #295 ) ) ;
#120 = CARTESIAN_POINT ( 'NONE',  ( 8.563955066437441783E-19, 0.0000000000000000000, 0.006993000000000000084 ) ) ;
#121 = PRESENTATION_LAYER_ASSIGNMENT (  '', '', ( #159 ) ) ;
#122 = SPHERICAL_SURFACE ( 'NONE', #185, 0.006993000000000000084 ) ;
#123 = DIMENSIONAL_EXPONENTS ( 1.000000000000000000, 0.0000000000000000000, 0.0000000000000000000, 0.0000000000000000000, 0.0000000000000000000, 0.0000000000000000000, 0.0000000000000000000 ) ;
#124 = DIRECTION ( 'NONE',  ( 0.7071067811865462405, 8.659560562354916834E-17, -0.7071067811865486830 ) ) ;
#125 = DIRECTION ( 'NONE',  ( 1.000000000000000000, 0.0000000000000000000, 0.0000000000000000000 ) ) ;
#126 = EDGE_CURVE ( 'NONE', #316, #268, #103, .T. ) ;
#127 = AXIS2_PLACEMENT_3D ( 'NONE', #128, #48, #148 ) ;
#128 = CARTESIAN_POINT ( 'NONE',  ( 4.369488833579652901E-17, 0.0000000000000000000, 0.3567958399615186460 ) ) ;
#129 =( NAMED_UNIT ( * ) PLANE_ANGLE_UNIT ( ) SI_UNIT ( $, .RADIAN. ) );
#130 = ADVANCED_FACE ( 'NONE', ( #265 ), #157, .T. ) ;
#131 = CONICAL_SURFACE ( 'NONE', #239, 0.006993000000000001819, 0.1745329251994338637 ) ;
#132 = VERTEX_POINT ( 'NONE', #233 ) ;
#133 = DIRECTION ( 'NONE',  ( 1.000000000000000000, 0.0000000000000000000, -0.0000000000000000000 ) ) ;
#134 = CIRCLE ( 'NONE', #171, 0.006993000000000000084 ) ;
#135 = CARTESIAN_POINT ( 'NONE',  ( 0.0000000000000000000, 0.0000000000000000000, 1.500000000000000222 ) ) ;
#136 = ADVANCED_BREP_SHAPE_REPRESENTATION ( 'Micro_BMR-014-2X', ( #29, #262 ), #187 ) ;
#137 = DIRECTION ( 'NONE',  ( 1.000000000000000000, 0.0000000000000000000, 0.0000000000000000000 ) ) ;
#138 = ORIENTED_EDGE ( 'NONE', *, *, #286, .T. ) ;
#139 = CARTESIAN_POINT ( 'NONE',  ( 5.143516556418885177E-18, 0.0000000000000000000, 0.04200000000000000955 ) ) ;
#140 =( CONVERSION_BASED_UNIT ( 'INCH', #36 ) LENGTH_UNIT ( ) NAMED_UNIT ( #123 ) );
#141 = CARTESIAN_POINT ( 'NONE',  ( 0.0000000000000000000, 0.0000000000000000000, 1.500000000000000222 ) ) ;
#142 = CIRCLE ( 'NONE', #153, 0.04750000000000064587 ) ;
#143 = DIRECTION ( 'NONE',  ( -1.000000000000000000, 0.0000000000000000000, 0.0000000000000000000 ) ) ;
#144 = EDGE_CURVE ( 'NONE', #132, #8, #215, .T. ) ;
#145 = ORIENTED_EDGE ( 'NONE', *, *, #318, .F. ) ;
#146 = ORIENTED_EDGE ( 'NONE', *, *, #126, .T. ) ;
#147 = FACE_OUTER_BOUND ( 'NONE', #172, .T. ) ;
#148 = DIRECTION ( 'NONE',  ( 1.000000000000000000, 0.0000000000000000000, 0.0000000000000000000 ) ) ;
#149 = EDGE_CURVE ( 'NONE', #276, #174, #46, .T. ) ;
#150 = SURFACE_STYLE_USAGE ( .BOTH. , #152 ) ;
#151 = ORIENTED_EDGE ( 'NONE', *, *, #144, .F. ) ;
#152 = SURFACE_SIDE_STYLE ('',( #280 ) ) ;
#153 = AXIS2_PLACEMENT_3D ( 'NONE', #229, #183, #204 ) ;
#154 = LINE ( 'NONE', #282, #68 ) ;
#155 = ADVANCED_FACE ( 'NONE', ( #182 ), #80, .T. ) ;
#156 = PRESENTATION_STYLE_ASSIGNMENT (( #150 ) ) ;
#157 = CONICAL_SURFACE ( 'NONE', #170, 0.04750000000000064587, 0.7853981633974466137 ) ;
#158 = EDGE_LOOP ( 'NONE', ( #227, #146, #92, #161 ) ) ;
#159 = STYLED_ITEM ( 'NONE', ( #119 ), #136 ) ;
#160 = DIRECTION ( 'NONE',  ( 1.224646799147353454E-16, 0.0000000000000000000, 1.000000000000000000 ) ) ;
#161 = ORIENTED_EDGE ( 'NONE', *, *, #51, .F. ) ;
#162 = PRESENTATION_LAYER_ASSIGNMENT (  '', '', ( #269 ) ) ;
#163 = CARTESIAN_POINT ( 'NONE',  ( 5.143516556418885177E-18, 0.0000000000000000000, 0.04200000000000000955 ) ) ;
#164 = ADVANCED_FACE ( 'NONE', ( #4 ), #89, .T. ) ;
#165 = DIRECTION ( 'NONE',  ( 0.1736481776669313581, 0.0000000000000000000, 0.9848077530122077983 ) ) ;
#166 = CARTESIAN_POINT ( 'NONE',  ( 5.143516556418885177E-18, 0.0000000000000000000, 0.04200000000000000955 ) ) ;
#167 = ORIENTED_EDGE ( 'NONE', *, *, #323, .T. ) ;
#168 = EDGE_CURVE ( 'NONE', #13, #268, #35, .T. ) ;
#169 = CARTESIAN_POINT ( 'NONE',  ( 0.006993000000000000951, 8.563955066437441783E-19, -8.563955066437444671E-19 ) ) ;
#170 = AXIS2_PLACEMENT_3D ( 'NONE', #135, #115, #62 ) ;
#171 = AXIS2_PLACEMENT_3D ( 'NONE', #219, #270, #277 ) ;
#172 = EDGE_LOOP ( 'NONE', ( #271, #167, #263, #151 ) ) ;
#173 = CYLINDRICAL_SURFACE ( 'NONE', #96, 0.06250000000000002776 ) ;
#174 = VERTEX_POINT ( 'NONE', #218 ) ;
#175 = CARTESIAN_POINT ( 'NONE',  ( 0.06250000000000002776, 7.654042494670959086E-18, 1.485000000000000764 ) ) ;
#176 = FACE_OUTER_BOUND ( 'NONE', #236, .T. ) ;
#177 =( CONVERSION_BASED_UNIT ( 'INCH', #3 ) LENGTH_UNIT ( ) NAMED_UNIT ( #49 ) );
#178 = ADVANCED_FACE ( 'NONE', ( #14 ), #82, .T. ) ;
#179 = EDGE_LOOP ( 'NONE', ( #145, #209, #255 ) ) ;
#180 = APPLICATION_CONTEXT ( 'automotive_design' ) ;
#181 = VERTEX_POINT ( 'NONE', #192 ) ;
#182 = FACE_OUTER_BOUND ( 'NONE', #325, .T. ) ;
#183 = DIRECTION ( 'NONE',  ( 0.0000000000000000000, 0.0000000000000000000, 1.000000000000000000 ) ) ;
#184 = ADVANCED_FACE ( 'NONE', ( #321 ), #90, .T. ) ;
#185 = AXIS2_PLACEMENT_3D ( 'NONE', #101, #202, #74 ) ;
#186 = ORIENTED_EDGE ( 'NONE', *, *, #65, .F. ) ;
#187 =( GEOMETRIC_REPRESENTATION_CONTEXT ( 3 ) GLOBAL_UNCERTAINTY_ASSIGNED_CONTEXT ( ( #111 ) ) GLOBAL_UNIT_ASSIGNED_CONTEXT ( ( #197, #70, #302 ) ) REPRESENTATION_CONTEXT ( 'NONE', 'WORKASPACE' ) );
#188 = DIRECTION ( 'NONE',  ( -1.000000000000000000, 0.0000000000000000000, 1.224646799147353454E-16 ) ) ;
#189 = CARTESIAN_POINT ( 'NONE',  ( 0.04750000000000064587, 6.735557395310483192E-18, 1.500000000000000222 ) ) ;
#190 = EDGE_CURVE ( 'NONE', #243, #24, #108, .T. ) ;
#191 = VECTOR ( 'NONE', #291, 39.37007874015748143 ) ;
#192 = CARTESIAN_POINT ( 'NONE',  ( 0.006993000000000007023, 0.0000000000000000000, 0.04200000000000000955 ) ) ;
#193 = EDGE_LOOP ( 'NONE', ( #289, #6, #110 ) ) ;
#194 = CARTESIAN_POINT ( 'NONE',  ( 0.0000000000000000000, 0.0000000000000000000, 1.500000000000000222 ) ) ;
#195 = LINE ( 'NONE', #169, #309 ) ;
#196 = ORIENTED_EDGE ( 'NONE', *, *, #206, .F. ) ;
#197 =( CONVERSION_BASED_UNIT ( 'INCH', #324 ) LENGTH_UNIT ( ) NAMED_UNIT ( #100 ) );
#198 =( GEOMETRIC_REPRESENTATION_CONTEXT ( 3 ) GLOBAL_UNCERTAINTY_ASSIGNED_CONTEXT ( ( #305 ) ) GLOBAL_UNIT_ASSIGNED_CONTEXT ( ( #177, #129, #205 ) ) REPRESENTATION_CONTEXT ( 'NONE', 'WORKASPACE' ) );
#199 = AXIS2_PLACEMENT_3D ( 'NONE', #67, #43, #19 ) ;
#200 = DIRECTION ( 'NONE',  ( -1.000000000000000000, 0.0000000000000000000, 0.0000000000000000000 ) ) ;
#201 =( LENGTH_UNIT ( ) NAMED_UNIT ( * ) SI_UNIT ( $, .METRE. ) );
#202 = DIRECTION ( 'NONE',  ( 0.0000000000000000000, 1.000000000000000000, 0.0000000000000000000 ) ) ;
#203 = CIRCLE ( 'NONE', #55, 0.006993000000000000951 ) ;
#204 = DIRECTION ( 'NONE',  ( 1.000000000000000000, 0.0000000000000000000, 0.0000000000000000000 ) ) ;
#205 =( NAMED_UNIT ( * ) SI_UNIT ( $, .STERADIAN. ) SOLID_ANGLE_UNIT ( ) );
#206 = EDGE_CURVE ( 'NONE', #132, #181, #278, .T. ) ;
#207 = DIRECTION ( 'NONE',  ( -0.0000000000000000000, -0.0000000000000000000, -1.000000000000000000 ) ) ;
#208 = CONICAL_SURFACE ( 'NONE', #217, 0.04750000000000064587, 0.7853981633974466137 ) ;
#209 = ORIENTED_EDGE ( 'NONE', *, *, #190, .T. ) ;
#210 = VECTOR ( 'NONE', #317, 39.37007874015748854 ) ;
#211 = ORIENTED_EDGE ( 'NONE', *, *, #231, .T. ) ;
#212 = DIRECTION ( 'NONE',  ( 0.0000000000000000000, 0.0000000000000000000, -1.000000000000000000 ) ) ;
#213 =( NAMED_UNIT ( * ) SI_UNIT ( $, .STERADIAN. ) SOLID_ANGLE_UNIT ( ) );
#214 = ORIENTED_EDGE ( 'NONE', *, *, #51, .T. ) ;
#215 = LINE ( 'NONE', #314, #191 ) ;
#216 = CARTESIAN_POINT ( 'NONE',  ( -0.04750000000000064587, 0.0000000000000000000, 1.500000000000000222 ) ) ;
#217 = AXIS2_PLACEMENT_3D ( 'NONE', #77, #301, #53 ) ;
#218 = CARTESIAN_POINT ( 'NONE',  ( 0.06250000000000006939, 7.654042494670963708E-18, 0.3567958399615186460 ) ) ;
#219 = CARTESIAN_POINT ( 'NONE',  ( 8.563955066437441783E-19, 0.0000000000000000000, 0.006993000000000000084 ) ) ;
#220 = ORIENTED_EDGE ( 'NONE', *, *, #10, .T. ) ;
#221 = APPLICATION_PROTOCOL_DEFINITION ( 'draft international standard', 'automotive_design', 1998, #86 ) ;
#222 = AXIS2_PLACEMENT_3D ( 'NONE', #118, #212, #137 ) ;
#223 = PRODUCT_DEFINITION_SHAPE ( 'NONE', 'NONE',  #109 ) ;
#224 = ORIENTED_EDGE ( 'NONE', *, *, #149, .F. ) ;
#225 = AXIS2_PLACEMENT_3D ( 'NONE', #95, #300, #99 ) ;
#226 = AXIS2_PLACEMENT_3D ( 'NONE', #120, #98, #240 ) ;
#227 = ORIENTED_EDGE ( 'NONE', *, *, #84, .F. ) ;
#228 = FILL_AREA_STYLE_COLOUR ( '', #27 ) ;
#229 = CARTESIAN_POINT ( 'NONE',  ( 0.0000000000000000000, 0.0000000000000000000, 1.500000000000000222 ) ) ;
#230 = CARTESIAN_POINT ( 'NONE',  ( 8.563955066437441783E-19, 0.0000000000000000000, 0.006993000000000000084 ) ) ;
#231 = EDGE_CURVE ( 'NONE', #8, #24, #203, .T. ) ;
#232 = CIRCLE ( 'NONE', #252, 0.006993000000000001819 ) ;
#233 = CARTESIAN_POINT ( 'NONE',  ( -0.006992999999999996615, 4.255219000657352499E-18, 0.04200000000000000955 ) ) ;
#234 = DIRECTION ( 'NONE',  ( -1.224646799147353454E-16, -0.0000000000000000000, -1.000000000000000000 ) ) ;
#235 = SURFACE_STYLE_FILL_AREA ( #261 ) ;
#236 = EDGE_LOOP ( 'NONE', ( #138, #20, #224, #248 ) ) ;
#237 = CYLINDRICAL_SURFACE ( 'NONE', #308, 0.06250000000000002776 ) ;
#238 = DIRECTION ( 'NONE',  ( 0.0000000000000000000, 0.0000000000000000000, 1.000000000000000000 ) ) ;
#239 = AXIS2_PLACEMENT_3D ( 'NONE', #139, #116, #34 ) ;
#240 = DIRECTION ( 'NONE',  ( -1.000000000000000000, 0.0000000000000000000, 1.525994741205638118E-16 ) ) ;
#241 = ORIENTED_EDGE ( 'NONE', *, *, #65, .T. ) ;
#242 = CYLINDRICAL_SURFACE ( 'NONE', #199, 0.006993000000000000951 ) ;
#243 = VERTEX_POINT ( 'NONE', #274 ) ;
#244 = DIRECTION ( 'NONE',  ( -1.224646799147353454E-16, -0.0000000000000000000, -1.000000000000000000 ) ) ;
#245 = ORIENTED_EDGE ( 'NONE', *, *, #149, .T. ) ;
#246 = DIRECTION ( 'NONE',  ( -0.0000000000000000000, -0.0000000000000000000, -1.000000000000000000 ) ) ;
#247 = AXIS2_PLACEMENT_3D ( 'NONE', #194, #297, #133 ) ;
#248 = ORIENTED_EDGE ( 'NONE', *, *, #304, .F. ) ;
#249 = DIRECTION ( 'NONE',  ( -1.224646799147353454E-16, -0.0000000000000000000, -1.000000000000000000 ) ) ;
#250 = CARTESIAN_POINT ( 'NONE',  ( 0.0000000000000000000, 0.0000000000000000000, 1.500000000000000222 ) ) ;
#251 = EDGE_LOOP ( 'NONE', ( #42, #31, #79, #214 ) ) ;
#252 = AXIS2_PLACEMENT_3D ( 'NONE', #40, #244, #200 ) ;
#253 = FACE_OUTER_BOUND ( 'NONE', #114, .T. ) ;
#254 = VECTOR ( 'NONE', #87, 39.37007874015748143 ) ;
#255 = ORIENTED_EDGE ( 'NONE', *, *, #231, .F. ) ;
#256 = ORIENTED_EDGE ( 'NONE', *, *, #21, .F. ) ;
#257 = CARTESIAN_POINT ( 'NONE',  ( 0.0000000000000000000, 0.0000000000000000000, 0.0000000000000000000 ) ) ;
#258 =( NAMED_UNIT ( * ) PLANE_ANGLE_UNIT ( ) SI_UNIT ( $, .RADIAN. ) );
#259 = DIRECTION ( 'NONE',  ( -1.000000000000000000, 0.0000000000000000000, 0.0000000000000000000 ) ) ;
#260 = MECHANICAL_DESIGN_GEOMETRIC_PRESENTATION_REPRESENTATION (  '', ( #269 ), #198 ) ;
#261 = FILL_AREA_STYLE ('',( #73 ) ) ;
#262 = AXIS2_PLACEMENT_3D ( 'NONE', #315, #238, #88 ) ;
#263 = ORIENTED_EDGE ( 'NONE', *, *, #266, .T. ) ;
#264 = DIRECTION ( 'NONE',  ( 1.224646799147353454E-16, 0.0000000000000000000, 1.000000000000000000 ) ) ;
#265 = FACE_OUTER_BOUND ( 'NONE', #66, .T. ) ;
#266 = EDGE_CURVE ( 'NONE', #24, #8, #52, .T. ) ;
#267 = DIRECTION ( 'NONE',  ( -1.224646799147353454E-16, -0.0000000000000000000, -1.000000000000000000 ) ) ;
#268 = VERTEX_POINT ( 'NONE', #322 ) ;
#269 = STYLED_ITEM ( 'NONE', ( #156 ), #29 ) ;
#270 = DIRECTION ( 'NONE',  ( 1.224646799147353207E-16, 1.000000000000000000, -0.0000000000000000000 ) ) ;
#271 = ORIENTED_EDGE ( 'NONE', *, *, #206, .T. ) ;
#272 = CARTESIAN_POINT ( 'NONE',  ( -0.06249999999999997918, 0.0000000000000000000, 0.3567958399615186460 ) ) ;
#273 = ORIENTED_EDGE ( 'NONE', *, *, #168, .F. ) ;
#274 = CARTESIAN_POINT ( 'NONE',  ( 1.284593259965616171E-18, 0.0000000000000000000, 0.0000000000000000000 ) ) ;
#275 = FACE_OUTER_BOUND ( 'NONE', #193, .T. ) ;
#276 = VERTEX_POINT ( 'NONE', #272 ) ;
#277 = DIRECTION ( 'NONE',  ( -1.000000000000000000, 1.224646799147353207E-16, 0.0000000000000000000 ) ) ;
#278 = CIRCLE ( 'NONE', #15, 0.006993000000000001819 ) ;
#279 = EDGE_LOOP ( 'NONE', ( #59, #102, #320, #211 ) ) ;
#280 = SURFACE_STYLE_FILL_AREA ( #50 ) ;
#281 = CARTESIAN_POINT ( 'NONE',  ( 0.006993000000000001819, 8.563955066437441783E-19, 0.006992999999999998349 ) ) ;
#282 = CARTESIAN_POINT ( 'NONE',  ( 0.04750000000000064587, 5.817072295950006528E-18, 1.500000000000000222 ) ) ;
#283 = PRODUCT_RELATED_PRODUCT_CATEGORY ( 'part', '', ( #105 ) ) ;
#284 = AXIS2_PLACEMENT_3D ( 'NONE', #250, #23, #125 ) ;
#285 = COLOUR_RGB ( '',0.7921568627450980005, 0.8196078431372548767, 0.9333333333333333481 ) ;
#286 = EDGE_CURVE ( 'NONE', #268, #316, #39, .T. ) ;
#287 = ORIENTED_EDGE ( 'NONE', *, *, #286, .F. ) ;
#288 = DIRECTION ( 'NONE',  ( 0.0000000000000000000, 1.000000000000000000, 0.0000000000000000000 ) ) ;
#289 = ORIENTED_EDGE ( 'NONE', *, *, #190, .F. ) ;
#290 = CARTESIAN_POINT ( 'NONE',  ( 8.563955066437441783E-19, 0.0000000000000000000, 0.006993000000000000084 ) ) ;
#291 = DIRECTION ( 'NONE',  ( -1.224646799147353454E-16, -0.0000000000000000000, -1.000000000000000000 ) ) ;
#292 = CIRCLE ( 'NONE', #284, 0.04750000000000064587 ) ;
#293 = CARTESIAN_POINT ( 'NONE',  ( 0.06250000000000002776, 7.654042494670959086E-18, 1.500000000000000222 ) ) ;
#294 = EDGE_CURVE ( 'NONE', #181, #132, #232, .T. ) ;
#295 = SURFACE_STYLE_USAGE ( .BOTH. , #117 ) ;
#296 = ORIENTED_EDGE ( 'NONE', *, *, #126, .F. ) ;
#297 = DIRECTION ( 'NONE',  ( 0.0000000000000000000, 0.0000000000000000000, 1.000000000000000000 ) ) ;
#298 = CARTESIAN_POINT ( 'NONE',  ( 0.0000000000000000000, 0.0000000000000000000, 1.500000000000000222 ) ) ;
#299 = ADVANCED_FACE ( 'NONE', ( #176 ), #173, .T. ) ;
#300 = DIRECTION ( 'NONE',  ( 0.0000000000000000000, 0.0000000000000000000, -1.000000000000000000 ) ) ;
#301 = DIRECTION ( 'NONE',  ( 0.0000000000000000000, 0.0000000000000000000, -1.000000000000000000 ) ) ;
#302 =( NAMED_UNIT ( * ) SI_UNIT ( $, .STERADIAN. ) SOLID_ANGLE_UNIT ( ) );
#303 = AXIS2_PLACEMENT_3D ( 'NONE', #257, #85, #188 ) ;
#304 = EDGE_CURVE ( 'NONE', #268, #276, #18, .T. ) ;
#305 = UNCERTAINTY_MEASURE_WITH_UNIT (LENGTH_MEASURE( 1.000000000000000082E-05 ), #177, 'distance_accuracy_value', 'NONE');
#306 = CARTESIAN_POINT ( 'NONE',  ( -0.006993000000000000084, 0.0000000000000000000, 0.006993000000000000951 ) ) ;
#307 = ADVANCED_FACE ( 'NONE', ( #147 ), #242, .T. ) ;
#308 = AXIS2_PLACEMENT_3D ( 'NONE', #141, #207, #259 ) ;
#309 = VECTOR ( 'NONE', #249, 39.37007874015748143 ) ;
#310 = FACE_OUTER_BOUND ( 'NONE', #158, .T. ) ;
#311 = VECTOR ( 'NONE', #165, 39.37007874015748143 ) ;
#312 = UNCERTAINTY_MEASURE_WITH_UNIT (LENGTH_MEASURE( 1.000000000000000082E-05 ), #140, 'distance_accuracy_value', 'NONE');
#313 = DIRECTION ( 'NONE',  ( -1.000000000000000000, 0.0000000000000000000, 0.0000000000000000000 ) ) ;
#314 = CARTESIAN_POINT ( 'NONE',  ( -0.006993000000000000951, 0.0000000000000000000, 8.563955066437444671E-19 ) ) ;
#315 = CARTESIAN_POINT ( 'NONE',  ( 0.0000000000000000000, 0.0000000000000000000, 0.0000000000000000000 ) ) ;
#316 = VERTEX_POINT ( 'NONE', #175 ) ;
#317 = DIRECTION ( 'NONE',  ( -0.7071067811865462405, 0.0000000000000000000, -0.7071067811865486830 ) ) ;
#318 = EDGE_CURVE ( 'NONE', #243, #8, #134, .T. ) ;
#319 = APPLICATION_PROTOCOL_DEFINITION ( 'draft international standard', 'automotive_design', 1998, #180 ) ;
#320 = ORIENTED_EDGE ( 'NONE', *, *, #144, .T. ) ;
#321 = FACE_OUTER_BOUND ( 'NONE', #72, .T. ) ;
#322 = CARTESIAN_POINT ( 'NONE',  ( -0.06250000000000002776, 0.0000000000000000000, 1.485000000000000764 ) ) ;
#323 = EDGE_CURVE ( 'NONE', #181, #24, #195, .T. ) ;
#324 = LENGTH_MEASURE_WITH_UNIT ( LENGTH_MEASURE( 0.02539999999999999897 ), #47 );
#325 = EDGE_LOOP ( 'NONE', ( #196, #97, #245, #25 ) ) ;
ENDSEC;
END-ISO-10303-21;
