ISO-10303-21;
HEADER;
FILE_DESCRIPTION (( 'STEP AP214' ),
    '1' );
FILE_NAME ('Micro_RTCM-080-2X.STEP',
    '2021-09-03T18:26:47',
    ( '' ),
    ( '' ),
    'SwSTEP 2.0',
    'SolidWorks 2020',
    '' );
FILE_SCHEMA (( 'AUTOMOTIVE_DESIGN' ));
ENDSEC;

DATA;
#1 =( NAMED_UNIT ( * ) PLANE_ANGLE_UNIT ( ) SI_UNIT ( $, .RADIAN. ) );
#2 = EDGE_LOOP ( 'NONE', ( #40, #239, #130, #227 ) ) ;
#3 = DIRECTION ( 'NONE',  ( -1.000000000000000000, 0.0000000000000000000, 0.0000000000000000000 ) ) ;
#4 = AXIS2_PLACEMENT_3D ( 'NONE', #181, #164, #246 ) ;
#5 = FILL_AREA_STYLE ('',( #76 ) ) ;
#6 = EDGE_LOOP ( 'NONE', ( #98, #189 ) ) ;
#7 = MECHANICAL_DESIGN_GEOMETRIC_PRESENTATION_REPRESENTATION (  '', ( #19 ), #44 ) ;
#8 = ADVANCED_FACE ( 'NONE', ( #61 ), #225, .T. ) ;
#9 = ORIENTED_EDGE ( 'NONE', *, *, #59, .T. ) ;
#10 = CIRCLE ( 'NONE', #180, 0.1574804999999999955 ) ;
#11 =( GEOMETRIC_REPRESENTATION_CONTEXT ( 3 ) GLOBAL_UNCERTAINTY_ASSIGNED_CONTEXT ( ( #209 ) ) GLOBAL_UNIT_ASSIGNED_CONTEXT ( ( #171, #186, #169 ) ) REPRESENTATION_CONTEXT ( 'NONE', 'WORKASPACE' ) );
#12 = UNCERTAINTY_MEASURE_WITH_UNIT (LENGTH_MEASURE( 1.000000000000000082E-05 ), #113, 'distance_accuracy_value', 'NONE');
#13 = LINE ( 'NONE', #14, #85 ) ;
#14 = CARTESIAN_POINT ( 'NONE',  ( 0.003936999999999995191, 0.0000000000000000000, 2.480315000000000047 ) ) ;
#15 =( LENGTH_UNIT ( ) NAMED_UNIT ( * ) SI_UNIT ( $, .METRE. ) );
#16 = EDGE_CURVE ( 'NONE', #115, #192, #43, .T. ) ;
#17 = CARTESIAN_POINT ( 'NONE',  ( 0.0000000000000000000, 0.0000000000000000000, 2.480315000000000047 ) ) ;
#18 = CARTESIAN_POINT ( 'NONE',  ( -0.003936999999999995191, 4.821434448243123477E-19, 0.0000000000000000000 ) ) ;
#19 = STYLED_ITEM ( 'NONE', ( #230 ), #54 ) ;
#20 = DIRECTION ( 'NONE',  ( 0.0000000000000000000, 0.0000000000000000000, 1.000000000000000000 ) ) ;
#21 = ORIENTED_EDGE ( 'NONE', *, *, #16, .F. ) ;
#22 = ORIENTED_EDGE ( 'NONE', *, *, #92, .T. ) ;
#23 = ORIENTED_EDGE ( 'NONE', *, *, #69, .T. ) ;
#24 = EDGE_LOOP ( 'NONE', ( #172, #9, #157, #111 ) ) ;
#25 = CONICAL_SURFACE ( 'NONE', #235, 0.003936999999999995191, 0.2617993877991504625 ) ;
#26 = VECTOR ( 'NONE', #136, 39.37007874015748143 ) ;
#27 = SURFACE_SIDE_STYLE ('',( #60 ) ) ;
#28 = SURFACE_STYLE_USAGE ( .BOTH. , #27 ) ;
#29 = ORIENTED_EDGE ( 'NONE', *, *, #137, .T. ) ;
#30 = ADVANCED_FACE ( 'NONE', ( #249 ), #217, .F. ) ;
#31 = DIMENSIONAL_EXPONENTS ( 1.000000000000000000, 0.0000000000000000000, 0.0000000000000000000, 0.0000000000000000000, 0.0000000000000000000, 0.0000000000000000000, 0.0000000000000000000 ) ;
#32 = AXIS2_PLACEMENT_3D ( 'NONE', #141, #20, #232 ) ;
#33 = CARTESIAN_POINT ( 'NONE',  ( -0.1574804999999999955, 0.0000000000000000000, 1.907282856828050432 ) ) ;
#34 = DIRECTION ( 'NONE',  ( -1.000000000000000000, 0.0000000000000000000, 0.0000000000000000000 ) ) ;
#35 = DIRECTION ( 'NONE',  ( 0.0000000000000000000, 0.0000000000000000000, -1.000000000000000000 ) ) ;
#36 = CIRCLE ( 'NONE', #241, 0.1574804999999999955 ) ;
#37 = FACE_OUTER_BOUND ( 'NONE', #174, .T. ) ;
#38 = DIRECTION ( 'NONE',  ( 1.000000000000000000, 0.0000000000000000000, -0.0000000000000000000 ) ) ;
#39 = APPLICATION_CONTEXT ( 'automotive_design' ) ;
#40 = ORIENTED_EDGE ( 'NONE', *, *, #182, .T. ) ;
#41 =( LENGTH_UNIT ( ) NAMED_UNIT ( * ) SI_UNIT ( $, .METRE. ) );
#42 = CARTESIAN_POINT ( 'NONE',  ( 0.0000000000000000000, 0.0000000000000000000, 2.480315000000000047 ) ) ;
#43 = CIRCLE ( 'NONE', #74, 0.003936999999999995191 ) ;
#44 =( GEOMETRIC_REPRESENTATION_CONTEXT ( 3 ) GLOBAL_UNCERTAINTY_ASSIGNED_CONTEXT ( ( #222 ) ) GLOBAL_UNIT_ASSIGNED_CONTEXT ( ( #165, #1, #207 ) ) REPRESENTATION_CONTEXT ( 'NONE', 'WORKASPACE' ) );
#45 = VERTEX_POINT ( 'NONE', #152 ) ;
#46 = EDGE_CURVE ( 'NONE', #216, #102, #194, .T. ) ;
#47 = DIRECTION ( 'NONE',  ( -0.2588190451025217387, -3.169619151431776651E-17, -0.9659258262890679791 ) ) ;
#48 = VECTOR ( 'NONE', #183, 39.37007874015748143 ) ;
#49 = FILL_AREA_STYLE ('',( #233 ) ) ;
#50 = DIRECTION ( 'NONE',  ( 0.0000000000000000000, 0.0000000000000000000, -1.000000000000000000 ) ) ;
#51 = DIRECTION ( 'NONE',  ( 0.0000000000000000000, 0.0000000000000000000, -1.000000000000000000 ) ) ;
#52 = CARTESIAN_POINT ( 'NONE',  ( 0.003936999999999995191, 0.0000000000000000000, 0.0000000000000000000 ) ) ;
#53 = VECTOR ( 'NONE', #55, 39.37007874015748854 ) ;
#54 = ADVANCED_BREP_SHAPE_REPRESENTATION ( 'Micro_RTCM-080-2X', ( #56, #236 ), #11 ) ;
#55 = DIRECTION ( 'NONE',  ( 0.2588190451025217387, 0.0000000000000000000, 0.9659258262890679791 ) ) ;
#56 = MANIFOLD_SOLID_BREP ( 'Mirror1', #89 ) ;
#57 = DIRECTION ( 'NONE',  ( 0.0000000000000000000, 0.0000000000000000000, -1.000000000000000000 ) ) ;
#58 = VERTEX_POINT ( 'NONE', #167 ) ;
#59 = EDGE_CURVE ( 'NONE', #45, #102, #36, .T. ) ;
#60 = SURFACE_STYLE_FILL_AREA ( #49 ) ;
#61 = FACE_OUTER_BOUND ( 'NONE', #212, .T. ) ;
#62 = ORIENTED_EDGE ( 'NONE', *, *, #182, .F. ) ;
#63 = LINE ( 'NONE', #108, #48 ) ;
#64 = ADVANCED_FACE ( 'NONE', ( #147 ), #210, .T. ) ;
#65 = VECTOR ( 'NONE', #47, 39.37007874015748854 ) ;
#66 = CONICAL_SURFACE ( 'NONE', #173, 0.003936999999999995191, 0.2617993877991504625 ) ;
#67 = CARTESIAN_POINT ( 'NONE',  ( -0.1574804999999999955, 0.0000000000000000000, 2.480315000000000047 ) ) ;
#68 = CARTESIAN_POINT ( 'NONE',  ( 0.0000000000000000000, 0.0000000000000000000, 2.480315000000000047 ) ) ;
#69 = EDGE_CURVE ( 'NONE', #115, #75, #170, .T. ) ;
#70 = CARTESIAN_POINT ( 'NONE',  ( 0.003936999999999995191, 0.0000000000000000000, 0.0000000000000000000 ) ) ;
#71 = DIRECTION ( 'NONE',  ( 0.0000000000000000000, 0.0000000000000000000, 1.000000000000000000 ) ) ;
#72 = PRODUCT_CONTEXT ( 'NONE', #39, 'mechanical' ) ;
#73 = ORIENTED_EDGE ( 'NONE', *, *, #59, .F. ) ;
#74 = AXIS2_PLACEMENT_3D ( 'NONE', #138, #226, #156 ) ;
#75 = VERTEX_POINT ( 'NONE', #86 ) ;
#76 = FILL_AREA_STYLE_COLOUR ( '', #118 ) ;
#77 = LENGTH_MEASURE_WITH_UNIT ( LENGTH_MEASURE( 0.02539999999999999897 ), #41 );
#78 = ORIENTED_EDGE ( 'NONE', *, *, #237, .T. ) ;
#79 = ADVANCED_FACE ( 'NONE', ( #37 ), #25, .T. ) ;
#80 = DIMENSIONAL_EXPONENTS ( 1.000000000000000000, 0.0000000000000000000, 0.0000000000000000000, 0.0000000000000000000, 0.0000000000000000000, 0.0000000000000000000, 0.0000000000000000000 ) ;
#81 = DIRECTION ( 'NONE',  ( 0.2588190451025217387, 0.0000000000000000000, -0.9659258262890679791 ) ) ;
#82 = ADVANCED_FACE ( 'NONE', ( #244 ), #128, .T. ) ;
#83 = DIRECTION ( 'NONE',  ( 0.0000000000000000000, 0.0000000000000000000, 1.000000000000000000 ) ) ;
#84 = CIRCLE ( 'NONE', #144, 0.1574804999999999955 ) ;
#85 = VECTOR ( 'NONE', #81, 39.37007874015748854 ) ;
#86 = CARTESIAN_POINT ( 'NONE',  ( -0.1574804999999999955, 0.0000000000000000000, 0.5730321431719496150 ) ) ;
#87 = DIRECTION ( 'NONE',  ( -0.2588190451025217387, 3.169619151431776651E-17, 0.9659258262890679791 ) ) ;
#88 = CARTESIAN_POINT ( 'NONE',  ( 0.0000000000000000000, 0.0000000000000000000, 0.5730321431719496150 ) ) ;
#89 = CLOSED_SHELL ( 'NONE', ( #82, #8, #188, #64, #79, #30, #211, #206 ) ) ;
#90 = CARTESIAN_POINT ( 'NONE',  ( 0.0000000000000000000, 0.0000000000000000000, 0.0000000000000000000 ) ) ;
#91 = SURFACE_STYLE_FILL_AREA ( #5 ) ;
#92 = EDGE_CURVE ( 'NONE', #75, #58, #84, .T. ) ;
#93 = CARTESIAN_POINT ( 'NONE',  ( 0.0000000000000000000, 0.0000000000000000000, 1.907282856828050432 ) ) ;
#94 = ORIENTED_EDGE ( 'NONE', *, *, #175, .T. ) ;
#95 = AXIS2_PLACEMENT_3D ( 'NONE', #42, #190, #96 ) ;
#96 = DIRECTION ( 'NONE',  ( -1.000000000000000000, 0.0000000000000000000, 0.0000000000000000000 ) ) ;
#97 = EDGE_LOOP ( 'NONE', ( #78, #205 ) ) ;
#98 = ORIENTED_EDGE ( 'NONE', *, *, #219, .F. ) ;
#99 =( GEOMETRIC_REPRESENTATION_CONTEXT ( 3 ) GLOBAL_UNCERTAINTY_ASSIGNED_CONTEXT ( ( #12 ) ) GLOBAL_UNIT_ASSIGNED_CONTEXT ( ( #113, #150, #208 ) ) REPRESENTATION_CONTEXT ( 'NONE', 'WORKASPACE' ) );
#100 = PRESENTATION_LAYER_ASSIGNMENT (  '', '', ( #19 ) ) ;
#101 = CARTESIAN_POINT ( 'NONE',  ( 0.0000000000000000000, 0.0000000000000000000, 0.0000000000000000000 ) ) ;
#102 = VERTEX_POINT ( 'NONE', #33 ) ;
#103 = PRESENTATION_STYLE_ASSIGNMENT (( #28 ) ) ;
#104 = DIMENSIONAL_EXPONENTS ( 1.000000000000000000, 0.0000000000000000000, 0.0000000000000000000, 0.0000000000000000000, 0.0000000000000000000, 0.0000000000000000000, 0.0000000000000000000 ) ;
#105 = AXIS2_PLACEMENT_3D ( 'NONE', #101, #154, #234 ) ;
#106 = DIRECTION ( 'NONE',  ( 1.000000000000000000, 0.0000000000000000000, 0.0000000000000000000 ) ) ;
#107 = LINE ( 'NONE', #67, #26 ) ;
#108 = CARTESIAN_POINT ( 'NONE',  ( 0.1574804999999999955, 1.928579902531247412E-17, 2.480315000000000047 ) ) ;
#109 = CARTESIAN_POINT ( 'NONE',  ( 0.0000000000000000000, 0.0000000000000000000, 0.5730321431719496150 ) ) ;
#110 = LENGTH_MEASURE_WITH_UNIT ( LENGTH_MEASURE( 0.02539999999999999897 ), #203 );
#111 = ORIENTED_EDGE ( 'NONE', *, *, #175, .F. ) ;
#112 = SHAPE_DEFINITION_REPRESENTATION ( #127, #54 ) ;
#113 =( CONVERSION_BASED_UNIT ( 'INCH', #77 ) LENGTH_UNIT ( ) NAMED_UNIT ( #80 ) );
#114 = ORIENTED_EDGE ( 'NONE', *, *, #46, .T. ) ;
#115 = VERTEX_POINT ( 'NONE', #238 ) ;
#116 = DIRECTION ( 'NONE',  ( 1.000000000000000000, 0.0000000000000000000, 0.0000000000000000000 ) ) ;
#117 = PRESENTATION_LAYER_ASSIGNMENT (  '', '', ( #204 ) ) ;
#118 = COLOUR_RGB ( '',0.7921568627450980005, 0.8196078431372548767, 0.9333333333333333481 ) ;
#119 = DIRECTION ( 'NONE',  ( -0.0000000000000000000, -0.0000000000000000000, -1.000000000000000000 ) ) ;
#120 = DIRECTION ( 'NONE',  ( -1.000000000000000000, 0.0000000000000000000, 0.0000000000000000000 ) ) ;
#121 = DIRECTION ( 'NONE',  ( 0.0000000000000000000, 0.0000000000000000000, 1.000000000000000000 ) ) ;
#122 = AXIS2_PLACEMENT_3D ( 'NONE', #68, #195, #106 ) ;
#123 = DIRECTION ( 'NONE',  ( 1.000000000000000000, 0.0000000000000000000, 0.0000000000000000000 ) ) ;
#124 = LENGTH_MEASURE_WITH_UNIT ( LENGTH_MEASURE( 0.02539999999999999897 ), #15 );
#125 = SURFACE_STYLE_USAGE ( .BOTH. , #187 ) ;
#126 = EDGE_LOOP ( 'NONE', ( #229, #153, #134, #62 ) ) ;
#127 = PRODUCT_DEFINITION_SHAPE ( 'NONE', 'NONE',  #148 ) ;
#128 = CONICAL_SURFACE ( 'NONE', #122, 0.003936999999999995191, 0.2617993877991504625 ) ;
#129 = ORIENTED_EDGE ( 'NONE', *, *, #214, .F. ) ;
#130 = ORIENTED_EDGE ( 'NONE', *, *, #92, .F. ) ;
#131 = CARTESIAN_POINT ( 'NONE',  ( -0.003936999999999995191, -4.821434448243123477E-19, 2.480315000000000047 ) ) ;
#132 = CIRCLE ( 'NONE', #193, 0.003936999999999995191 ) ;
#133 = DIRECTION ( 'NONE',  ( -1.000000000000000000, 0.0000000000000000000, 0.0000000000000000000 ) ) ;
#134 = ORIENTED_EDGE ( 'NONE', *, *, #214, .T. ) ;
#135 = DIRECTION ( 'NONE',  ( -1.000000000000000000, 0.0000000000000000000, 0.0000000000000000000 ) ) ;
#136 = DIRECTION ( 'NONE',  ( -0.0000000000000000000, -0.0000000000000000000, -1.000000000000000000 ) ) ;
#137 = EDGE_CURVE ( 'NONE', #192, #58, #163, .T. ) ;
#138 = CARTESIAN_POINT ( 'NONE',  ( 0.0000000000000000000, 0.0000000000000000000, 0.0000000000000000000 ) ) ;
#139 = DIRECTION ( 'NONE',  ( -0.0000000000000000000, -0.0000000000000000000, -1.000000000000000000 ) ) ;
#140 = PLANE ( 'NONE',  #231 ) ;
#141 = CARTESIAN_POINT ( 'NONE',  ( 0.0000000000000000000, 0.0000000000000000000, 0.0000000000000000000 ) ) ;
#142 = APPLICATION_CONTEXT ( 'automotive_design' ) ;
#143 = APPLICATION_PROTOCOL_DEFINITION ( 'draft international standard', 'automotive_design', 1998, #142 ) ;
#144 = AXIS2_PLACEMENT_3D ( 'NONE', #109, #139, #198 ) ;
#145 = CIRCLE ( 'NONE', #185, 0.003936999999999995191 ) ;
#146 = EDGE_LOOP ( 'NONE', ( #155, #114, #73, #129 ) ) ;
#147 = FACE_OUTER_BOUND ( 'NONE', #24, .T. ) ;
#148 = PRODUCT_DEFINITION ( 'UNKNOWN', '', #242, #215 ) ;
#149 = APPLICATION_PROTOCOL_DEFINITION ( 'draft international standard', 'automotive_design', 1998, #39 ) ;
#150 =( NAMED_UNIT ( * ) PLANE_ANGLE_UNIT ( ) SI_UNIT ( $, .RADIAN. ) );
#151 = EDGE_CURVE ( 'NONE', #45, #58, #63, .T. ) ;
#152 = CARTESIAN_POINT ( 'NONE',  ( 0.1574804999999999955, 1.928579902531247412E-17, 1.907282856828050432 ) ) ;
#153 = ORIENTED_EDGE ( 'NONE', *, *, #196, .T. ) ;
#154 = DIRECTION ( 'NONE',  ( 0.0000000000000000000, 0.0000000000000000000, 1.000000000000000000 ) ) ;
#155 = ORIENTED_EDGE ( 'NONE', *, *, #219, .T. ) ;
#156 = DIRECTION ( 'NONE',  ( -1.000000000000000000, 0.0000000000000000000, 0.0000000000000000000 ) ) ;
#157 = ORIENTED_EDGE ( 'NONE', *, *, #245, .T. ) ;
#158 = CARTESIAN_POINT ( 'NONE',  ( -0.003936999999999995191, -9.883971235068395834E-18, 2.480315000000000047 ) ) ;
#159 = VERTEX_POINT ( 'NONE', #247 ) ;
#160 = FACE_OUTER_BOUND ( 'NONE', #126, .T. ) ;
#161 = PRODUCT_RELATED_PRODUCT_CATEGORY ( 'part', '', ( #228 ) ) ;
#162 = FACE_OUTER_BOUND ( 'NONE', #6, .T. ) ;
#163 = LINE ( 'NONE', #70, #53 ) ;
#164 = DIRECTION ( 'NONE',  ( 0.0000000000000000000, 0.0000000000000000000, -1.000000000000000000 ) ) ;
#165 =( CONVERSION_BASED_UNIT ( 'INCH', #110 ) LENGTH_UNIT ( ) NAMED_UNIT ( #31 ) );
#166 = ORIENTED_EDGE ( 'NONE', *, *, #237, .F. ) ;
#167 = CARTESIAN_POINT ( 'NONE',  ( 0.1574804999999999955, 1.928579902531247412E-17, 0.5730321431719496150 ) ) ;
#168 = ORIENTED_EDGE ( 'NONE', *, *, #69, .F. ) ;
#169 =( NAMED_UNIT ( * ) SI_UNIT ( $, .STERADIAN. ) SOLID_ANGLE_UNIT ( ) );
#170 = LINE ( 'NONE', #18, #240 ) ;
#171 =( CONVERSION_BASED_UNIT ( 'INCH', #124 ) LENGTH_UNIT ( ) NAMED_UNIT ( #104 ) );
#172 = ORIENTED_EDGE ( 'NONE', *, *, #151, .F. ) ;
#173 = AXIS2_PLACEMENT_3D ( 'NONE', #223, #35, #116 ) ;
#174 = EDGE_LOOP ( 'NONE', ( #168, #166, #29, #94 ) ) ;
#175 = EDGE_CURVE ( 'NONE', #58, #75, #10, .T. ) ;
#176 = AXIS2_PLACEMENT_3D ( 'NONE', #17, #119, #135 ) ;
#177 = CIRCLE ( 'NONE', #248, 0.003936999999999995191 ) ;
#178 = CARTESIAN_POINT ( 'NONE',  ( 0.0000000000000000000, 0.0000000000000000000, 2.480315000000000047 ) ) ;
#179 = DIRECTION ( 'NONE',  ( -1.000000000000000000, 0.0000000000000000000, 0.0000000000000000000 ) ) ;
#180 = AXIS2_PLACEMENT_3D ( 'NONE', #88, #199, #133 ) ;
#181 = CARTESIAN_POINT ( 'NONE',  ( 0.0000000000000000000, 0.0000000000000000000, 1.907282856828050432 ) ) ;
#182 = EDGE_CURVE ( 'NONE', #102, #45, #213, .T. ) ;
#183 = DIRECTION ( 'NONE',  ( -0.0000000000000000000, -0.0000000000000000000, -1.000000000000000000 ) ) ;
#184 = MECHANICAL_DESIGN_GEOMETRIC_PRESENTATION_REPRESENTATION (  '', ( #204 ), #99 ) ;
#185 = AXIS2_PLACEMENT_3D ( 'NONE', #220, #51, #120 ) ;
#186 =( NAMED_UNIT ( * ) PLANE_ANGLE_UNIT ( ) SI_UNIT ( $, .RADIAN. ) );
#187 = SURFACE_SIDE_STYLE ('',( #91 ) ) ;
#188 = ADVANCED_FACE ( 'NONE', ( #218 ), #201, .T. ) ;
#189 = ORIENTED_EDGE ( 'NONE', *, *, #196, .F. ) ;
#190 = DIRECTION ( 'NONE',  ( -0.0000000000000000000, -0.0000000000000000000, -1.000000000000000000 ) ) ;
#191 = ORIENTED_EDGE ( 'NONE', *, *, #137, .F. ) ;
#192 = VERTEX_POINT ( 'NONE', #52 ) ;
#193 = AXIS2_PLACEMENT_3D ( 'NONE', #224, #50, #179 ) ;
#194 = LINE ( 'NONE', #131, #65 ) ;
#195 = DIRECTION ( 'NONE',  ( 0.0000000000000000000, 0.0000000000000000000, -1.000000000000000000 ) ) ;
#196 = EDGE_CURVE ( 'NONE', #216, #159, #132, .T. ) ;
#197 = DIRECTION ( 'NONE',  ( -0.0000000000000000000, -0.0000000000000000000, -1.000000000000000000 ) ) ;
#198 = DIRECTION ( 'NONE',  ( -1.000000000000000000, 0.0000000000000000000, 0.0000000000000000000 ) ) ;
#199 = DIRECTION ( 'NONE',  ( -0.0000000000000000000, -0.0000000000000000000, -1.000000000000000000 ) ) ;
#200 = COLOUR_RGB ( '',0.7921568627450980005, 0.8196078431372548767, 0.9333333333333333481 ) ;
#201 = CYLINDRICAL_SURFACE ( 'NONE', #176, 0.1574804999999999955 ) ;
#202 = DIRECTION ( 'NONE',  ( 1.000000000000000000, 0.0000000000000000000, 0.0000000000000000000 ) ) ;
#203 =( LENGTH_UNIT ( ) NAMED_UNIT ( * ) SI_UNIT ( $, .METRE. ) );
#204 = STYLED_ITEM ( 'NONE', ( #103 ), #56 ) ;
#205 = ORIENTED_EDGE ( 'NONE', *, *, #16, .T. ) ;
#206 = ADVANCED_FACE ( 'NONE', ( #162 ), #140, .T. ) ;
#207 =( NAMED_UNIT ( * ) SI_UNIT ( $, .STERADIAN. ) SOLID_ANGLE_UNIT ( ) );
#208 =( NAMED_UNIT ( * ) SI_UNIT ( $, .STERADIAN. ) SOLID_ANGLE_UNIT ( ) );
#209 = UNCERTAINTY_MEASURE_WITH_UNIT (LENGTH_MEASURE( 1.000000000000000082E-05 ), #171, 'distance_accuracy_value', 'NONE');
#210 = CYLINDRICAL_SURFACE ( 'NONE', #95, 0.1574804999999999955 ) ;
#211 = ADVANCED_FACE ( 'NONE', ( #160 ), #66, .T. ) ;
#212 = EDGE_LOOP ( 'NONE', ( #21, #23, #22, #191 ) ) ;
#213 = CIRCLE ( 'NONE', #4, 0.1574804999999999955 ) ;
#214 = EDGE_CURVE ( 'NONE', #159, #45, #13, .T. ) ;
#215 = PRODUCT_DEFINITION_CONTEXT ( 'detailed design', #142, 'design' ) ;
#216 = VERTEX_POINT ( 'NONE', #158 ) ;
#217 = PLANE ( 'NONE',  #105 ) ;
#218 = FACE_OUTER_BOUND ( 'NONE', #2, .T. ) ;
#219 = EDGE_CURVE ( 'NONE', #159, #216, #145, .T. ) ;
#220 = CARTESIAN_POINT ( 'NONE',  ( 0.0000000000000000000, 0.0000000000000000000, 2.480315000000000047 ) ) ;
#221 = CARTESIAN_POINT ( 'NONE',  ( 0.0000000000000000000, 0.0000000000000000000, 0.0000000000000000000 ) ) ;
#222 = UNCERTAINTY_MEASURE_WITH_UNIT (LENGTH_MEASURE( 1.000000000000000082E-05 ), #165, 'distance_accuracy_value', 'NONE');
#223 = CARTESIAN_POINT ( 'NONE',  ( 0.0000000000000000000, 0.0000000000000000000, 2.480315000000000047 ) ) ;
#224 = CARTESIAN_POINT ( 'NONE',  ( 0.0000000000000000000, 0.0000000000000000000, 2.480315000000000047 ) ) ;
#225 = CONICAL_SURFACE ( 'NONE', #32, 0.003936999999999995191, 0.2617993877991504625 ) ;
#226 = DIRECTION ( 'NONE',  ( -0.0000000000000000000, -0.0000000000000000000, -1.000000000000000000 ) ) ;
#227 = ORIENTED_EDGE ( 'NONE', *, *, #245, .F. ) ;
#228 = PRODUCT ( 'Micro_RTCM-080-2X', 'Micro_RTCM-080-2X', '', ( #72 ) ) ;
#229 = ORIENTED_EDGE ( 'NONE', *, *, #46, .F. ) ;
#230 = PRESENTATION_STYLE_ASSIGNMENT (( #125 ) ) ;
#231 = AXIS2_PLACEMENT_3D ( 'NONE', #178, #121, #38 ) ;
#232 = DIRECTION ( 'NONE',  ( 1.000000000000000000, 0.0000000000000000000, 0.0000000000000000000 ) ) ;
#233 = FILL_AREA_STYLE_COLOUR ( '', #200 ) ;
#234 = DIRECTION ( 'NONE',  ( 1.000000000000000000, 0.0000000000000000000, -0.0000000000000000000 ) ) ;
#235 = AXIS2_PLACEMENT_3D ( 'NONE', #221, #83, #123 ) ;
#236 = AXIS2_PLACEMENT_3D ( 'NONE', #90, #71, #202 ) ;
#237 = EDGE_CURVE ( 'NONE', #192, #115, #177, .T. ) ;
#238 = CARTESIAN_POINT ( 'NONE',  ( -0.003936999999999995191, 9.883971235068394293E-18, 0.0000000000000000000 ) ) ;
#239 = ORIENTED_EDGE ( 'NONE', *, *, #151, .T. ) ;
#240 = VECTOR ( 'NONE', #87, 39.37007874015748854 ) ;
#241 = AXIS2_PLACEMENT_3D ( 'NONE', #93, #57, #3 ) ;
#242 = PRODUCT_DEFINITION_FORMATION_WITH_SPECIFIED_SOURCE ( 'ANY', '', #228, .NOT_KNOWN. ) ;
#243 = CARTESIAN_POINT ( 'NONE',  ( 0.0000000000000000000, 0.0000000000000000000, 0.0000000000000000000 ) ) ;
#244 = FACE_OUTER_BOUND ( 'NONE', #146, .T. ) ;
#245 = EDGE_CURVE ( 'NONE', #102, #75, #107, .T. ) ;
#246 = DIRECTION ( 'NONE',  ( -1.000000000000000000, 0.0000000000000000000, 0.0000000000000000000 ) ) ;
#247 = CARTESIAN_POINT ( 'NONE',  ( 0.003936999999999995191, 0.0000000000000000000, 2.480315000000000047 ) ) ;
#248 = AXIS2_PLACEMENT_3D ( 'NONE', #243, #197, #34 ) ;
#249 = FACE_OUTER_BOUND ( 'NONE', #97, .T. ) ;
ENDSEC;
END-ISO-10303-21;
