ISO-10303-21;
HEADER;
FILE_DESCRIPTION (( 'STEP AP214' ),
    '1' );
FILE_NAME ('24542.STEP',
    '2023-06-22T17:18:45',
    ( '' ),
    ( '' ),
    'SwSTEP 2.0',
    'SolidWorks 2023',
    '' );
FILE_SCHEMA (( 'AUTOMOTIVE_DESIGN' ));
ENDSEC;

DATA;
#1 = ADVANCED_FACE ( 'NONE', ( #204 ), #37, .T. ) ;
#2 = FILL_AREA_STYLE ('',( #192 ) ) ;
#3 = DIMENSIONAL_EXPONENTS ( 1.000000000000000000, 0.000000000000000000, 0.000000000000000000, 0.000000000000000000, 0.000000000000000000, 0.000000000000000000, 0.000000000000000000 ) ;
#4 = AXIS2_PLACEMENT_3D ( 'NONE', #249, #216, #18 ) ;
#5 =( NAMED_UNIT ( * ) SI_UNIT ( $, .STERADIAN. ) SOLID_ANGLE_UNIT ( ) );
#6 = DIRECTION ( 'NONE',  ( 8.906522175617119052E-17, 1.000000000000000000, -0.000000000000000000 ) ) ;
#7 = DIRECTION ( 'NONE',  ( 1.000000000000000000, 0.000000000000000000, 0.000000000000000000 ) ) ;
#8 = UNCERTAINTY_MEASURE_WITH_UNIT (LENGTH_MEASURE( 1.000000000000000082E-05 ), #12, 'distance_accuracy_value', 'NONE');
#9 = ADVANCED_FACE ( 'NONE', ( #58 ), #129, .T. ) ;
#10 = CIRCLE ( 'NONE', #243, 0.5000000000000000000 ) ;
#11 = UNCERTAINTY_MEASURE_WITH_UNIT (LENGTH_MEASURE( 1.000000000000000082E-05 ), #171, 'distance_accuracy_value', 'NONE');
#12 =( CONVERSION_BASED_UNIT ( 'INCH', #209 ) LENGTH_UNIT ( ) NAMED_UNIT ( #170 ) );
#13 =( GEOMETRIC_REPRESENTATION_CONTEXT ( 3 ) GLOBAL_UNCERTAINTY_ASSIGNED_CONTEXT ( ( #179 ) ) GLOBAL_UNIT_ASSIGNED_CONTEXT ( ( #226, #277, #299 ) ) REPRESENTATION_CONTEXT ( 'NONE', 'WORKASPACE' ) );
#14 = VECTOR ( 'NONE', #110, 39.37007874015748143 ) ;
#15 =( NAMED_UNIT ( * ) SI_UNIT ( $, .STERADIAN. ) SOLID_ANGLE_UNIT ( ) );
#16 = FILL_AREA_STYLE_COLOUR ( '', #294 ) ;
#17 = EDGE_LOOP ( 'NONE', ( #308, #69, #29, #175 ) ) ;
#18 = DIRECTION ( 'NONE',  ( 0.000000000000000000, 0.000000000000000000, -1.000000000000000000 ) ) ;
#19 = EDGE_LOOP ( 'NONE', ( #75, #227 ) ) ;
#20 = PRESENTATION_STYLE_ASSIGNMENT (( #228 ) ) ;
#21 = CIRCLE ( 'NONE', #223, 0.5000000000000000000 ) ;
#22 = CARTESIAN_POINT ( 'NONE',  ( 0.000000000000000000, 0.000000000000000000, 0.000000000000000000 ) ) ;
#23 = FILL_AREA_STYLE ('',( #133 ) ) ;
#24 = UNCERTAINTY_MEASURE_WITH_UNIT (LENGTH_MEASURE( 1.000000000000000082E-05 ), #256, 'distance_accuracy_value', 'NONE');
#25 = ORIENTED_EDGE ( 'NONE', *, *, #297, .F. ) ;
#26 = EDGE_CURVE ( 'NONE', #230, #116, #239, .T. ) ;
#27 = DIRECTION ( 'NONE',  ( -0.000000000000000000, -1.000000000000000000, -0.000000000000000000 ) ) ;
#28 = VERTEX_POINT ( 'NONE', #62 ) ;
#29 = ORIENTED_EDGE ( 'NONE', *, *, #237, .F. ) ;
#30 = CLOSED_SHELL ( 'NONE', ( #34, #9, #292, #127 ) ) ;
#31 = CYLINDRICAL_SURFACE ( 'NONE', #236, 0.4999999999999998335 ) ;
#32 = PRESENTATION_LAYER_ASSIGNMENT (  '', '', ( #117 ) ) ;
#33 = CARTESIAN_POINT ( 'NONE',  ( 6.123233995736766036E-17, 1.250000000000000000, 0.5000000000000000000 ) ) ;
#34 = ADVANCED_FACE ( 'NONE', ( #283 ), #229, .T. ) ;
#35 = CIRCLE ( 'NONE', #267, 0.4999999999999997224 ) ;
#36 =( LENGTH_UNIT ( ) NAMED_UNIT ( * ) SI_UNIT ( $, .METRE. ) );
#37 = CYLINDRICAL_SURFACE ( 'NONE', #289, 0.4999999999999998335 ) ;
#38 = DIRECTION ( 'NONE',  ( -0.000000000000000000, -1.000000000000000000, -0.000000000000000000 ) ) ;
#39 = CARTESIAN_POINT ( 'NONE',  ( 2.449293598294707400E-16, 4.000000000000000000, 0.000000000000000000 ) ) ;
#40 = CARTESIAN_POINT ( 'NONE',  ( 0.000000000000000000, 0.000000000000000000, 0.000000000000000000 ) ) ;
#41 = DIRECTION ( 'NONE',  ( 8.906522175617119052E-17, 1.000000000000000000, -0.000000000000000000 ) ) ;
#42 = CARTESIAN_POINT ( 'NONE',  ( 0.000000000000000000, 0.000000000000000000, 0.000000000000000000 ) ) ;
#43 = DIRECTION ( 'NONE',  ( 0.000000000000000000, 0.000000000000000000, -1.000000000000000000 ) ) ;
#44 = STYLED_ITEM ( 'NONE', ( #130 ), #181 ) ;
#45 = LINE ( 'NONE', #47, #14 ) ;
#46 = ORIENTED_EDGE ( 'NONE', *, *, #81, .F. ) ;
#47 = CARTESIAN_POINT ( 'NONE',  ( 0.5000000000000001110, 4.000000000000000000, 6.123233995736764803E-17 ) ) ;
#48 = SURFACE_STYLE_FILL_AREA ( #2 ) ;
#49 = CARTESIAN_POINT ( 'NONE',  ( 0.5000000000000000000, 4.000000000000000000, 0.000000000000000000 ) ) ;
#50 = ADVANCED_BREP_SHAPE_REPRESENTATION ( '24542', ( #181, #84, #102 ), #173 ) ;
#51 = PRESENTATION_STYLE_ASSIGNMENT (( #100 ) ) ;
#52 = EDGE_CURVE ( 'NONE', #248, #28, #136, .T. ) ;
#53 = PRODUCT ( '24542', '24542', '', ( #288 ) ) ;
#54 =( CONVERSION_BASED_UNIT ( 'INCH', #77 ) LENGTH_UNIT ( ) NAMED_UNIT ( #197 ) );
#55 = FILL_AREA_STYLE ('',( #165 ) ) ;
#56 = CIRCLE ( 'NONE', #86, 0.4999999999999997224 ) ;
#57 = AXIS2_PLACEMENT_3D ( 'NONE', #186, #6, #234 ) ;
#58 = FACE_OUTER_BOUND ( 'NONE', #202, .T. ) ;
#59 = PRESENTATION_LAYER_ASSIGNMENT (  '', '', ( #205 ) ) ;
#60 = AXIS2_PLACEMENT_3D ( 'NONE', #301, #89, #247 ) ;
#61 = ORIENTED_EDGE ( 'NONE', *, *, #253, .F. ) ;
#62 = CARTESIAN_POINT ( 'NONE',  ( -0.4999999999999994449, 4.000000000000000000, 0.000000000000000000 ) ) ;
#63 = FILL_AREA_STYLE_COLOUR ( '', #255 ) ;
#64 = DIRECTION ( 'NONE',  ( -1.000000000000000000, 0.000000000000000000, 0.000000000000000000 ) ) ;
#65 = ORIENTED_EDGE ( 'NONE', *, *, #253, .T. ) ;
#66 =( CONVERSION_BASED_UNIT ( 'INCH', #218 ) LENGTH_UNIT ( ) NAMED_UNIT ( #97 ) );
#67 = SURFACE_STYLE_USAGE ( .BOTH. , #280 ) ;
#68 = DIRECTION ( 'NONE',  ( 0.000000000000000000, 0.000000000000000000, 1.000000000000000000 ) ) ;
#69 = ORIENTED_EDGE ( 'NONE', *, *, #305, .T. ) ;
#70 = SHAPE_DEFINITION_REPRESENTATION ( #145, #50 ) ;
#71 = DIRECTION ( 'NONE',  ( -1.000000000000000000, 0.000000000000000000, 0.000000000000000000 ) ) ;
#72 = UNCERTAINTY_MEASURE_WITH_UNIT (LENGTH_MEASURE( 1.000000000000000082E-05 ), #54, 'distance_accuracy_value', 'NONE');
#73 = ORIENTED_EDGE ( 'NONE', *, *, #233, .F. ) ;
#74 = FACE_OUTER_BOUND ( 'NONE', #19, .T. ) ;
#75 = ORIENTED_EDGE ( 'NONE', *, *, #237, .T. ) ;
#76 =( LENGTH_UNIT ( ) NAMED_UNIT ( * ) SI_UNIT ( $, .METRE. ) );
#77 = LENGTH_MEASURE_WITH_UNIT ( LENGTH_MEASURE( 0.02539999999999999897 ), #264 );
#78 = PRESENTATION_LAYER_ASSIGNMENT (  '', '', ( #44 ) ) ;
#79 = CARTESIAN_POINT ( 'NONE',  ( 0.5000000000000001110, 1.250000000000000000, 6.123233995736766036E-17 ) ) ;
#80 = SURFACE_STYLE_FILL_AREA ( #55 ) ;
#81 = EDGE_CURVE ( 'NONE', #115, #185, #87, .T. ) ;
#82 = LENGTH_MEASURE_WITH_UNIT ( LENGTH_MEASURE( 0.02539999999999999897 ), #169 );
#83 = CARTESIAN_POINT ( 'NONE',  ( 0.000000000000000000, 1.250000000000000000, 0.000000000000000000 ) ) ;
#84 = MANIFOLD_SOLID_BREP ( 'Revolve - Tool Body (Straight Shanked)', #103 ) ;
#85 =( NAMED_UNIT ( * ) SI_UNIT ( $, .STERADIAN. ) SOLID_ANGLE_UNIT ( ) );
#86 = AXIS2_PLACEMENT_3D ( 'NONE', #224, #143, #309 ) ;
#87 = LINE ( 'NONE', #284, #238 ) ;
#88 = VERTEX_POINT ( 'NONE', #124 ) ;
#89 = DIRECTION ( 'NONE',  ( -0.000000000000000000, -1.000000000000000000, -0.000000000000000000 ) ) ;
#90 = EDGE_CURVE ( 'NONE', #105, #248, #148, .T. ) ;
#91 = ORIENTED_EDGE ( 'NONE', *, *, #26, .F. ) ;
#92 = FILL_AREA_STYLE ('',( #157 ) ) ;
#93 =( GEOMETRIC_REPRESENTATION_CONTEXT ( 3 ) GLOBAL_UNCERTAINTY_ASSIGNED_CONTEXT ( ( #121 ) ) GLOBAL_UNIT_ASSIGNED_CONTEXT ( ( #66, #135, #85 ) ) REPRESENTATION_CONTEXT ( 'NONE', 'WORKASPACE' ) );
#94 =( GEOMETRIC_REPRESENTATION_CONTEXT ( 3 ) GLOBAL_UNCERTAINTY_ASSIGNED_CONTEXT ( ( #8 ) ) GLOBAL_UNIT_ASSIGNED_CONTEXT ( ( #12, #119, #99 ) ) REPRESENTATION_CONTEXT ( 'NONE', 'WORKASPACE' ) );
#95 = EDGE_LOOP ( 'NONE', ( #73, #109 ) ) ;
#96 = DIRECTION ( 'NONE',  ( 8.906522175617119052E-17, 1.000000000000000000, -0.000000000000000000 ) ) ;
#97 = DIMENSIONAL_EXPONENTS ( 1.000000000000000000, 0.000000000000000000, 0.000000000000000000, 0.000000000000000000, 0.000000000000000000, 0.000000000000000000, 0.000000000000000000 ) ;
#98 = PRODUCT_DEFINITION_FORMATION_WITH_SPECIFIED_SOURCE ( 'ANY', '', #53, .NOT_KNOWN. ) ;
#99 =( NAMED_UNIT ( * ) SI_UNIT ( $, .STERADIAN. ) SOLID_ANGLE_UNIT ( ) );
#100 = SURFACE_STYLE_USAGE ( .BOTH. , #147 ) ;
#101 =( GEOMETRIC_REPRESENTATION_CONTEXT ( 3 ) GLOBAL_UNCERTAINTY_ASSIGNED_CONTEXT ( ( #72 ) ) GLOBAL_UNIT_ASSIGNED_CONTEXT ( ( #54, #190, #300 ) ) REPRESENTATION_CONTEXT ( 'NONE', 'WORKASPACE' ) );
#102 = AXIS2_PLACEMENT_3D ( 'NONE', #42, #68, #7 ) ;
#103 = CLOSED_SHELL ( 'NONE', ( #278, #269, #1, #290 ) ) ;
#104 = DIMENSIONAL_EXPONENTS ( 1.000000000000000000, 0.000000000000000000, 0.000000000000000000, 0.000000000000000000, 0.000000000000000000, 0.000000000000000000, 0.000000000000000000 ) ;
#105 = VERTEX_POINT ( 'NONE', #79 ) ;
#106 = DIRECTION ( 'NONE',  ( 8.906522175617119052E-17, 1.000000000000000000, -0.000000000000000000 ) ) ;
#107 = DIRECTION ( 'NONE',  ( -1.000000000000000000, 0.000000000000000000, 0.000000000000000000 ) ) ;
#108 = LENGTH_MEASURE_WITH_UNIT ( LENGTH_MEASURE( 0.02539999999999999897 ), #178 );
#109 = ORIENTED_EDGE ( 'NONE', *, *, #90, .F. ) ;
#110 = DIRECTION ( 'NONE',  ( 8.906522175617119052E-17, 1.000000000000000000, -0.000000000000000000 ) ) ;
#111 = ORIENTED_EDGE ( 'NONE', *, *, #265, .T. ) ;
#112 = CARTESIAN_POINT ( 'NONE',  ( -0.4999999999999996114, 4.000000000000000000, 0.000000000000000000 ) ) ;
#113 = AXIS2_PLACEMENT_3D ( 'NONE', #83, #123, #213 ) ;
#114 = MECHANICAL_DESIGN_GEOMETRIC_PRESENTATION_REPRESENTATION (  '', ( #128 ), #94 ) ;
#115 = VERTEX_POINT ( 'NONE', #33 ) ;
#116 = VERTEX_POINT ( 'NONE', #125 ) ;
#117 = STYLED_ITEM ( 'NONE', ( #254 ), #84 ) ;
#118 = PRODUCT_DEFINITION_CONTEXT ( 'detailed design', #252, 'design' ) ;
#119 =( NAMED_UNIT ( * ) PLANE_ANGLE_UNIT ( ) SI_UNIT ( $, .RADIAN. ) );
#120 = DIRECTION ( 'NONE',  ( 8.906522175617119052E-17, 1.000000000000000000, -0.000000000000000000 ) ) ;
#121 = UNCERTAINTY_MEASURE_WITH_UNIT (LENGTH_MEASURE( 1.000000000000000082E-05 ), #66, 'distance_accuracy_value', 'NONE');
#122 = AXIS2_PLACEMENT_3D ( 'NONE', #40, #303, #43 ) ;
#123 = DIRECTION ( 'NONE',  ( 0.000000000000000000, 1.000000000000000000, 0.000000000000000000 ) ) ;
#124 = CARTESIAN_POINT ( 'NONE',  ( 0.5000000000000001110, 4.000000000000000000, 6.123233995736766036E-17 ) ) ;
#125 = CARTESIAN_POINT ( 'NONE',  ( 0.000000000000000000, 0.000000000000000000, -0.5000000000000000000 ) ) ;
#126 =( CONVERSION_BASED_UNIT ( 'INCH', #82 ) LENGTH_UNIT ( ) NAMED_UNIT ( #3 ) );
#127 = ADVANCED_FACE ( 'NONE', ( #164 ), #215, .T. ) ;
#128 = STYLED_ITEM ( 'NONE', ( #51 ), #292 ) ;
#129 = PLANE ( 'NONE',  #113 ) ;
#130 = PRESENTATION_STYLE_ASSIGNMENT (( #246 ) ) ;
#131 = SURFACE_STYLE_FILL_AREA ( #92 ) ;
#132 = EDGE_CURVE ( 'NONE', #88, #28, #35, .T. ) ;
#133 = FILL_AREA_STYLE_COLOUR ( '', #211 ) ;
#134 = COLOUR_RGB ( '',1.000000000000000000, 0.000000000000000000, 0.000000000000000000 ) ;
#135 =( NAMED_UNIT ( * ) PLANE_ANGLE_UNIT ( ) SI_UNIT ( $, .RADIAN. ) );
#136 = LINE ( 'NONE', #112, #235 ) ;
#137 =( LENGTH_UNIT ( ) NAMED_UNIT ( * ) SI_UNIT ( $, .METRE. ) );
#138 = EDGE_LOOP ( 'NONE', ( #46, #111, #274, #270 ) ) ;
#139 = APPLICATION_PROTOCOL_DEFINITION ( 'draft international standard', 'automotive_design', 1998, #252 ) ;
#140 = CARTESIAN_POINT ( 'NONE',  ( 0.000000000000000000, 1.250000000000000000, 0.000000000000000000 ) ) ;
#141 = SURFACE_STYLE_FILL_AREA ( #276 ) ;
#142 = EDGE_LOOP ( 'NONE', ( #65, #306, #25, #91 ) ) ;
#143 = DIRECTION ( 'NONE',  ( 8.906522175617119052E-17, 1.000000000000000000, -0.000000000000000000 ) ) ;
#144 = FACE_OUTER_BOUND ( 'NONE', #17, .T. ) ;
#145 = PRODUCT_DEFINITION_SHAPE ( 'NONE', 'NONE',  #193 ) ;
#146 = EDGE_CURVE ( 'NONE', #185, #116, #208, .T. ) ;
#147 = SURFACE_SIDE_STYLE ('',( #48 ) ) ;
#148 = CIRCLE ( 'NONE', #261, 0.5000000000000000000 ) ;
#149 = PRESENTATION_STYLE_ASSIGNMENT (( #166 ) ) ;
#150 = MECHANICAL_DESIGN_GEOMETRIC_PRESENTATION_REPRESENTATION (  '', ( #117 ), #195 ) ;
#151 = DIMENSIONAL_EXPONENTS ( 1.000000000000000000, 0.000000000000000000, 0.000000000000000000, 0.000000000000000000, 0.000000000000000000, 0.000000000000000000, 0.000000000000000000 ) ;
#152 = LENGTH_MEASURE_WITH_UNIT ( LENGTH_MEASURE( 0.02539999999999999897 ), #137 );
#153 = DIRECTION ( 'NONE',  ( 0.000000000000000000, 0.000000000000000000, -1.000000000000000000 ) ) ;
#154 = SURFACE_SIDE_STYLE ('',( #222 ) ) ;
#155 = SURFACE_STYLE_USAGE ( .BOTH. , #220 ) ;
#156 = DIRECTION ( 'NONE',  ( -0.000000000000000000, -1.000000000000000000, -0.000000000000000000 ) ) ;
#157 = FILL_AREA_STYLE_COLOUR ( '', #134 ) ;
#158 = MECHANICAL_DESIGN_GEOMETRIC_PRESENTATION_REPRESENTATION (  '', ( #205 ), #93 ) ;
#159 = DIRECTION ( 'NONE',  ( -0.000000000000000000, -1.000000000000000000, -0.000000000000000000 ) ) ;
#160 = DIRECTION ( 'NONE',  ( -8.906522175617119052E-17, -1.000000000000000000, 0.000000000000000000 ) ) ;
#161 = VECTOR ( 'NONE', #275, 39.37007874015748143 ) ;
#162 = EDGE_LOOP ( 'NONE', ( #225, #180, #219, #282 ) ) ;
#163 = STYLED_ITEM ( 'NONE', ( #203 ), #9 ) ;
#164 = FACE_OUTER_BOUND ( 'NONE', #199, .T. ) ;
#165 = FILL_AREA_STYLE_COLOUR ( '', #201 ) ;
#166 = SURFACE_STYLE_USAGE ( .BOTH. , #210 ) ;
#167 = DIRECTION ( 'NONE',  ( 8.906522175617119052E-17, 1.000000000000000000, -0.000000000000000000 ) ) ;
#168 = STYLED_ITEM ( 'NONE', ( #149 ), #127 ) ;
#169 =( LENGTH_UNIT ( ) NAMED_UNIT ( * ) SI_UNIT ( $, .METRE. ) );
#170 = DIMENSIONAL_EXPONENTS ( 1.000000000000000000, 0.000000000000000000, 0.000000000000000000, 0.000000000000000000, 0.000000000000000000, 0.000000000000000000, 0.000000000000000000 ) ;
#171 =( CONVERSION_BASED_UNIT ( 'INCH', #240 ) LENGTH_UNIT ( ) NAMED_UNIT ( #189 ) );
#172 = CIRCLE ( 'NONE', #259, 0.5000000000000000000 ) ;
#173 =( GEOMETRIC_REPRESENTATION_CONTEXT ( 3 ) GLOBAL_UNCERTAINTY_ASSIGNED_CONTEXT ( ( #24 ) ) GLOBAL_UNIT_ASSIGNED_CONTEXT ( ( #256, #244, #5 ) ) REPRESENTATION_CONTEXT ( 'NONE', 'WORKASPACE' ) );
#174 = ORIENTED_EDGE ( 'NONE', *, *, #146, .T. ) ;
#175 = ORIENTED_EDGE ( 'NONE', *, *, #52, .F. ) ;
#176 = SURFACE_SIDE_STYLE ('',( #221 ) ) ;
#177 = CARTESIAN_POINT ( 'NONE',  ( 0.000000000000000000, 1.250000000000000000, -0.5000000000000000000 ) ) ;
#178 =( LENGTH_UNIT ( ) NAMED_UNIT ( * ) SI_UNIT ( $, .METRE. ) );
#179 = UNCERTAINTY_MEASURE_WITH_UNIT (LENGTH_MEASURE( 1.000000000000000082E-05 ), #226, 'distance_accuracy_value', 'NONE');
#180 = ORIENTED_EDGE ( 'NONE', *, *, #90, .T. ) ;
#181 = MANIFOLD_SOLID_BREP ( 'Revolve - Cutting Edge', #30 ) ;
#182 = DIRECTION ( 'NONE',  ( -0.000000000000000000, -1.000000000000000000, -0.000000000000000000 ) ) ;
#183 = CARTESIAN_POINT ( 'NONE',  ( -0.5000000000000000000, 1.250000000000000000, 0.000000000000000000 ) ) ;
#184 = DIRECTION ( 'NONE',  ( 0.000000000000000000, 0.000000000000000000, -1.000000000000000000 ) ) ;
#185 = VERTEX_POINT ( 'NONE', #198 ) ;
#186 = CARTESIAN_POINT ( 'NONE',  ( 1.983153431618987466E-33, 1.250000000000000000, 0.000000000000000000 ) ) ;
#187 = AXIS2_PLACEMENT_3D ( 'NONE', #307, #38, #153 ) ;
#188 = AXIS2_PLACEMENT_3D ( 'NONE', #285, #159, #258 ) ;
#189 = DIMENSIONAL_EXPONENTS ( 1.000000000000000000, 0.000000000000000000, 0.000000000000000000, 0.000000000000000000, 0.000000000000000000, 0.000000000000000000, 0.000000000000000000 ) ;
#190 =( NAMED_UNIT ( * ) PLANE_ANGLE_UNIT ( ) SI_UNIT ( $, .RADIAN. ) );
#191 = CARTESIAN_POINT ( 'NONE',  ( 0.000000000000000000, 1.250000000000000000, 0.000000000000000000 ) ) ;
#192 = FILL_AREA_STYLE_COLOUR ( '', #295 ) ;
#193 = PRODUCT_DEFINITION ( 'UNKNOWN', '', #98, #118 ) ;
#194 = CARTESIAN_POINT ( 'NONE',  ( 0.000000000000000000, 1.250000000000000000, 0.000000000000000000 ) ) ;
#195 =( GEOMETRIC_REPRESENTATION_CONTEXT ( 3 ) GLOBAL_UNCERTAINTY_ASSIGNED_CONTEXT ( ( #11 ) ) GLOBAL_UNIT_ASSIGNED_CONTEXT ( ( #171, #263, #15 ) ) REPRESENTATION_CONTEXT ( 'NONE', 'WORKASPACE' ) );
#196 = DIRECTION ( 'NONE',  ( 1.000000000000000000, -8.906522175617119052E-17, 0.000000000000000000 ) ) ;
#197 = DIMENSIONAL_EXPONENTS ( 1.000000000000000000, 0.000000000000000000, 0.000000000000000000, 0.000000000000000000, 0.000000000000000000, 0.000000000000000000, 0.000000000000000000 ) ;
#198 = CARTESIAN_POINT ( 'NONE',  ( 6.123233995736766036E-17, 0.000000000000000000, 0.5000000000000000000 ) ) ;
#199 = EDGE_LOOP ( 'NONE', ( #279, #174 ) ) ;
#200 = CARTESIAN_POINT ( 'NONE',  ( 2.449293598294707400E-16, 4.000000000000000000, 0.000000000000000000 ) ) ;
#201 = COLOUR_RGB ( '',1.000000000000000000, 0.000000000000000000, 0.000000000000000000 ) ;
#202 = EDGE_LOOP ( 'NONE', ( #61, #251 ) ) ;
#203 = PRESENTATION_STYLE_ASSIGNMENT (( #155 ) ) ;
#204 = FACE_OUTER_BOUND ( 'NONE', #162, .T. ) ;
#205 = STYLED_ITEM ( 'NONE', ( #20 ), #34 ) ;
#206 = CARTESIAN_POINT ( 'NONE',  ( 2.449293598294707400E-16, 4.000000000000000000, 0.000000000000000000 ) ) ;
#207 =( LENGTH_UNIT ( ) NAMED_UNIT ( * ) SI_UNIT ( $, .METRE. ) );
#208 = CIRCLE ( 'NONE', #187, 0.5000000000000000000 ) ;
#209 = LENGTH_MEASURE_WITH_UNIT ( LENGTH_MEASURE( 0.02539999999999999897 ), #207 );
#210 = SURFACE_SIDE_STYLE ('',( #80 ) ) ;
#211 = COLOUR_RGB ( '',1.000000000000000000, 0.000000000000000000, 0.000000000000000000 ) ;
#212 = CIRCLE ( 'NONE', #188, 0.5000000000000000000 ) ;
#213 = DIRECTION ( 'NONE',  ( 0.000000000000000000, -0.000000000000000000, 1.000000000000000000 ) ) ;
#214 = CARTESIAN_POINT ( 'NONE',  ( 0.000000000000000000, 0.000000000000000000, -0.5000000000000000000 ) ) ;
#215 = PLANE ( 'NONE',  #4 ) ;
#216 = DIRECTION ( 'NONE',  ( 0.000000000000000000, -1.000000000000000000, -0.000000000000000000 ) ) ;
#217 = MECHANICAL_DESIGN_GEOMETRIC_PRESENTATION_REPRESENTATION (  '', ( #163 ), #291 ) ;
#218 = LENGTH_MEASURE_WITH_UNIT ( LENGTH_MEASURE( 0.02539999999999999897 ), #36 );
#219 = ORIENTED_EDGE ( 'NONE', *, *, #52, .T. ) ;
#220 = SURFACE_SIDE_STYLE ('',( #131 ) ) ;
#221 = SURFACE_STYLE_FILL_AREA ( #23 ) ;
#222 = SURFACE_STYLE_FILL_AREA ( #281 ) ;
#223 = AXIS2_PLACEMENT_3D ( 'NONE', #22, #182, #273 ) ;
#224 = CARTESIAN_POINT ( 'NONE',  ( 2.449293598294707400E-16, 4.000000000000000000, 0.000000000000000000 ) ) ;
#225 = ORIENTED_EDGE ( 'NONE', *, *, #305, .F. ) ;
#226 =( CONVERSION_BASED_UNIT ( 'INCH', #152 ) LENGTH_UNIT ( ) NAMED_UNIT ( #104 ) );
#227 = ORIENTED_EDGE ( 'NONE', *, *, #132, .T. ) ;
#228 = SURFACE_STYLE_USAGE ( .BOTH. , #176 ) ;
#229 = CYLINDRICAL_SURFACE ( 'NONE', #122, 0.5000000000000000000 ) ;
#230 = VERTEX_POINT ( 'NONE', #177 ) ;
#231 = MECHANICAL_DESIGN_GEOMETRIC_PRESENTATION_REPRESENTATION (  '', ( #168 ), #101 ) ;
#232 = FACE_OUTER_BOUND ( 'NONE', #95, .T. ) ;
#233 = EDGE_CURVE ( 'NONE', #248, #105, #172, .T. ) ;
#234 = DIRECTION ( 'NONE',  ( -1.000000000000000000, 8.906522175617119052E-17, 0.000000000000000000 ) ) ;
#235 = VECTOR ( 'NONE', #106, 39.37007874015748143 ) ;
#236 = AXIS2_PLACEMENT_3D ( 'NONE', #206, #96, #287 ) ;
#237 = EDGE_CURVE ( 'NONE', #28, #88, #56, .T. ) ;
#238 = VECTOR ( 'NONE', #156, 39.37007874015748143 ) ;
#239 = LINE ( 'NONE', #214, #161 ) ;
#240 = LENGTH_MEASURE_WITH_UNIT ( LENGTH_MEASURE( 0.02539999999999999897 ), #76 );
#241 = PRODUCT_RELATED_PRODUCT_CATEGORY ( 'part', '', ( #53 ) ) ;
#242 = PRESENTATION_LAYER_ASSIGNMENT (  '', '', ( #168 ) ) ;
#243 = AXIS2_PLACEMENT_3D ( 'NONE', #140, #27, #184 ) ;
#244 =( NAMED_UNIT ( * ) PLANE_ANGLE_UNIT ( ) SI_UNIT ( $, .RADIAN. ) );
#245 = FACE_OUTER_BOUND ( 'NONE', #138, .T. ) ;
#246 = SURFACE_STYLE_USAGE ( .BOTH. , #154 ) ;
#247 = DIRECTION ( 'NONE',  ( 0.000000000000000000, 0.000000000000000000, -1.000000000000000000 ) ) ;
#248 = VERTEX_POINT ( 'NONE', #183 ) ;
#249 = CARTESIAN_POINT ( 'NONE',  ( 0.000000000000000000, 0.000000000000000000, 0.000000000000000000 ) ) ;
#250 = APPLICATION_PROTOCOL_DEFINITION ( 'draft international standard', 'automotive_design', 1998, #296 ) ;
#251 = ORIENTED_EDGE ( 'NONE', *, *, #265, .F. ) ;
#252 = APPLICATION_CONTEXT ( 'automotive_design' ) ;
#253 = EDGE_CURVE ( 'NONE', #230, #115, #212, .T. ) ;
#254 = PRESENTATION_STYLE_ASSIGNMENT (( #67 ) ) ;
#255 = COLOUR_RGB ( '',0.7921568627450980005, 0.8196078431372548767, 0.9333333333333333481 ) ;
#256 =( CONVERSION_BASED_UNIT ( 'INCH', #108 ) LENGTH_UNIT ( ) NAMED_UNIT ( #151 ) );
#257 = DIRECTION ( 'NONE',  ( 8.906522175617119052E-17, 1.000000000000000000, -0.000000000000000000 ) ) ;
#258 = DIRECTION ( 'NONE',  ( 0.000000000000000000, 0.000000000000000000, -1.000000000000000000 ) ) ;
#259 = AXIS2_PLACEMENT_3D ( 'NONE', #191, #167, #71 ) ;
#260 = PLANE ( 'NONE',  #262 ) ;
#261 = AXIS2_PLACEMENT_3D ( 'NONE', #194, #120, #268 ) ;
#262 = AXIS2_PLACEMENT_3D ( 'NONE', #49, #160, #196 ) ;
#263 =( NAMED_UNIT ( * ) PLANE_ANGLE_UNIT ( ) SI_UNIT ( $, .RADIAN. ) );
#264 =( LENGTH_UNIT ( ) NAMED_UNIT ( * ) SI_UNIT ( $, .METRE. ) );
#265 = EDGE_CURVE ( 'NONE', #115, #230, #10, .T. ) ;
#266 =( NAMED_UNIT ( * ) SI_UNIT ( $, .STERADIAN. ) SOLID_ANGLE_UNIT ( ) );
#267 = AXIS2_PLACEMENT_3D ( 'NONE', #200, #41, #64 ) ;
#268 = DIRECTION ( 'NONE',  ( -1.000000000000000000, 0.000000000000000000, 0.000000000000000000 ) ) ;
#269 = ADVANCED_FACE ( 'NONE', ( #232 ), #302, .F. ) ;
#270 = ORIENTED_EDGE ( 'NONE', *, *, #146, .F. ) ;
#271 = PRESENTATION_LAYER_ASSIGNMENT (  '', '', ( #163 ) ) ;
#272 = PRESENTATION_LAYER_ASSIGNMENT (  '', '', ( #128 ) ) ;
#273 = DIRECTION ( 'NONE',  ( 0.000000000000000000, 0.000000000000000000, -1.000000000000000000 ) ) ;
#274 = ORIENTED_EDGE ( 'NONE', *, *, #26, .T. ) ;
#275 = DIRECTION ( 'NONE',  ( -0.000000000000000000, -1.000000000000000000, -0.000000000000000000 ) ) ;
#276 = FILL_AREA_STYLE ('',( #63 ) ) ;
#277 =( NAMED_UNIT ( * ) PLANE_ANGLE_UNIT ( ) SI_UNIT ( $, .RADIAN. ) );
#278 = ADVANCED_FACE ( 'NONE', ( #144 ), #31, .T. ) ;
#279 = ORIENTED_EDGE ( 'NONE', *, *, #297, .T. ) ;
#280 = SURFACE_SIDE_STYLE ('',( #141 ) ) ;
#281 = FILL_AREA_STYLE ('',( #16 ) ) ;
#282 = ORIENTED_EDGE ( 'NONE', *, *, #132, .F. ) ;
#283 = FACE_OUTER_BOUND ( 'NONE', #142, .T. ) ;
#284 = CARTESIAN_POINT ( 'NONE',  ( 6.123233995736766036E-17, 0.000000000000000000, 0.5000000000000000000 ) ) ;
#285 = CARTESIAN_POINT ( 'NONE',  ( 0.000000000000000000, 1.250000000000000000, 0.000000000000000000 ) ) ;
#286 = UNCERTAINTY_MEASURE_WITH_UNIT (LENGTH_MEASURE( 1.000000000000000082E-05 ), #126, 'distance_accuracy_value', 'NONE');
#287 = DIRECTION ( 'NONE',  ( -1.000000000000000000, 0.000000000000000000, 0.000000000000000000 ) ) ;
#288 = PRODUCT_CONTEXT ( 'NONE', #296, 'mechanical' ) ;
#289 = AXIS2_PLACEMENT_3D ( 'NONE', #39, #257, #107 ) ;
#290 = ADVANCED_FACE ( 'NONE', ( #74 ), #260, .F. ) ;
#291 =( GEOMETRIC_REPRESENTATION_CONTEXT ( 3 ) GLOBAL_UNCERTAINTY_ASSIGNED_CONTEXT ( ( #286 ) ) GLOBAL_UNIT_ASSIGNED_CONTEXT ( ( #126, #293, #266 ) ) REPRESENTATION_CONTEXT ( 'NONE', 'WORKASPACE' ) );
#292 = ADVANCED_FACE ( 'NONE', ( #245 ), #298, .T. ) ;
#293 =( NAMED_UNIT ( * ) PLANE_ANGLE_UNIT ( ) SI_UNIT ( $, .RADIAN. ) );
#294 = COLOUR_RGB ( '',0.7921568627450980005, 0.8196078431372548767, 0.9333333333333333481 ) ;
#295 = COLOUR_RGB ( '',1.000000000000000000, 0.000000000000000000, 0.000000000000000000 ) ;
#296 = APPLICATION_CONTEXT ( 'automotive_design' ) ;
#297 = EDGE_CURVE ( 'NONE', #116, #185, #21, .T. ) ;
#298 = CYLINDRICAL_SURFACE ( 'NONE', #60, 0.5000000000000000000 ) ;
#299 =( NAMED_UNIT ( * ) SI_UNIT ( $, .STERADIAN. ) SOLID_ANGLE_UNIT ( ) );
#300 =( NAMED_UNIT ( * ) SI_UNIT ( $, .STERADIAN. ) SOLID_ANGLE_UNIT ( ) );
#301 = CARTESIAN_POINT ( 'NONE',  ( 0.000000000000000000, 0.000000000000000000, 0.000000000000000000 ) ) ;
#302 = PLANE ( 'NONE',  #57 ) ;
#303 = DIRECTION ( 'NONE',  ( -0.000000000000000000, -1.000000000000000000, -0.000000000000000000 ) ) ;
#304 = MECHANICAL_DESIGN_GEOMETRIC_PRESENTATION_REPRESENTATION (  '', ( #44 ), #13 ) ;
#305 = EDGE_CURVE ( 'NONE', #105, #88, #45, .T. ) ;
#306 = ORIENTED_EDGE ( 'NONE', *, *, #81, .T. ) ;
#307 = CARTESIAN_POINT ( 'NONE',  ( 0.000000000000000000, 0.000000000000000000, 0.000000000000000000 ) ) ;
#308 = ORIENTED_EDGE ( 'NONE', *, *, #233, .T. ) ;
#309 = DIRECTION ( 'NONE',  ( -1.000000000000000000, 0.000000000000000000, 0.000000000000000000 ) ) ;
ENDSEC;
END-ISO-10303-21;
