ISO-10303-21;
HEADER;
FILE_DESCRIPTION (( 'STEP AP214' ),
    '1' );
FILE_NAME ('82511.STEP',
    '2023-06-30T22:45:40',
    ( '' ),
    ( '' ),
    'SwSTEP 2.0',
    'SolidWorks 2023',
    '' );
FILE_SCHEMA (( 'AUTOMOTIVE_DESIGN' ));
ENDSEC;

DATA;
#1 = DIRECTION ( 'NONE',  ( -0.000000000000000000, -1.000000000000000000, -0.000000000000000000 ) ) ;
#2 =( NAMED_UNIT ( * ) SI_UNIT ( $, .STERADIAN. ) SOLID_ANGLE_UNIT ( ) );
#3 = CARTESIAN_POINT ( 'NONE',  ( 2.533154020118862819E-16, 0.4374999999999998890, 0.000000000000000000 ) ) ;
#4 = AXIS2_PLACEMENT_3D ( 'NONE', #107, #267, #234 ) ;
#5 = DIRECTION ( 'NONE',  ( -1.229331597148918941E-16, 1.000000000000000000, 0.000000000000000000 ) ) ;
#6 = LENGTH_MEASURE_WITH_UNIT ( LENGTH_MEASURE( 0.02539999999999999897 ), #315 );
#7 =( NAMED_UNIT ( * ) PLANE_ANGLE_UNIT ( ) SI_UNIT ( $, .RADIAN. ) );
#8 = EDGE_CURVE ( 'NONE', #361, #299, #226, .T. ) ;
#9 = CARTESIAN_POINT ( 'NONE',  ( 1.148106374200644017E-17, 0.09375000000000002776, 0.09375000000000002776 ) ) ;
#10 = PRESENTATION_LAYER_ASSIGNMENT (  '', '', ( #198 ) ) ;
#11 = EDGE_CURVE ( 'NONE', #88, #85, #288, .T. ) ;
#12 = DIRECTION ( 'NONE',  ( 1.229331597148918941E-16, -1.000000000000000000, 0.000000000000000000 ) ) ;
#13 =( NAMED_UNIT ( * ) SI_UNIT ( $, .STERADIAN. ) SOLID_ANGLE_UNIT ( ) );
#14 = STYLED_ITEM ( 'NONE', ( #253 ), #242 ) ;
#15 = FILL_AREA_STYLE_COLOUR ( '', #193 ) ;
#16 = EDGE_LOOP ( 'NONE', ( #362, #283, #18, #117 ) ) ;
#17 = FILL_AREA_STYLE ('',( #249 ) ) ;
#18 = ORIENTED_EDGE ( 'NONE', *, *, #104, .T. ) ;
#19 = FACE_OUTER_BOUND ( 'NONE', #287, .T. ) ;
#20 = DIRECTION ( 'NONE',  ( -0.000000000000000000, -1.000000000000000000, -0.000000000000000000 ) ) ;
#21 = AXIS2_PLACEMENT_3D ( 'NONE', #3, #259, #349 ) ;
#22 = AXIS2_PLACEMENT_3D ( 'NONE', #144, #292, #129 ) ;
#23 = FILL_AREA_STYLE_COLOUR ( '', #293 ) ;
#24 = ORIENTED_EDGE ( 'NONE', *, *, #128, .T. ) ;
#25 = DIRECTION ( 'NONE',  ( 1.000000000000000000, 0.000000000000000000, 0.000000000000000000 ) ) ;
#26 = DIRECTION ( 'NONE',  ( -1.000000000000000000, 0.000000000000000000, 0.000000000000000000 ) ) ;
#27 = CARTESIAN_POINT ( 'NONE',  ( 1.148106374200643247E-17, 0.4375000000000000000, 0.09374999999999995837 ) ) ;
#28 = AXIS2_PLACEMENT_3D ( 'NONE', #277, #275, #141 ) ;
#29 = ORIENTED_EDGE ( 'NONE', *, *, #77, .F. ) ;
#30 = EDGE_CURVE ( 'NONE', #88, #368, #203, .T. ) ;
#31 = LINE ( 'NONE', #126, #305 ) ;
#32 = FILL_AREA_STYLE ('',( #221 ) ) ;
#33 = SURFACE_STYLE_FILL_AREA ( #173 ) ;
#34 =( GEOMETRIC_REPRESENTATION_CONTEXT ( 3 ) GLOBAL_UNCERTAINTY_ASSIGNED_CONTEXT ( ( #51 ) ) GLOBAL_UNIT_ASSIGNED_CONTEXT ( ( #36, #7, #319 ) ) REPRESENTATION_CONTEXT ( 'NONE', 'WORKASPACE' ) );
#35 = STYLED_ITEM ( 'NONE', ( #61 ), #87 ) ;
#36 =( CONVERSION_BASED_UNIT ( 'INCH', #94 ) LENGTH_UNIT ( ) NAMED_UNIT ( #336 ) );
#37 = CARTESIAN_POINT ( 'NONE',  ( -5.740531871003217773E-18, -1.707404996040164512E-17, 0.000000000000000000 ) ) ;
#38 = FILL_AREA_STYLE ('',( #15 ) ) ;
#39 = SURFACE_STYLE_FILL_AREA ( #352 ) ;
#40 = DIRECTION ( 'NONE',  ( 0.000000000000000000, 0.000000000000000000, -1.000000000000000000 ) ) ;
#41 = EDGE_CURVE ( 'NONE', #241, #338, #251, .T. ) ;
#42 = COLOUR_RGB ( '',1.000000000000000000, 0.000000000000000000, 0.000000000000000000 ) ;
#43 =( GEOMETRIC_REPRESENTATION_CONTEXT ( 3 ) GLOBAL_UNCERTAINTY_ASSIGNED_CONTEXT ( ( #75 ) ) GLOBAL_UNIT_ASSIGNED_CONTEXT ( ( #142, #156, #324 ) ) REPRESENTATION_CONTEXT ( 'NONE', 'WORKASPACE' ) );
#44 =( NAMED_UNIT ( * ) SI_UNIT ( $, .STERADIAN. ) SOLID_ANGLE_UNIT ( ) );
#45 = LINE ( 'NONE', #357, #145 ) ;
#46 = VECTOR ( 'NONE', #347, 39.37007874015748143 ) ;
#47 = SURFACE_SIDE_STYLE ('',( #246 ) ) ;
#48 = ORIENTED_EDGE ( 'NONE', *, *, #134, .F. ) ;
#49 = EDGE_CURVE ( 'NONE', #85, #88, #57, .T. ) ;
#50 = CARTESIAN_POINT ( 'NONE',  ( -0.09374999999999981959, 2.000000000000000000, 0.000000000000000000 ) ) ;
#51 = UNCERTAINTY_MEASURE_WITH_UNIT (LENGTH_MEASURE( 1.000000000000000082E-05 ), #36, 'distance_accuracy_value', 'NONE');
#52 = EDGE_LOOP ( 'NONE', ( #302, #24 ) ) ;
#53 = STYLED_ITEM ( 'NONE', ( #194 ), #178 ) ;
#54 = STYLED_ITEM ( 'NONE', ( #181 ), #317 ) ;
#55 = ORIENTED_EDGE ( 'NONE', *, *, #8, .F. ) ;
#56 =( NAMED_UNIT ( * ) PLANE_ANGLE_UNIT ( ) SI_UNIT ( $, .RADIAN. ) );
#57 = CIRCLE ( 'NONE', #364, 0.09374999999999995837 ) ;
#58 = PRODUCT_DEFINITION_SHAPE ( 'NONE', 'NONE',  #332 ) ;
#59 = SURFACE_STYLE_FILL_AREA ( #32 ) ;
#60 = CARTESIAN_POINT ( 'NONE',  ( -1.148106374200643863E-17, 0.09375000000000001388, 0.000000000000000000 ) ) ;
#61 = PRESENTATION_STYLE_ASSIGNMENT (( #229 ) ) ;
#62 = ADVANCED_FACE ( 'NONE', ( #309 ), #286, .F. ) ;
#63 = DIRECTION ( 'NONE',  ( -0.000000000000000000, -1.000000000000000000, -0.000000000000000000 ) ) ;
#64 = CARTESIAN_POINT ( 'NONE',  ( 0.000000000000000000, 0.4375000000000000000, 0.000000000000000000 ) ) ;
#65 = MECHANICAL_DESIGN_GEOMETRIC_PRESENTATION_REPRESENTATION (  '', ( #54 ), #199 ) ;
#66 = LENGTH_MEASURE_WITH_UNIT ( LENGTH_MEASURE( 0.02539999999999999897 ), #356 );
#67 = CARTESIAN_POINT ( 'NONE',  ( 0.000000000000000000, 0.09375000000000002776, 0.000000000000000000 ) ) ;
#68 = FACE_OUTER_BOUND ( 'NONE', #344, .T. ) ;
#69 = UNCERTAINTY_MEASURE_WITH_UNIT (LENGTH_MEASURE( 1.000000000000000082E-05 ), #158, 'distance_accuracy_value', 'NONE');
#70 = AXIS2_PLACEMENT_3D ( 'NONE', #60, #225, #170 ) ;
#71 = SURFACE_STYLE_USAGE ( .BOTH. , #321 ) ;
#72 = DIRECTION ( 'NONE',  ( -1.000000000000000000, 0.000000000000000000, 0.000000000000000000 ) ) ;
#73 =( CONVERSION_BASED_UNIT ( 'INCH', #66 ) LENGTH_UNIT ( ) NAMED_UNIT ( #106 ) );
#74 = SURFACE_SIDE_STYLE ('',( #210 ) ) ;
#75 = UNCERTAINTY_MEASURE_WITH_UNIT (LENGTH_MEASURE( 1.000000000000000082E-05 ), #142, 'distance_accuracy_value', 'NONE');
#76 = DIRECTION ( 'NONE',  ( -0.000000000000000000, -1.000000000000000000, -0.000000000000000000 ) ) ;
#77 = EDGE_CURVE ( 'NONE', #85, #146, #31, .T. ) ;
#78 =( CONVERSION_BASED_UNIT ( 'INCH', #212 ) LENGTH_UNIT ( ) NAMED_UNIT ( #238 ) );
#79 = DIRECTION ( 'NONE',  ( 0.000000000000000000, 0.000000000000000000, -1.000000000000000000 ) ) ;
#80 =( GEOMETRIC_REPRESENTATION_CONTEXT ( 3 ) GLOBAL_UNCERTAINTY_ASSIGNED_CONTEXT ( ( #122 ) ) GLOBAL_UNIT_ASSIGNED_CONTEXT ( ( #273, #243, #166 ) ) REPRESENTATION_CONTEXT ( 'NONE', 'WORKASPACE' ) );
#81 = FACE_OUTER_BOUND ( 'NONE', #111, .T. ) ;
#82 = ORIENTED_EDGE ( 'NONE', *, *, #128, .F. ) ;
#83 = DIMENSIONAL_EXPONENTS ( 1.000000000000000000, 0.000000000000000000, 0.000000000000000000, 0.000000000000000000, 0.000000000000000000, 0.000000000000000000, 0.000000000000000000 ) ;
#84 = CYLINDRICAL_SURFACE ( 'NONE', #97, 0.09374999999999979183 ) ;
#85 = VERTEX_POINT ( 'NONE', #256 ) ;
#86 = EDGE_CURVE ( 'NONE', #361, #191, #342, .T. ) ;
#87 = MANIFOLD_SOLID_BREP ( 'Revolve - Tool Body (Straight Shanked)', #163 ) ;
#88 = VERTEX_POINT ( 'NONE', #27 ) ;
#89 = DIRECTION ( 'NONE',  ( 0.000000000000000000, -0.000000000000000000, 1.000000000000000000 ) ) ;
#90 = PRESENTATION_LAYER_ASSIGNMENT (  '', '', ( #290 ) ) ;
#91 = APPLICATION_PROTOCOL_DEFINITION ( 'draft international standard', 'automotive_design', 1998, #366 ) ;
#92 = CARTESIAN_POINT ( 'NONE',  ( 6.123233995736766036E-17, 2.000000000000000000, 0.000000000000000000 ) ) ;
#93 =( NAMED_UNIT ( * ) PLANE_ANGLE_UNIT ( ) SI_UNIT ( $, .RADIAN. ) );
#94 = LENGTH_MEASURE_WITH_UNIT ( LENGTH_MEASURE( 0.02539999999999999897 ), #348 );
#95 = PRESENTATION_STYLE_ASSIGNMENT (( #373 ) ) ;
#96 = CARTESIAN_POINT ( 'NONE',  ( 0.000000000000000000, 0.4375000000000000000, 0.000000000000000000 ) ) ;
#97 = AXIS2_PLACEMENT_3D ( 'NONE', #334, #192, #301 ) ;
#98 = LENGTH_MEASURE_WITH_UNIT ( LENGTH_MEASURE( 0.02539999999999999897 ), #197 );
#99 = ORIENTED_EDGE ( 'NONE', *, *, #30, .F. ) ;
#100 = COLOUR_RGB ( '',0.7921568627450980005, 0.8196078431372548767, 0.9333333333333333481 ) ;
#101 = SURFACE_SIDE_STYLE ('',( #39 ) ) ;
#102 = APPLICATION_CONTEXT ( 'automotive_design' ) ;
#103 = SURFACE_STYLE_USAGE ( .BOTH. , #101 ) ;
#104 = EDGE_CURVE ( 'NONE', #146, #241, #204, .T. ) ;
#105 = DIRECTION ( 'NONE',  ( 0.000000000000000000, 0.000000000000000000, -1.000000000000000000 ) ) ;
#106 = DIMENSIONAL_EXPONENTS ( 1.000000000000000000, 0.000000000000000000, 0.000000000000000000, 0.000000000000000000, 0.000000000000000000, 0.000000000000000000, 0.000000000000000000 ) ;
#107 = CARTESIAN_POINT ( 'NONE',  ( -1.148106374200643863E-17, 0.09375000000000001388, 0.000000000000000000 ) ) ;
#108 = UNCERTAINTY_MEASURE_WITH_UNIT (LENGTH_MEASURE( 1.000000000000000082E-05 ), #125, 'distance_accuracy_value', 'NONE');
#109 = PRESENTATION_STYLE_ASSIGNMENT (( #103 ) ) ;
#110 = DIRECTION ( 'NONE',  ( 0.000000000000000000, 1.000000000000000000, 0.000000000000000000 ) ) ;
#111 = EDGE_LOOP ( 'NONE', ( #135, #303, #216, #82 ) ) ;
#112 = AXIS2_PLACEMENT_3D ( 'NONE', #168, #222, #316 ) ;
#113 = SURFACE_STYLE_USAGE ( .BOTH. , #47 ) ;
#114 = ORIENTED_EDGE ( 'NONE', *, *, #8, .T. ) ;
#115 = FACE_OUTER_BOUND ( 'NONE', #147, .T. ) ;
#116 = ORIENTED_EDGE ( 'NONE', *, *, #30, .T. ) ;
#117 = ORIENTED_EDGE ( 'NONE', *, *, #41, .T. ) ;
#118 = LENGTH_MEASURE_WITH_UNIT ( LENGTH_MEASURE( 0.02539999999999999897 ), #274 );
#119 = PRODUCT_DEFINITION_FORMATION_WITH_SPECIFIED_SOURCE ( 'ANY', '', #320, .NOT_KNOWN. ) ;
#120 = CYLINDRICAL_SURFACE ( 'NONE', #209, 0.09374999999999979183 ) ;
#121 = DIRECTION ( 'NONE',  ( -0.000000000000000000, -1.000000000000000000, -0.000000000000000000 ) ) ;
#122 = UNCERTAINTY_MEASURE_WITH_UNIT (LENGTH_MEASURE( 1.000000000000000082E-05 ), #273, 'distance_accuracy_value', 'NONE');
#123 = ORIENTED_EDGE ( 'NONE', *, *, #86, .F. ) ;
#124 = MECHANICAL_DESIGN_GEOMETRIC_PRESENTATION_REPRESENTATION (  '', ( #35 ), #34 ) ;
#125 =( CONVERSION_BASED_UNIT ( 'INCH', #6 ) LENGTH_UNIT ( ) NAMED_UNIT ( #83 ) );
#126 = CARTESIAN_POINT ( 'NONE',  ( 0.000000000000000000, 0.000000000000000000, -0.09374999999999998612 ) ) ;
#127 = CYLINDRICAL_SURFACE ( 'NONE', #340, 0.09374999999999998612 ) ;
#128 = EDGE_CURVE ( 'NONE', #245, #191, #339, .T. ) ;
#129 = DIRECTION ( 'NONE',  ( -1.000000000000000000, 0.000000000000000000, 0.000000000000000000 ) ) ;
#130 = FILL_AREA_STYLE ('',( #175 ) ) ;
#131 =( NAMED_UNIT ( * ) PLANE_ANGLE_UNIT ( ) SI_UNIT ( $, .RADIAN. ) );
#132 = ORIENTED_EDGE ( 'NONE', *, *, #350, .F. ) ;
#133 = ORIENTED_EDGE ( 'NONE', *, *, #223, .T. ) ;
#134 = EDGE_CURVE ( 'NONE', #172, #146, #358, .T. ) ;
#135 = ORIENTED_EDGE ( 'NONE', *, *, #143, .F. ) ;
#136 = PRESENTATION_LAYER_ASSIGNMENT (  '', '', ( #14 ) ) ;
#137 = CARTESIAN_POINT ( 'NONE',  ( 0.09375000000000002776, 0.09375000000000002776, 0.000000000000000000 ) ) ;
#138 = ORIENTED_EDGE ( 'NONE', *, *, #49, .F. ) ;
#139 = FILL_AREA_STYLE ('',( #23 ) ) ;
#140 = ORIENTED_EDGE ( 'NONE', *, *, #176, .T. ) ;
#141 = DIRECTION ( 'NONE',  ( 1.000000000000000000, 0.000000000000000000, -1.224646799147353207E-16 ) ) ;
#143 = EDGE_CURVE ( 'NONE', #299, #245, #45, .T. ) ;
#142 =( CONVERSION_BASED_UNIT ( 'INCH', #118 ) LENGTH_UNIT ( ) NAMED_UNIT ( #235 ) );
#144 = CARTESIAN_POINT ( 'NONE',  ( 2.533154020118862819E-16, 0.4374999999999998890, 0.000000000000000000 ) ) ;
#145 = VECTOR ( 'NONE', #182, 39.37007874015748143 ) ;
#146 = VERTEX_POINT ( 'NONE', #233 ) ;
#147 = EDGE_LOOP ( 'NONE', ( #99, #279, #331, #48, #335 ) ) ;
#148 = DIRECTION ( 'NONE',  ( -0.000000000000000000, -1.000000000000000000, -0.000000000000000000 ) ) ;
#149 = ORIENTED_EDGE ( 'NONE', *, *, #49, .T. ) ;
#150 = VECTOR ( 'NONE', #121, 39.37007874015748143 ) ;
#151 = COLOUR_RGB ( '',0.7921568627450980005, 0.8196078431372548767, 0.9333333333333333481 ) ;
#152 = DIRECTION ( 'NONE',  ( 0.000000000000000000, 0.000000000000000000, -1.000000000000000000 ) ) ;
#153 = CIRCLE ( 'NONE', #28, 0.09375000000000002776 ) ;
#154 =( NAMED_UNIT ( * ) PLANE_ANGLE_UNIT ( ) SI_UNIT ( $, .RADIAN. ) );
#155 =( GEOMETRIC_REPRESENTATION_CONTEXT ( 3 ) GLOBAL_UNCERTAINTY_ASSIGNED_CONTEXT ( ( #108 ) ) GLOBAL_UNIT_ASSIGNED_CONTEXT ( ( #125, #56, #2 ) ) REPRESENTATION_CONTEXT ( 'NONE', 'WORKASPACE' ) );
#156 =( NAMED_UNIT ( * ) PLANE_ANGLE_UNIT ( ) SI_UNIT ( $, .RADIAN. ) );
#157 = EDGE_LOOP ( 'NONE', ( #149, #116, #269, #363, #29 ) ) ;
#158 =( CONVERSION_BASED_UNIT ( 'INCH', #167 ) LENGTH_UNIT ( ) NAMED_UNIT ( #304 ) );
#159 =( NAMED_UNIT ( * ) SI_UNIT ( $, .STERADIAN. ) SOLID_ANGLE_UNIT ( ) );
#160 = ADVANCED_FACE ( 'NONE', ( #231 ), #296, .F. ) ;
#161 = CARTESIAN_POINT ( 'NONE',  ( 0.000000000000000000, 0.09375000000000002776, 0.000000000000000000 ) ) ;
#162 = ORIENTED_EDGE ( 'NONE', *, *, #165, .T. ) ;
#163 = CLOSED_SHELL ( 'NONE', ( #248, #62, #180, #160 ) ) ;
#164 = CYLINDRICAL_SURFACE ( 'NONE', #365, 0.09374999999999998612 ) ;
#165 = EDGE_CURVE ( 'NONE', #241, #368, #351, .T. ) ;
#166 =( NAMED_UNIT ( * ) SI_UNIT ( $, .STERADIAN. ) SOLID_ANGLE_UNIT ( ) );
#167 = LENGTH_MEASURE_WITH_UNIT ( LENGTH_MEASURE( 0.02539999999999999897 ), #169 );
#168 = CARTESIAN_POINT ( 'NONE',  ( 0.000000000000000000, 0.09375000000000002776, 0.000000000000000000 ) ) ;
#169 =( LENGTH_UNIT ( ) NAMED_UNIT ( * ) SI_UNIT ( $, .METRE. ) );
#170 = DIRECTION ( 'NONE',  ( -1.000000000000000000, 0.000000000000000000, 0.000000000000000000 ) ) ;
#171 = ADVANCED_FACE ( 'NONE', ( #68 ), #298, .T. ) ;
#172 = VERTEX_POINT ( 'NONE', #265 ) ;
#173 = FILL_AREA_STYLE ('',( #314 ) ) ;
#174 = AXIS2_PLACEMENT_3D ( 'NONE', #244, #110, #89 ) ;
#175 = FILL_AREA_STYLE_COLOUR ( '', #151 ) ;
#176 = EDGE_CURVE ( 'NONE', #172, #338, #153, .T. ) ;
#177 = DIRECTION ( 'NONE',  ( -1.229331597148918941E-16, 1.000000000000000000, -0.000000000000000000 ) ) ;
#178 = ADVANCED_FACE ( 'NONE', ( #19 ), #326, .T. ) ;
#179 = STYLED_ITEM ( 'NONE', ( #95 ), #308 ) ;
#180 = ADVANCED_FACE ( 'NONE', ( #81 ), #84, .T. ) ;
#181 = PRESENTATION_STYLE_ASSIGNMENT (( #71 ) ) ;
#182 = DIRECTION ( 'NONE',  ( -1.229331597148918941E-16, 1.000000000000000000, -0.000000000000000000 ) ) ;
#183 = PRODUCT_RELATED_PRODUCT_CATEGORY ( 'part', '', ( #320 ) ) ;
#184 =( CONVERSION_BASED_UNIT ( 'INCH', #98 ) LENGTH_UNIT ( ) NAMED_UNIT ( #297 ) );
#185 = DIRECTION ( 'NONE',  ( -0.000000000000000000, -1.000000000000000000, -0.000000000000000000 ) ) ;
#186 = DIRECTION ( 'NONE',  ( 1.000000000000000000, 0.000000000000000000, 0.000000000000000000 ) ) ;
#187 = CARTESIAN_POINT ( 'NONE',  ( -1.148106374200643863E-17, 0.09375000000000001388, 0.000000000000000000 ) ) ;
#188 =( GEOMETRIC_REPRESENTATION_CONTEXT ( 3 ) GLOBAL_UNCERTAINTY_ASSIGNED_CONTEXT ( ( #359 ) ) GLOBAL_UNIT_ASSIGNED_CONTEXT ( ( #78, #337, #159 ) ) REPRESENTATION_CONTEXT ( 'NONE', 'WORKASPACE' ) );
#189 = COLOUR_RGB ( '',1.000000000000000000, 0.000000000000000000, 0.000000000000000000 ) ;
#190 = PRODUCT_CONTEXT ( 'NONE', #102, 'mechanical' ) ;
#191 = VERTEX_POINT ( 'NONE', #50 ) ;
#192 = DIRECTION ( 'NONE',  ( -1.229331597148918941E-16, 1.000000000000000000, -0.000000000000000000 ) ) ;
#193 = COLOUR_RGB ( '',1.000000000000000000, 0.000000000000000000, 0.000000000000000000 ) ;
#194 = PRESENTATION_STYLE_ASSIGNMENT (( #113 ) ) ;
#195 = CARTESIAN_POINT ( 'NONE',  ( 6.123233995736766036E-17, 2.000000000000000000, 0.000000000000000000 ) ) ;
#196 = CARTESIAN_POINT ( 'NONE',  ( 6.123233995736766036E-17, 2.000000000000000000, 0.000000000000000000 ) ) ;
#197 =( LENGTH_UNIT ( ) NAMED_UNIT ( * ) SI_UNIT ( $, .METRE. ) );
#198 = STYLED_ITEM ( 'NONE', ( #240 ), #171 ) ;
#199 =( GEOMETRIC_REPRESENTATION_CONTEXT ( 3 ) GLOBAL_UNCERTAINTY_ASSIGNED_CONTEXT ( ( #206 ) ) GLOBAL_UNIT_ASSIGNED_CONTEXT ( ( #73, #154, #13 ) ) REPRESENTATION_CONTEXT ( 'NONE', 'WORKASPACE' ) );
#200 = DIRECTION ( 'NONE',  ( 0.000000000000000000, 0.000000000000000000, -1.000000000000000000 ) ) ;
#201 = CARTESIAN_POINT ( 'NONE',  ( 2.533154020118862326E-16, 0.4375000000000000000, 0.000000000000000000 ) ) ;
#202 = CARTESIAN_POINT ( 'NONE',  ( 0.000000000000000000, 0.000000000000000000, 0.000000000000000000 ) ) ;
#203 = LINE ( 'NONE', #254, #150 ) ;
#204 = CIRCLE ( 'NONE', #112, 0.09375000000000002776 ) ;
#205 = DIRECTION ( 'NONE',  ( -0.000000000000000000, -1.000000000000000000, -0.000000000000000000 ) ) ;
#206 = UNCERTAINTY_MEASURE_WITH_UNIT (LENGTH_MEASURE( 1.000000000000000082E-05 ), #73, 'distance_accuracy_value', 'NONE');
#207 = SURFACE_STYLE_FILL_AREA ( #130 ) ;
#208 = MECHANICAL_DESIGN_GEOMETRIC_PRESENTATION_REPRESENTATION (  '', ( #198 ), #188 ) ;
#209 = AXIS2_PLACEMENT_3D ( 'NONE', #195, #224, #372 ) ;
#210 = SURFACE_STYLE_FILL_AREA ( #38 ) ;
#211 = ORIENTED_EDGE ( 'NONE', *, *, #11, .F. ) ;
#212 = LENGTH_MEASURE_WITH_UNIT ( LENGTH_MEASURE( 0.02539999999999999897 ), #262 );
#213 = AXIS2_PLACEMENT_3D ( 'NONE', #187, #215, #25 ) ;
#214 = UNCERTAINTY_MEASURE_WITH_UNIT (LENGTH_MEASURE( 1.000000000000000082E-05 ), #184, 'distance_accuracy_value', 'NONE');
#215 = DIRECTION ( 'NONE',  ( 0.000000000000000000, 0.000000000000000000, 1.000000000000000000 ) ) ;
#216 = ORIENTED_EDGE ( 'NONE', *, *, #86, .T. ) ;
#217 = ORIENTED_EDGE ( 'NONE', *, *, #41, .F. ) ;
#218 = EDGE_LOOP ( 'NONE', ( #114, #300, #307, #123 ) ) ;
#219 = MECHANICAL_DESIGN_GEOMETRIC_PRESENTATION_REPRESENTATION (  '', ( #14 ), #155 ) ;
#220 =( GEOMETRIC_REPRESENTATION_CONTEXT ( 3 ) GLOBAL_UNCERTAINTY_ASSIGNED_CONTEXT ( ( #214 ) ) GLOBAL_UNIT_ASSIGNED_CONTEXT ( ( #184, #131, #44 ) ) REPRESENTATION_CONTEXT ( 'NONE', 'WORKASPACE' ) );
#221 = FILL_AREA_STYLE_COLOUR ( '', #189 ) ;
#222 = DIRECTION ( 'NONE',  ( -0.000000000000000000, -1.000000000000000000, -0.000000000000000000 ) ) ;
#223 = EDGE_CURVE ( 'NONE', #368, #172, #270, .T. ) ;
#224 = DIRECTION ( 'NONE',  ( -1.229331597148918941E-16, 1.000000000000000000, -0.000000000000000000 ) ) ;
#225 = DIRECTION ( 'NONE',  ( 0.000000000000000000, 0.000000000000000000, -1.000000000000000000 ) ) ;
#226 = CIRCLE ( 'NONE', #21, 0.09374999999999969469 ) ;
#227 = AXIS2_PLACEMENT_3D ( 'NONE', #239, #280, #186 ) ;
#228 = CARTESIAN_POINT ( 'NONE',  ( -0.09374999999999972244, 2.000000000000000000, 0.000000000000000000 ) ) ;
#229 = SURFACE_STYLE_USAGE ( .BOTH. , #291 ) ;
#230 = FILL_AREA_STYLE_COLOUR ( '', #271 ) ;
#231 = FACE_OUTER_BOUND ( 'NONE', #52, .T. ) ;
#232 = CIRCLE ( 'NONE', #264, 0.09374999999999988898 ) ;
#233 = CARTESIAN_POINT ( 'NONE',  ( 0.000000000000000000, 0.09375000000000002776, -0.09375000000000002776 ) ) ;
#234 = DIRECTION ( 'NONE',  ( 1.000000000000000000, 0.000000000000000000, 0.000000000000000000 ) ) ;
#235 = DIMENSIONAL_EXPONENTS ( 1.000000000000000000, 0.000000000000000000, 0.000000000000000000, 0.000000000000000000, 0.000000000000000000, 0.000000000000000000, 0.000000000000000000 ) ;
#236 = PRESENTATION_LAYER_ASSIGNMENT (  '', '', ( #53 ) ) ;
#237 = AXIS2_PLACEMENT_3D ( 'NONE', #196, #177, #72 ) ;
#238 = DIMENSIONAL_EXPONENTS ( 1.000000000000000000, 0.000000000000000000, 0.000000000000000000, 0.000000000000000000, 0.000000000000000000, 0.000000000000000000, 0.000000000000000000 ) ;
#239 = CARTESIAN_POINT ( 'NONE',  ( 0.000000000000000000, 0.000000000000000000, 0.000000000000000000 ) ) ;
#240 = PRESENTATION_STYLE_ASSIGNMENT (( #268 ) ) ;
#241 = VERTEX_POINT ( 'NONE', #137 ) ;
#242 = ADVANCED_FACE ( 'NONE', ( #115 ), #164, .T. ) ;
#243 =( NAMED_UNIT ( * ) PLANE_ANGLE_UNIT ( ) SI_UNIT ( $, .RADIAN. ) );
#244 = CARTESIAN_POINT ( 'NONE',  ( 0.000000000000000000, 0.4375000000000000000, 0.000000000000000000 ) ) ;
#245 = VERTEX_POINT ( 'NONE', #285 ) ;
#246 = SURFACE_STYLE_FILL_AREA ( #17 ) ;
#247 = SURFACE_STYLE_FILL_AREA ( #139 ) ;
#248 = ADVANCED_FACE ( 'NONE', ( #346 ), #120, .T. ) ;
#249 = FILL_AREA_STYLE_COLOUR ( '', #42 ) ;
#250 = ADVANCED_BREP_SHAPE_REPRESENTATION ( '82511', ( #317, #87, #227 ), #306 ) ;
#251 = CIRCLE ( 'NONE', #70, 0.09375000000000002776 ) ;
#252 = DIRECTION ( 'NONE',  ( 0.000000000000000000, 0.000000000000000000, -1.000000000000000000 ) ) ;
#253 = PRESENTATION_STYLE_ASSIGNMENT (( #343 ) ) ;
#254 = CARTESIAN_POINT ( 'NONE',  ( 1.148106374200643401E-17, 0.000000000000000000, 0.09374999999999998612 ) ) ;
#255 = DIRECTION ( 'NONE',  ( -1.229331597148918941E-16, 1.000000000000000000, -0.000000000000000000 ) ) ;
#256 = CARTESIAN_POINT ( 'NONE',  ( 0.000000000000000000, 0.4375000000000000000, -0.09374999999999995837 ) ) ;
#257 = MECHANICAL_DESIGN_GEOMETRIC_PRESENTATION_REPRESENTATION (  '', ( #53 ), #80 ) ;
#258 = MECHANICAL_DESIGN_GEOMETRIC_PRESENTATION_REPRESENTATION (  '', ( #290 ), #43 ) ;
#259 = DIRECTION ( 'NONE',  ( -1.229331597148918941E-16, 1.000000000000000000, -0.000000000000000000 ) ) ;
#260 = DIRECTION ( 'NONE',  ( -0.000000000000000000, -1.000000000000000000, -0.000000000000000000 ) ) ;
#261 = CARTESIAN_POINT ( 'NONE',  ( -0.09374999999999944489, 0.4374999999999998890, 0.000000000000000000 ) ) ;
#262 =( LENGTH_UNIT ( ) NAMED_UNIT ( * ) SI_UNIT ( $, .METRE. ) );
#263 = AXIS2_PLACEMENT_3D ( 'NONE', #161, #20, #367 ) ;
#264 = AXIS2_PLACEMENT_3D ( 'NONE', #92, #255, #26 ) ;
#265 = CARTESIAN_POINT ( 'NONE',  ( -0.09375000000000002776, 0.09375000000000002776, 1.148106374200643863E-17 ) ) ;
#266 = CARTESIAN_POINT ( 'NONE',  ( 0.09374999999999995837, 2.000000000000000000, 0.000000000000000000 ) ) ;
#267 = DIRECTION ( 'NONE',  ( 0.000000000000000000, 0.000000000000000000, 1.000000000000000000 ) ) ;
#268 = SURFACE_STYLE_USAGE ( .BOTH. , #74 ) ;
#269 = ORIENTED_EDGE ( 'NONE', *, *, #165, .F. ) ;
#270 = CIRCLE ( 'NONE', #263, 0.09375000000000002776 ) ;
#271 = COLOUR_RGB ( '',1.000000000000000000, 0.000000000000000000, 0.000000000000000000 ) ;
#272 = SHAPE_DEFINITION_REPRESENTATION ( #58, #250 ) ;
#273 =( CONVERSION_BASED_UNIT ( 'INCH', #330 ) LENGTH_UNIT ( ) NAMED_UNIT ( #333 ) );
#274 =( LENGTH_UNIT ( ) NAMED_UNIT ( * ) SI_UNIT ( $, .METRE. ) );
#275 = DIRECTION ( 'NONE',  ( 1.224646799147353207E-16, -0.000000000000000000, 1.000000000000000000 ) ) ;
#276 = EDGE_CURVE ( 'NONE', #191, #245, #232, .T. ) ;
#277 = CARTESIAN_POINT ( 'NONE',  ( -1.148106374200643863E-17, 0.09375000000000001388, 0.000000000000000000 ) ) ;
#278 = AXIS2_PLACEMENT_3D ( 'NONE', #201, #5, #312 ) ;
#279 = ORIENTED_EDGE ( 'NONE', *, *, #11, .T. ) ;
#280 = DIRECTION ( 'NONE',  ( 0.000000000000000000, 0.000000000000000000, 1.000000000000000000 ) ) ;
#281 = CARTESIAN_POINT ( 'NONE',  ( 0.000000000000000000, 0.000000000000000000, 0.000000000000000000 ) ) ;
#282 = AXIS2_PLACEMENT_3D ( 'NONE', #354, #205, #40 ) ;
#283 = ORIENTED_EDGE ( 'NONE', *, *, #134, .T. ) ;
#284 =( NAMED_UNIT ( * ) SI_UNIT ( $, .STERADIAN. ) SOLID_ANGLE_UNIT ( ) );
#285 = CARTESIAN_POINT ( 'NONE',  ( 0.09374999999999994449, 2.000000000000000000, 1.148106374200641552E-17 ) ) ;
#286 = PLANE ( 'NONE',  #278 ) ;
#287 = EDGE_LOOP ( 'NONE', ( #138, #211 ) ) ;
#288 = CIRCLE ( 'NONE', #328, 0.09374999999999995837 ) ;
#289 = SURFACE_SIDE_STYLE ('',( #247 ) ) ;
#290 = STYLED_ITEM ( 'NONE', ( #109 ), #369 ) ;
#291 = SURFACE_SIDE_STYLE ('',( #33 ) ) ;
#292 = DIRECTION ( 'NONE',  ( -1.229331597148918941E-16, 1.000000000000000000, -0.000000000000000000 ) ) ;
#293 = COLOUR_RGB ( '',1.000000000000000000, 0.000000000000000000, 0.000000000000000000 ) ;
#294 = PRESENTATION_LAYER_ASSIGNMENT (  '', '', ( #179 ) ) ;
#295 = PRODUCT_DEFINITION_CONTEXT ( 'detailed design', #366, 'design' ) ;
#296 = PLANE ( 'NONE',  #322 ) ;
#297 = DIMENSIONAL_EXPONENTS ( 1.000000000000000000, 0.000000000000000000, 0.000000000000000000, 0.000000000000000000, 0.000000000000000000, 0.000000000000000000, 0.000000000000000000 ) ;
#298 = SPHERICAL_SURFACE ( 'NONE', #213, 0.09375000000000002776 ) ;
#299 = VERTEX_POINT ( 'NONE', #313 ) ;
#300 = ORIENTED_EDGE ( 'NONE', *, *, #143, .T. ) ;
#301 = DIRECTION ( 'NONE',  ( -1.000000000000000000, 0.000000000000000000, 0.000000000000000000 ) ) ;
#302 = ORIENTED_EDGE ( 'NONE', *, *, #276, .T. ) ;
#303 = ORIENTED_EDGE ( 'NONE', *, *, #350, .T. ) ;
#304 = DIMENSIONAL_EXPONENTS ( 1.000000000000000000, 0.000000000000000000, 0.000000000000000000, 0.000000000000000000, 0.000000000000000000, 0.000000000000000000, 0.000000000000000000 ) ;
#305 = VECTOR ( 'NONE', #148, 39.37007874015748143 ) ;
#306 =( GEOMETRIC_REPRESENTATION_CONTEXT ( 3 ) GLOBAL_UNCERTAINTY_ASSIGNED_CONTEXT ( ( #69 ) ) GLOBAL_UNIT_ASSIGNED_CONTEXT ( ( #158, #93, #284 ) ) REPRESENTATION_CONTEXT ( 'NONE', 'WORKASPACE' ) );
#307 = ORIENTED_EDGE ( 'NONE', *, *, #276, .F. ) ;
#308 = ADVANCED_FACE ( 'NONE', ( #311 ), #355, .T. ) ;
#309 = FACE_OUTER_BOUND ( 'NONE', #327, .T. ) ;
#310 = AXIS2_PLACEMENT_3D ( 'NONE', #67, #185, #105 ) ;
#311 = FACE_OUTER_BOUND ( 'NONE', #16, .T. ) ;
#312 = DIRECTION ( 'NONE',  ( -1.000000000000000000, -1.229331597148918941E-16, 0.000000000000000000 ) ) ;
#313 = CARTESIAN_POINT ( 'NONE',  ( 0.09374999999999994449, 0.4374999999999998890, 1.148106374200641552E-17 ) ) ;
#314 = FILL_AREA_STYLE_COLOUR ( '', #100 ) ;
#315 =( LENGTH_UNIT ( ) NAMED_UNIT ( * ) SI_UNIT ( $, .METRE. ) );
#316 = DIRECTION ( 'NONE',  ( 0.000000000000000000, 0.000000000000000000, -1.000000000000000000 ) ) ;
#317 = MANIFOLD_SOLID_BREP ( 'Revolve - Cutting Edge', #371 ) ;
#318 = PRESENTATION_LAYER_ASSIGNMENT (  '', '', ( #54 ) ) ;
#319 =( NAMED_UNIT ( * ) SI_UNIT ( $, .STERADIAN. ) SOLID_ANGLE_UNIT ( ) );
#320 = PRODUCT ( '82511', '82511', '', ( #190 ) ) ;
#321 = SURFACE_SIDE_STYLE ('',( #207 ) ) ;
#322 = AXIS2_PLACEMENT_3D ( 'NONE', #266, #12, #325 ) ;
#323 = CIRCLE ( 'NONE', #22, 0.09374999999999969469 ) ;
#324 =( NAMED_UNIT ( * ) SI_UNIT ( $, .STERADIAN. ) SOLID_ANGLE_UNIT ( ) );
#325 = DIRECTION ( 'NONE',  ( 1.000000000000000000, 1.229331597148918941E-16, 0.000000000000000000 ) ) ;
#326 = PLANE ( 'NONE',  #174 ) ;
#327 = EDGE_LOOP ( 'NONE', ( #55, #132 ) ) ;
#328 = AXIS2_PLACEMENT_3D ( 'NONE', #64, #1, #252 ) ;
#329 = MECHANICAL_DESIGN_GEOMETRIC_PRESENTATION_REPRESENTATION (  '', ( #179 ), #220 ) ;
#330 = LENGTH_MEASURE_WITH_UNIT ( LENGTH_MEASURE( 0.02539999999999999897 ), #370 );
#331 = ORIENTED_EDGE ( 'NONE', *, *, #77, .T. ) ;
#332 = PRODUCT_DEFINITION ( 'UNKNOWN', '', #119, #295 ) ;
#333 = DIMENSIONAL_EXPONENTS ( 1.000000000000000000, 0.000000000000000000, 0.000000000000000000, 0.000000000000000000, 0.000000000000000000, 0.000000000000000000, 0.000000000000000000 ) ;
#334 = CARTESIAN_POINT ( 'NONE',  ( 6.123233995736766036E-17, 2.000000000000000000, 0.000000000000000000 ) ) ;
#335 = ORIENTED_EDGE ( 'NONE', *, *, #223, .F. ) ;
#336 = DIMENSIONAL_EXPONENTS ( 1.000000000000000000, 0.000000000000000000, 0.000000000000000000, 0.000000000000000000, 0.000000000000000000, 0.000000000000000000, 0.000000000000000000 ) ;
#337 =( NAMED_UNIT ( * ) PLANE_ANGLE_UNIT ( ) SI_UNIT ( $, .RADIAN. ) );
#338 = VERTEX_POINT ( 'NONE', #37 ) ;
#339 = CIRCLE ( 'NONE', #237, 0.09374999999999988898 ) ;
#340 = AXIS2_PLACEMENT_3D ( 'NONE', #281, #76, #79 ) ;
#341 = SURFACE_SIDE_STYLE ('',( #59 ) ) ;
#342 = LINE ( 'NONE', #228, #46 ) ;
#343 = SURFACE_STYLE_USAGE ( .BOTH. , #289 ) ;
#344 = EDGE_LOOP ( 'NONE', ( #133, #140, #217, #162 ) ) ;
#345 = PRESENTATION_LAYER_ASSIGNMENT (  '', '', ( #35 ) ) ;
#346 = FACE_OUTER_BOUND ( 'NONE', #218, .T. ) ;
#347 = DIRECTION ( 'NONE',  ( -1.229331597148918941E-16, 1.000000000000000000, -0.000000000000000000 ) ) ;
#348 =( LENGTH_UNIT ( ) NAMED_UNIT ( * ) SI_UNIT ( $, .METRE. ) );
#349 = DIRECTION ( 'NONE',  ( -1.000000000000000000, 0.000000000000000000, 0.000000000000000000 ) ) ;
#350 = EDGE_CURVE ( 'NONE', #299, #361, #323, .T. ) ;
#351 = CIRCLE ( 'NONE', #310, 0.09375000000000002776 ) ;
#352 = FILL_AREA_STYLE ('',( #230 ) ) ;
#353 = FACE_OUTER_BOUND ( 'NONE', #157, .T. ) ;
#354 = CARTESIAN_POINT ( 'NONE',  ( 0.000000000000000000, 0.09375000000000002776, 0.000000000000000000 ) ) ;
#355 = SPHERICAL_SURFACE ( 'NONE', #4, 0.09375000000000002776 ) ;
#356 =( LENGTH_UNIT ( ) NAMED_UNIT ( * ) SI_UNIT ( $, .METRE. ) );
#357 = CARTESIAN_POINT ( 'NONE',  ( 0.09374999999999984734, 2.000000000000000000, 1.148106374200640935E-17 ) ) ;
#358 = CIRCLE ( 'NONE', #282, 0.09375000000000002776 ) ;
#359 = UNCERTAINTY_MEASURE_WITH_UNIT (LENGTH_MEASURE( 1.000000000000000082E-05 ), #78, 'distance_accuracy_value', 'NONE');
#360 = APPLICATION_PROTOCOL_DEFINITION ( 'draft international standard', 'automotive_design', 1998, #102 ) ;
#361 = VERTEX_POINT ( 'NONE', #261 ) ;
#362 = ORIENTED_EDGE ( 'NONE', *, *, #176, .F. ) ;
#363 = ORIENTED_EDGE ( 'NONE', *, *, #104, .F. ) ;
#364 = AXIS2_PLACEMENT_3D ( 'NONE', #96, #260, #200 ) ;
#365 = AXIS2_PLACEMENT_3D ( 'NONE', #202, #63, #152 ) ;
#366 = APPLICATION_CONTEXT ( 'automotive_design' ) ;
#367 = DIRECTION ( 'NONE',  ( 0.000000000000000000, 0.000000000000000000, -1.000000000000000000 ) ) ;
#368 = VERTEX_POINT ( 'NONE', #9 ) ;
#369 = ADVANCED_FACE ( 'NONE', ( #353 ), #127, .T. ) ;
#370 =( LENGTH_UNIT ( ) NAMED_UNIT ( * ) SI_UNIT ( $, .METRE. ) );
#371 = CLOSED_SHELL ( 'NONE', ( #171, #369, #178, #242, #308 ) ) ;
#372 = DIRECTION ( 'NONE',  ( -1.000000000000000000, 0.000000000000000000, 0.000000000000000000 ) ) ;
#373 = SURFACE_STYLE_USAGE ( .BOTH. , #341 ) ;
ENDSEC;
END-ISO-10303-21;
