ISO-10303-21;
HEADER;
FILE_DESCRIPTION (( 'STEP AP214' ),
    '1' );
FILE_NAME ('59543.STEP',
    '2023-07-24T15:48:43',
    ( '' ),
    ( '' ),
    'SwSTEP 2.0',
    'SolidWorks 2023',
    '' );
FILE_SCHEMA (( 'AUTOMOTIVE_DESIGN' ));
ENDSEC;

DATA;
#1 = PRODUCT_DEFINITION ( 'UNKNOWN', '', #74, #94 ) ;
#2 = PRESENTATION_STYLE_ASSIGNMENT (( #23 ) ) ;
#3 = EDGE_LOOP ( 'NONE', ( #287, #171 ) ) ;
#4 = UNCERTAINTY_MEASURE_WITH_UNIT (LENGTH_MEASURE( 1.000000000000000082E-05 ), #137, 'distance_accuracy_value', 'NONE');
#5 = DIRECTION ( 'NONE',  ( 1.000000000000000000, 2.881521880346713429E-17, 0.000000000000000000 ) ) ;
#6 = EDGE_CURVE ( 'NONE', #100, #243, #58, .T. ) ;
#7 = DIRECTION ( 'NONE',  ( 0.000000000000000000, 0.000000000000000000, -1.000000000000000000 ) ) ;
#8 = FILL_AREA_STYLE ('',( #29 ) ) ;
#9 =( NAMED_UNIT ( * ) PLANE_ANGLE_UNIT ( ) SI_UNIT ( $, .RADIAN. ) );
#10 = ADVANCED_FACE ( 'NONE', ( #263 ), #73, .T. ) ;
#11 =( NAMED_UNIT ( * ) PLANE_ANGLE_UNIT ( ) SI_UNIT ( $, .RADIAN. ) );
#12 = CIRCLE ( 'NONE', #235, 6.000000000000000000 ) ;
#13 = CLOSED_SHELL ( 'NONE', ( #226, #62, #99, #43 ) ) ;
#14 = AXIS2_PLACEMENT_3D ( 'NONE', #182, #136, #27 ) ;
#15 = PRESENTATION_LAYER_ASSIGNMENT (  '', '', ( #133 ) ) ;
#16 = FILL_AREA_STYLE ('',( #77 ) ) ;
#17 = FILL_AREA_STYLE_COLOUR ( '', #123 ) ;
#18 = APPLICATION_PROTOCOL_DEFINITION ( 'draft international standard', 'automotive_design', 1998, #76 ) ;
#19 = MECHANICAL_DESIGN_GEOMETRIC_PRESENTATION_REPRESENTATION (  '', ( #271 ), #132 ) ;
#20 = FACE_OUTER_BOUND ( 'NONE', #41, .T. ) ;
#21 = DIRECTION ( 'NONE',  ( 0.000000000000000000, 0.000000000000000000, -1.000000000000000000 ) ) ;
#22 = CARTESIAN_POINT ( 'NONE',  ( -1.469576158976823750E-15, 75.00000000000000000, 0.000000000000000000 ) ) ;
#23 = SURFACE_STYLE_USAGE ( .BOTH. , #192 ) ;
#24 = PLANE ( 'NONE',  #48 ) ;
#25 = ADVANCED_FACE ( 'NONE', ( #20 ), #72, .T. ) ;
#26 = VECTOR ( 'NONE', #185, 1000.000000000000000 ) ;
#27 = DIRECTION ( 'NONE',  ( 0.000000000000000000, 0.000000000000000000, -1.000000000000000000 ) ) ;
#28 = ORIENTED_EDGE ( 'NONE', *, *, #257, .T. ) ;
#29 = FILL_AREA_STYLE_COLOUR ( '', #250 ) ;
#30 = FACE_OUTER_BOUND ( 'NONE', #93, .T. ) ;
#31 = EDGE_CURVE ( 'NONE', #154, #45, #146, .T. ) ;
#32 = VERTEX_POINT ( 'NONE', #113 ) ;
#33 = MECHANICAL_DESIGN_GEOMETRIC_PRESENTATION_REPRESENTATION (  '', ( #63 ), #210 ) ;
#34 = CARTESIAN_POINT ( 'NONE',  ( 0.000000000000000000, 24.00000000000000000, 0.000000000000000000 ) ) ;
#35 = DIRECTION ( 'NONE',  ( 0.000000000000000000, -1.000000000000000000, -0.000000000000000000 ) ) ;
#36 = CARTESIAN_POINT ( 'NONE',  ( -1.469576158976823750E-15, 75.00000000000000000, 0.000000000000000000 ) ) ;
#37 = DIRECTION ( 'NONE',  ( 0.000000000000000000, 0.000000000000000000, -1.000000000000000000 ) ) ;
#38 = AXIS2_PLACEMENT_3D ( 'NONE', #228, #247, #5 ) ;
#39 =( NAMED_UNIT ( * ) SI_UNIT ( $, .STERADIAN. ) SOLID_ANGLE_UNIT ( ) );
#40 = EDGE_CURVE ( 'NONE', #42, #222, #220, .T. ) ;
#41 = EDGE_LOOP ( 'NONE', ( #49, #70, #88, #196 ) ) ;
#42 = VERTEX_POINT ( 'NONE', #79 ) ;
#43 = ADVANCED_FACE ( 'NONE', ( #55 ), #139, .F. ) ;
#44 = PRODUCT_CONTEXT ( 'NONE', #151, 'mechanical' ) ;
#45 = VERTEX_POINT ( 'NONE', #51 ) ;
#46 = STYLED_ITEM ( 'NONE', ( #254 ), #274 ) ;
#47 = DIRECTION ( 'NONE',  ( 1.000000000000000000, 0.000000000000000000, 0.000000000000000000 ) ) ;
#48 = AXIS2_PLACEMENT_3D ( 'NONE', #234, #35, #37 ) ;
#49 = ORIENTED_EDGE ( 'NONE', *, *, #244, .T. ) ;
#50 = DIRECTION ( 'NONE',  ( -0.000000000000000000, -1.000000000000000000, -0.000000000000000000 ) ) ;
#51 = CARTESIAN_POINT ( 'NONE',  ( 7.347880794884119736E-16, 0.000000000000000000, 6.000000000000000000 ) ) ;
#52 = UNCERTAINTY_MEASURE_WITH_UNIT (LENGTH_MEASURE( 1.000000000000000082E-05 ), #56, 'distance_accuracy_value', 'NONE');
#53 = CIRCLE ( 'NONE', #214, 6.000000000000001776 ) ;
#54 =( NAMED_UNIT ( * ) SI_UNIT ( $, .STERADIAN. ) SOLID_ANGLE_UNIT ( ) );
#55 = FACE_OUTER_BOUND ( 'NONE', #284, .T. ) ;
#56 =( LENGTH_UNIT ( ) NAMED_UNIT ( * ) SI_UNIT ( .MILLI., .METRE. ) );
#57 = CARTESIAN_POINT ( 'NONE',  ( -6.000000000000003553, 75.00000000000000000, 0.000000000000000000 ) ) ;
#58 = CIRCLE ( 'NONE', #288, 6.000000000000001776 ) ;
#59 =( GEOMETRIC_REPRESENTATION_CONTEXT ( 3 ) GLOBAL_UNCERTAINTY_ASSIGNED_CONTEXT ( ( #52 ) ) GLOBAL_UNIT_ASSIGNED_CONTEXT ( ( #56, #11, #281 ) ) REPRESENTATION_CONTEXT ( 'NONE', 'WORKASPACE' ) );
#60 = CIRCLE ( 'NONE', #225, 6.000000000000000000 ) ;
#61 = DIRECTION ( 'NONE',  ( -2.881521880346713429E-17, 1.000000000000000000, -0.000000000000000000 ) ) ;
#62 = ADVANCED_FACE ( 'NONE', ( #30 ), #186, .F. ) ;
#63 = STYLED_ITEM ( 'NONE', ( #217 ), #10 ) ;
#64 = ORIENTED_EDGE ( 'NONE', *, *, #40, .T. ) ;
#65 = EDGE_CURVE ( 'NONE', #45, #154, #144, .T. ) ;
#66 = DIRECTION ( 'NONE',  ( 0.000000000000000000, 0.000000000000000000, -1.000000000000000000 ) ) ;
#67 = ORIENTED_EDGE ( 'NONE', *, *, #279, .F. ) ;
#68 = AXIS2_PLACEMENT_3D ( 'NONE', #36, #116, #121 ) ;
#69 = DIRECTION ( 'NONE',  ( 0.000000000000000000, 0.000000000000000000, 1.000000000000000000 ) ) ;
#70 = ORIENTED_EDGE ( 'NONE', *, *, #105, .T. ) ;
#71 = UNCERTAINTY_MEASURE_WITH_UNIT (LENGTH_MEASURE( 1.000000000000000082E-05 ), #242, 'distance_accuracy_value', 'NONE');
#72 = CYLINDRICAL_SURFACE ( 'NONE', #216, 6.000000000000000000 ) ;
#73 = CYLINDRICAL_SURFACE ( 'NONE', #238, 6.000000000000000000 ) ;
#74 = PRODUCT_DEFINITION_FORMATION_WITH_SPECIFIED_SOURCE ( 'ANY', '', #227, .NOT_KNOWN. ) ;
#75 = MECHANICAL_DESIGN_GEOMETRIC_PRESENTATION_REPRESENTATION (  '', ( #191 ), #183 ) ;
#76 = APPLICATION_CONTEXT ( 'automotive_design' ) ;
#77 = FILL_AREA_STYLE_COLOUR ( '', #96 ) ;
#78 = UNCERTAINTY_MEASURE_WITH_UNIT (LENGTH_MEASURE( 1.000000000000000082E-05 ), #98, 'distance_accuracy_value', 'NONE');
#79 = CARTESIAN_POINT ( 'NONE',  ( 6.000000000000000000, 24.00000000000000000, 7.347880794884120722E-16 ) ) ;
#80 = SURFACE_STYLE_FILL_AREA ( #8 ) ;
#81 = SURFACE_SIDE_STYLE ('',( #248 ) ) ;
#82 = DIRECTION ( 'NONE',  ( -1.000000000000000000, -2.881521880346713429E-17, 0.000000000000000000 ) ) ;
#83 = DIRECTION ( 'NONE',  ( 0.000000000000000000, 1.000000000000000000, 0.000000000000000000 ) ) ;
#84 = ADVANCED_FACE ( 'NONE', ( #205 ), #24, .T. ) ;
#85 =( GEOMETRIC_REPRESENTATION_CONTEXT ( 3 ) GLOBAL_UNCERTAINTY_ASSIGNED_CONTEXT ( ( #78 ) ) GLOBAL_UNIT_ASSIGNED_CONTEXT ( ( #98, #106, #268 ) ) REPRESENTATION_CONTEXT ( 'NONE', 'WORKASPACE' ) );
#86 =( GEOMETRIC_REPRESENTATION_CONTEXT ( 3 ) GLOBAL_UNCERTAINTY_ASSIGNED_CONTEXT ( ( #200 ) ) GLOBAL_UNIT_ASSIGNED_CONTEXT ( ( #267, #230, #201 ) ) REPRESENTATION_CONTEXT ( 'NONE', 'WORKASPACE' ) );
#87 = CARTESIAN_POINT ( 'NONE',  ( 5.999999999999999112, 75.00000000000000000, 7.347880794884120722E-16 ) ) ;
#88 = ORIENTED_EDGE ( 'NONE', *, *, #31, .F. ) ;
#89 =( NAMED_UNIT ( * ) PLANE_ANGLE_UNIT ( ) SI_UNIT ( $, .RADIAN. ) );
#90 = ORIENTED_EDGE ( 'NONE', *, *, #65, .F. ) ;
#91 = DIRECTION ( 'NONE',  ( 0.000000000000000000, 0.000000000000000000, -1.000000000000000000 ) ) ;
#92 = ORIENTED_EDGE ( 'NONE', *, *, #212, .T. ) ;
#93 = EDGE_LOOP ( 'NONE', ( #206, #258 ) ) ;
#94 = PRODUCT_DEFINITION_CONTEXT ( 'detailed design', #76, 'design' ) ;
#95 = AXIS2_PLACEMENT_3D ( 'NONE', #166, #69, #47 ) ;
#96 = COLOUR_RGB ( '',1.000000000000000000, 0.000000000000000000, 0.000000000000000000 ) ;
#97 = DIRECTION ( 'NONE',  ( -0.000000000000000000, -1.000000000000000000, -0.000000000000000000 ) ) ;
#98 =( LENGTH_UNIT ( ) NAMED_UNIT ( * ) SI_UNIT ( .MILLI., .METRE. ) );
#99 = ADVANCED_FACE ( 'NONE', ( #122 ), #145, .T. ) ;
#100 = VERTEX_POINT ( 'NONE', #260 ) ;
#101 = CARTESIAN_POINT ( 'NONE',  ( 0.000000000000000000, 0.000000000000000000, -6.000000000000000000 ) ) ;
#102 = CIRCLE ( 'NONE', #108, 6.000000000000000000 ) ;
#103 = CARTESIAN_POINT ( 'NONE',  ( 0.000000000000000000, 24.00000000000000000, 0.000000000000000000 ) ) ;
#104 = SURFACE_SIDE_STYLE ('',( #159 ) ) ;
#105 = EDGE_CURVE ( 'NONE', #32, #45, #148, .T. ) ;
#106 =( NAMED_UNIT ( * ) PLANE_ANGLE_UNIT ( ) SI_UNIT ( $, .RADIAN. ) );
#107 = VECTOR ( 'NONE', #152, 1000.000000000000000 ) ;
#108 = AXIS2_PLACEMENT_3D ( 'NONE', #135, #50, #66 ) ;
#109 = FILL_AREA_STYLE_COLOUR ( '', #259 ) ;
#110 = AXIS2_PLACEMENT_3D ( 'NONE', #117, #265, #7 ) ;
#111 = DIRECTION ( 'NONE',  ( -2.881521880346713429E-17, 1.000000000000000000, -0.000000000000000000 ) ) ;
#112 = ORIENTED_EDGE ( 'NONE', *, *, #257, .F. ) ;
#113 = CARTESIAN_POINT ( 'NONE',  ( 7.347880794884119736E-16, 24.00000000000000000, 6.000000000000000000 ) ) ;
#114 = COLOUR_RGB ( '',0.7921568627450980005, 0.8196078431372548767, 0.9333333333333333481 ) ;
#115 = UNCERTAINTY_MEASURE_WITH_UNIT (LENGTH_MEASURE( 1.000000000000000082E-05 ), #213, 'distance_accuracy_value', 'NONE');
#116 = DIRECTION ( 'NONE',  ( -2.881521880346713429E-17, 1.000000000000000000, -0.000000000000000000 ) ) ;
#117 = CARTESIAN_POINT ( 'NONE',  ( 0.000000000000000000, 0.000000000000000000, 0.000000000000000000 ) ) ;
#118 = MECHANICAL_DESIGN_GEOMETRIC_PRESENTATION_REPRESENTATION (  '', ( #133 ), #86 ) ;
#119 = ORIENTED_EDGE ( 'NONE', *, *, #131, .T. ) ;
#120 = FILL_AREA_STYLE ('',( #163 ) ) ;
#121 = DIRECTION ( 'NONE',  ( -1.000000000000000000, 0.000000000000000000, 0.000000000000000000 ) ) ;
#122 = FACE_OUTER_BOUND ( 'NONE', #199, .T. ) ;
#123 = COLOUR_RGB ( '',1.000000000000000000, 0.000000000000000000, 0.000000000000000000 ) ;
#124 = CARTESIAN_POINT ( 'NONE',  ( -1.469576158976823750E-15, 75.00000000000000000, 0.000000000000000000 ) ) ;
#125 = MECHANICAL_DESIGN_GEOMETRIC_PRESENTATION_REPRESENTATION (  '', ( #256 ), #85 ) ;
#126 = EDGE_CURVE ( 'NONE', #222, #42, #60, .T. ) ;
#127 = CARTESIAN_POINT ( 'NONE',  ( 0.000000000000000000, 0.000000000000000000, 0.000000000000000000 ) ) ;
#128 = DIRECTION ( 'NONE',  ( -1.000000000000000000, 0.000000000000000000, 0.000000000000000000 ) ) ;
#129 =( NAMED_UNIT ( * ) PLANE_ANGLE_UNIT ( ) SI_UNIT ( $, .RADIAN. ) );
#130 = SURFACE_STYLE_FILL_AREA ( #155 ) ;
#131 = EDGE_CURVE ( 'NONE', #32, #162, #102, .T. ) ;
#132 =( GEOMETRIC_REPRESENTATION_CONTEXT ( 3 ) GLOBAL_UNCERTAINTY_ASSIGNED_CONTEXT ( ( #115 ) ) GLOBAL_UNIT_ASSIGNED_CONTEXT ( ( #213, #9, #54 ) ) REPRESENTATION_CONTEXT ( 'NONE', 'WORKASPACE' ) );
#133 = STYLED_ITEM ( 'NONE', ( #198 ), #25 ) ;
#134 = ORIENTED_EDGE ( 'NONE', *, *, #197, .F. ) ;
#135 = CARTESIAN_POINT ( 'NONE',  ( 0.000000000000000000, 24.00000000000000000, 0.000000000000000000 ) ) ;
#136 = DIRECTION ( 'NONE',  ( -0.000000000000000000, -1.000000000000000000, -0.000000000000000000 ) ) ;
#137 =( LENGTH_UNIT ( ) NAMED_UNIT ( * ) SI_UNIT ( .MILLI., .METRE. ) );
#138 = FACE_OUTER_BOUND ( 'NONE', #172, .T. ) ;
#139 = PLANE ( 'NONE',  #38 ) ;
#140 = PRESENTATION_STYLE_ASSIGNMENT (( #209 ) ) ;
#141 = ORIENTED_EDGE ( 'NONE', *, *, #31, .T. ) ;
#142 = DIRECTION ( 'NONE',  ( -0.000000000000000000, -1.000000000000000000, -0.000000000000000000 ) ) ;
#143 = AXIS2_PLACEMENT_3D ( 'NONE', #224, #160, #82 ) ;
#144 = CIRCLE ( 'NONE', #14, 6.000000000000000000 ) ;
#145 = CYLINDRICAL_SURFACE ( 'NONE', #176, 6.000000000000000888 ) ;
#146 = CIRCLE ( 'NONE', #110, 6.000000000000000000 ) ;
#147 = ORIENTED_EDGE ( 'NONE', *, *, #65, .T. ) ;
#148 = LINE ( 'NONE', #194, #165 ) ;
#149 = AXIS2_PLACEMENT_3D ( 'NONE', #229, #83, #276 ) ;
#150 = SURFACE_STYLE_USAGE ( .BOTH. , #195 ) ;
#151 = APPLICATION_CONTEXT ( 'automotive_design' ) ;
#152 = DIRECTION ( 'NONE',  ( -2.881521880346713429E-17, 1.000000000000000000, -0.000000000000000000 ) ) ;
#153 = EDGE_LOOP ( 'NONE', ( #275, #119, #92, #90 ) ) ;
#154 = VERTEX_POINT ( 'NONE', #202 ) ;
#155 = FILL_AREA_STYLE ('',( #17 ) ) ;
#156 = AXIS2_PLACEMENT_3D ( 'NONE', #103, #111, #286 ) ;
#157 =( NAMED_UNIT ( * ) SI_UNIT ( $, .STERADIAN. ) SOLID_ANGLE_UNIT ( ) );
#158 = SURFACE_SIDE_STYLE ('',( #80 ) ) ;
#159 = SURFACE_STYLE_FILL_AREA ( #120 ) ;
#160 = DIRECTION ( 'NONE',  ( -2.881521880346713429E-17, 1.000000000000000000, 0.000000000000000000 ) ) ;
#161 = LINE ( 'NONE', #252, #26 ) ;
#162 = VERTEX_POINT ( 'NONE', #266 ) ;
#163 = FILL_AREA_STYLE_COLOUR ( '', #114 ) ;
#164 = COLOUR_RGB ( '',1.000000000000000000, 0.000000000000000000, 0.000000000000000000 ) ;
#165 = VECTOR ( 'NONE', #97, 1000.000000000000000 ) ;
#166 = CARTESIAN_POINT ( 'NONE',  ( 0.000000000000000000, 0.000000000000000000, 0.000000000000000000 ) ) ;
#167 =( NAMED_UNIT ( * ) SI_UNIT ( $, .STERADIAN. ) SOLID_ANGLE_UNIT ( ) );
#168 = ORIENTED_EDGE ( 'NONE', *, *, #6, .F. ) ;
#169 = LINE ( 'NONE', #87, #107 ) ;
#170 = DIRECTION ( 'NONE',  ( -0.000000000000000000, -1.000000000000000000, -0.000000000000000000 ) ) ;
#171 = ORIENTED_EDGE ( 'NONE', *, *, #131, .F. ) ;
#172 = EDGE_LOOP ( 'NONE', ( #237, #283, #112, #134 ) ) ;
#173 = CLOSED_SHELL ( 'NONE', ( #25, #177, #10, #84 ) ) ;
#174 = MECHANICAL_DESIGN_GEOMETRIC_PRESENTATION_REPRESENTATION (  '', ( #46 ), #59 ) ;
#175 = CARTESIAN_POINT ( 'NONE',  ( 0.000000000000000000, 0.000000000000000000, 0.000000000000000000 ) ) ;
#176 = AXIS2_PLACEMENT_3D ( 'NONE', #124, #236, #128 ) ;
#177 = ADVANCED_FACE ( 'NONE', ( #218 ), #204, .T. ) ;
#178 = DIRECTION ( 'NONE',  ( -1.000000000000000000, 0.000000000000000000, 0.000000000000000000 ) ) ;
#179 = UNCERTAINTY_MEASURE_WITH_UNIT (LENGTH_MEASURE( 1.000000000000000082E-05 ), #280, 'distance_accuracy_value', 'NONE');
#180 = PRODUCT_DEFINITION_SHAPE ( 'NONE', 'NONE',  #1 ) ;
#181 = LINE ( 'NONE', #101, #188 ) ;
#182 = CARTESIAN_POINT ( 'NONE',  ( 0.000000000000000000, 0.000000000000000000, 0.000000000000000000 ) ) ;
#183 =( GEOMETRIC_REPRESENTATION_CONTEXT ( 3 ) GLOBAL_UNCERTAINTY_ASSIGNED_CONTEXT ( ( #4 ) ) GLOBAL_UNIT_ASSIGNED_CONTEXT ( ( #137, #255, #39 ) ) REPRESENTATION_CONTEXT ( 'NONE', 'WORKASPACE' ) );
#184 = PRESENTATION_LAYER_ASSIGNMENT (  '', '', ( #271 ) ) ;
#185 = DIRECTION ( 'NONE',  ( -2.881521880346713429E-17, 1.000000000000000000, -0.000000000000000000 ) ) ;
#186 = PLANE ( 'NONE',  #143 ) ;
#187 = SURFACE_STYLE_USAGE ( .BOTH. , #104 ) ;
#188 = VECTOR ( 'NONE', #142, 1000.000000000000000 ) ;
#189 = PRODUCT_RELATED_PRODUCT_CATEGORY ( 'part', '', ( #227 ) ) ;
#190 = PRESENTATION_LAYER_ASSIGNMENT (  '', '', ( #46 ) ) ;
#191 = STYLED_ITEM ( 'NONE', ( #140 ), #84 ) ;
#192 = SURFACE_SIDE_STYLE ('',( #223 ) ) ;
#193 = FILL_AREA_STYLE ('',( #109 ) ) ;
#194 = CARTESIAN_POINT ( 'NONE',  ( 7.347880794884119736E-16, 0.000000000000000000, 6.000000000000000000 ) ) ;
#195 = SURFACE_SIDE_STYLE ('',( #278 ) ) ;
#196 = ORIENTED_EDGE ( 'NONE', *, *, #212, .F. ) ;
#197 = EDGE_CURVE ( 'NONE', #222, #243, #161, .T. ) ;
#198 = PRESENTATION_STYLE_ASSIGNMENT (( #150 ) ) ;
#199 = EDGE_LOOP ( 'NONE', ( #67, #64, #241, #168 ) ) ;
#200 = UNCERTAINTY_MEASURE_WITH_UNIT (LENGTH_MEASURE( 1.000000000000000082E-05 ), #267, 'distance_accuracy_value', 'NONE');
#201 =( NAMED_UNIT ( * ) SI_UNIT ( $, .STERADIAN. ) SOLID_ANGLE_UNIT ( ) );
#202 = CARTESIAN_POINT ( 'NONE',  ( 0.000000000000000000, 0.000000000000000000, -6.000000000000000000 ) ) ;
#203 = FILL_AREA_STYLE_COLOUR ( '', #164 ) ;
#204 = PLANE ( 'NONE',  #149 ) ;
#205 = FACE_OUTER_BOUND ( 'NONE', #282, .T. ) ;
#206 = ORIENTED_EDGE ( 'NONE', *, *, #126, .F. ) ;
#207 = PRESENTATION_STYLE_ASSIGNMENT (( #251 ) ) ;
#208 = DIRECTION ( 'NONE',  ( -0.000000000000000000, -1.000000000000000000, -0.000000000000000000 ) ) ;
#209 = SURFACE_STYLE_USAGE ( .BOTH. , #81 ) ;
#210 =( GEOMETRIC_REPRESENTATION_CONTEXT ( 3 ) GLOBAL_UNCERTAINTY_ASSIGNED_CONTEXT ( ( #179 ) ) GLOBAL_UNIT_ASSIGNED_CONTEXT ( ( #280, #129, #167 ) ) REPRESENTATION_CONTEXT ( 'NONE', 'WORKASPACE' ) );
#211 = CARTESIAN_POINT ( 'NONE',  ( -1.469576158976823750E-15, 75.00000000000000000, 0.000000000000000000 ) ) ;
#212 = EDGE_CURVE ( 'NONE', #162, #154, #181, .T. ) ;
#213 =( LENGTH_UNIT ( ) NAMED_UNIT ( * ) SI_UNIT ( .MILLI., .METRE. ) );
#214 = AXIS2_PLACEMENT_3D ( 'NONE', #211, #61, #233 ) ;
#215 =( GEOMETRIC_REPRESENTATION_CONTEXT ( 3 ) GLOBAL_UNCERTAINTY_ASSIGNED_CONTEXT ( ( #71 ) ) GLOBAL_UNIT_ASSIGNED_CONTEXT ( ( #242, #89, #157 ) ) REPRESENTATION_CONTEXT ( 'NONE', 'WORKASPACE' ) );
#216 = AXIS2_PLACEMENT_3D ( 'NONE', #175, #208, #21 ) ;
#217 = PRESENTATION_STYLE_ASSIGNMENT (( #219 ) ) ;
#218 = FACE_OUTER_BOUND ( 'NONE', #3, .T. ) ;
#219 = SURFACE_STYLE_USAGE ( .BOTH. , #261 ) ;
#220 = CIRCLE ( 'NONE', #156, 6.000000000000000000 ) ;
#221 = SHAPE_DEFINITION_REPRESENTATION ( #180, #231 ) ;
#222 = VERTEX_POINT ( 'NONE', #249 ) ;
#223 = SURFACE_STYLE_FILL_AREA ( #16 ) ;
#224 = CARTESIAN_POINT ( 'NONE',  ( 2.490950504075057843E-33, 24.00000000000000000, 0.000000000000000000 ) ) ;
#225 = AXIS2_PLACEMENT_3D ( 'NONE', #246, #239, #178 ) ;
#226 = ADVANCED_FACE ( 'NONE', ( #138 ), #269, .T. ) ;
#227 = PRODUCT ( '59543', '59543', '', ( #44 ) ) ;
#228 = CARTESIAN_POINT ( 'NONE',  ( 6.000000000000000000, 75.00000000000000000, 0.000000000000000000 ) ) ;
#229 = CARTESIAN_POINT ( 'NONE',  ( 0.000000000000000000, 24.00000000000000000, 0.000000000000000000 ) ) ;
#230 =( NAMED_UNIT ( * ) PLANE_ANGLE_UNIT ( ) SI_UNIT ( $, .RADIAN. ) );
#231 = ADVANCED_BREP_SHAPE_REPRESENTATION ( '59543', ( #262, #274, #95 ), #215 ) ;
#232 = ORIENTED_EDGE ( 'NONE', *, *, #6, .T. ) ;
#233 = DIRECTION ( 'NONE',  ( -1.000000000000000000, 0.000000000000000000, 0.000000000000000000 ) ) ;
#234 = CARTESIAN_POINT ( 'NONE',  ( 0.000000000000000000, 0.000000000000000000, 0.000000000000000000 ) ) ;
#235 = AXIS2_PLACEMENT_3D ( 'NONE', #34, #272, #273 ) ;
#236 = DIRECTION ( 'NONE',  ( -2.881521880346713429E-17, 1.000000000000000000, -0.000000000000000000 ) ) ;
#237 = ORIENTED_EDGE ( 'NONE', *, *, #126, .T. ) ;
#238 = AXIS2_PLACEMENT_3D ( 'NONE', #127, #170, #91 ) ;
#239 = DIRECTION ( 'NONE',  ( -2.881521880346713429E-17, 1.000000000000000000, -0.000000000000000000 ) ) ;
#240 = DIRECTION ( 'NONE',  ( -2.881521880346713429E-17, 1.000000000000000000, -0.000000000000000000 ) ) ;
#241 = ORIENTED_EDGE ( 'NONE', *, *, #197, .T. ) ;
#242 =( LENGTH_UNIT ( ) NAMED_UNIT ( * ) SI_UNIT ( .MILLI., .METRE. ) );
#243 = VERTEX_POINT ( 'NONE', #57 ) ;
#244 = EDGE_CURVE ( 'NONE', #162, #32, #12, .T. ) ;
#245 = PRESENTATION_LAYER_ASSIGNMENT (  '', '', ( #63 ) ) ;
#246 = CARTESIAN_POINT ( 'NONE',  ( 0.000000000000000000, 24.00000000000000000, 0.000000000000000000 ) ) ;
#247 = DIRECTION ( 'NONE',  ( 2.881521880346713429E-17, -1.000000000000000000, 0.000000000000000000 ) ) ;
#248 = SURFACE_STYLE_FILL_AREA ( #270 ) ;
#249 = CARTESIAN_POINT ( 'NONE',  ( -6.000000000000000000, 24.00000000000000000, 0.000000000000000000 ) ) ;
#250 = COLOUR_RGB ( '',0.7921568627450980005, 0.8196078431372548767, 0.9333333333333333481 ) ;
#251 = SURFACE_STYLE_USAGE ( .BOTH. , #158 ) ;
#252 = CARTESIAN_POINT ( 'NONE',  ( -6.000000000000002665, 75.00000000000000000, 0.000000000000000000 ) ) ;
#253 = PRESENTATION_LAYER_ASSIGNMENT (  '', '', ( #256 ) ) ;
#254 = PRESENTATION_STYLE_ASSIGNMENT (( #187 ) ) ;
#255 =( NAMED_UNIT ( * ) PLANE_ANGLE_UNIT ( ) SI_UNIT ( $, .RADIAN. ) );
#256 = STYLED_ITEM ( 'NONE', ( #2 ), #177 ) ;
#257 = EDGE_CURVE ( 'NONE', #243, #100, #53, .T. ) ;
#258 = ORIENTED_EDGE ( 'NONE', *, *, #40, .F. ) ;
#259 = COLOUR_RGB ( '',1.000000000000000000, 0.000000000000000000, 0.000000000000000000 ) ;
#260 = CARTESIAN_POINT ( 'NONE',  ( 6.000000000000000000, 75.00000000000000000, 7.347880794884120722E-16 ) ) ;
#261 = SURFACE_SIDE_STYLE ('',( #130 ) ) ;
#262 = MANIFOLD_SOLID_BREP ( 'Revolve - Cutting Edge', #173 ) ;
#263 = FACE_OUTER_BOUND ( 'NONE', #153, .T. ) ;
#264 = DIRECTION ( 'NONE',  ( -1.000000000000000000, 0.000000000000000000, 0.000000000000000000 ) ) ;
#265 = DIRECTION ( 'NONE',  ( -0.000000000000000000, -1.000000000000000000, -0.000000000000000000 ) ) ;
#266 = CARTESIAN_POINT ( 'NONE',  ( 0.000000000000000000, 24.00000000000000000, -6.000000000000000000 ) ) ;
#267 =( LENGTH_UNIT ( ) NAMED_UNIT ( * ) SI_UNIT ( .MILLI., .METRE. ) );
#268 =( NAMED_UNIT ( * ) SI_UNIT ( $, .STERADIAN. ) SOLID_ANGLE_UNIT ( ) );
#269 = CYLINDRICAL_SURFACE ( 'NONE', #68, 6.000000000000000888 ) ;
#270 = FILL_AREA_STYLE ('',( #203 ) ) ;
#271 = STYLED_ITEM ( 'NONE', ( #207 ), #262 ) ;
#272 = DIRECTION ( 'NONE',  ( -0.000000000000000000, -1.000000000000000000, -0.000000000000000000 ) ) ;
#273 = DIRECTION ( 'NONE',  ( 0.000000000000000000, 0.000000000000000000, -1.000000000000000000 ) ) ;
#274 = MANIFOLD_SOLID_BREP ( 'Revolve - Tool Body (Straight Shanked)', #13 ) ;
#275 = ORIENTED_EDGE ( 'NONE', *, *, #105, .F. ) ;
#276 = DIRECTION ( 'NONE',  ( 0.000000000000000000, -0.000000000000000000, 1.000000000000000000 ) ) ;
#277 = PRESENTATION_LAYER_ASSIGNMENT (  '', '', ( #191 ) ) ;
#278 = SURFACE_STYLE_FILL_AREA ( #193 ) ;
#279 = EDGE_CURVE ( 'NONE', #42, #100, #169, .T. ) ;
#280 =( LENGTH_UNIT ( ) NAMED_UNIT ( * ) SI_UNIT ( .MILLI., .METRE. ) );
#281 =( NAMED_UNIT ( * ) SI_UNIT ( $, .STERADIAN. ) SOLID_ANGLE_UNIT ( ) );
#282 = EDGE_LOOP ( 'NONE', ( #141, #147 ) ) ;
#283 = ORIENTED_EDGE ( 'NONE', *, *, #279, .T. ) ;
#284 = EDGE_LOOP ( 'NONE', ( #28, #232 ) ) ;
#285 = APPLICATION_PROTOCOL_DEFINITION ( 'draft international standard', 'automotive_design', 1998, #151 ) ;
#286 = DIRECTION ( 'NONE',  ( -1.000000000000000000, 0.000000000000000000, 0.000000000000000000 ) ) ;
#287 = ORIENTED_EDGE ( 'NONE', *, *, #244, .F. ) ;
#288 = AXIS2_PLACEMENT_3D ( 'NONE', #22, #240, #264 ) ;
ENDSEC;
END-ISO-10303-21;
