ISO-10303-21;
HEADER;
FILE_DESCRIPTION (( 'STEP AP214' ),
    '1' );
FILE_NAME ('Micro_GEC-062-4-005.STEP',
    '2021-09-03T17:03:38',
    ( '' ),
    ( '' ),
    'SwSTEP 2.0',
    'SolidWorks 2020',
    '' );
FILE_SCHEMA (( 'AUTOMOTIVE_DESIGN' ));
ENDSEC;

DATA;
#1 = CARTESIAN_POINT ( 'NONE',  ( 0.03121875000000002773, 0.0000000000000000000, 0.1880000000000000282 ) ) ;
#2 = EDGE_LOOP ( 'NONE', ( #340, #305, #21, #287 ) ) ;
#3 = PRESENTATION_STYLE_ASSIGNMENT (( #159 ) ) ;
#4 = CARTESIAN_POINT ( 'NONE',  ( -0.04750000000000064587, 0.0000000000000000000, 1.500000000000000222 ) ) ;
#5 = ORIENTED_EDGE ( 'NONE', *, *, #339, .T. ) ;
#6 = CIRCLE ( 'NONE', #221, 0.03121875000000000691 ) ;
#7 = VECTOR ( 'NONE', #168, 39.37007874015748143 ) ;
#8 = CARTESIAN_POINT ( 'NONE',  ( -0.03121875000000000691, 0.0000000000000000000, 3.823194226088145998E-18 ) ) ;
#9 = AXIS2_PLACEMENT_3D ( 'NONE', #46, #83, #297 ) ;
#10 = PRODUCT ( 'Micro_GEC-062-4-005', 'Micro_GEC-062-4-005', '', ( #122 ) ) ;
#11 = DIRECTION ( 'NONE',  ( -0.0000000000000000000, -0.0000000000000000000, -1.000000000000000000 ) ) ;
#12 = LINE ( 'NONE', #141, #246 ) ;
#13 = DIRECTION ( 'NONE',  ( 0.0000000000000000000, 0.0000000000000000000, -1.000000000000000000 ) ) ;
#14 = LINE ( 'NONE', #296, #247 ) ;
#15 = DIRECTION ( 'NONE',  ( -1.224646799147353700E-16, -0.0000000000000000000, -1.000000000000000000 ) ) ;
#16 = DIRECTION ( 'NONE',  ( 1.000000000000000000, 0.0000000000000000000, 0.0000000000000000000 ) ) ;
#17 = ORIENTED_EDGE ( 'NONE', *, *, #156, .F. ) ;
#18 = CARTESIAN_POINT ( 'NONE',  ( 0.02621875000000000941, 0.0000000000000000000, 0.005000000000000000104 ) ) ;
#19 = PRODUCT_DEFINITION ( 'UNKNOWN', '', #242, #346 ) ;
#20 = LENGTH_MEASURE_WITH_UNIT ( LENGTH_MEASURE( 0.02539999999999999897 ), #130 );
#21 = ORIENTED_EDGE ( 'NONE', *, *, #156, .T. ) ;
#22 =( GEOMETRIC_REPRESENTATION_CONTEXT ( 3 ) GLOBAL_UNCERTAINTY_ASSIGNED_CONTEXT ( ( #98 ) ) GLOBAL_UNIT_ASSIGNED_CONTEXT ( ( #127, #134, #240 ) ) REPRESENTATION_CONTEXT ( 'NONE', 'WORKASPACE' ) );
#23 = LINE ( 'NONE', #326, #285 ) ;
#24 = VERTEX_POINT ( 'NONE', #4 ) ;
#25 = EDGE_CURVE ( 'NONE', #133, #149, #6, .T. ) ;
#26 = ORIENTED_EDGE ( 'NONE', *, *, #146, .F. ) ;
#27 = DIRECTION ( 'NONE',  ( 0.0000000000000000000, 0.0000000000000000000, -1.000000000000000000 ) ) ;
#28 = ORIENTED_EDGE ( 'NONE', *, *, #112, .F. ) ;
#29 = CIRCLE ( 'NONE', #64, 0.06250000000000002776 ) ;
#30 = VECTOR ( 'NONE', #208, 39.37007874015748143 ) ;
#31 = VERTEX_POINT ( 'NONE', #60 ) ;
#32 = ORIENTED_EDGE ( 'NONE', *, *, #335, .F. ) ;
#33 = EDGE_CURVE ( 'NONE', #31, #324, #281, .T. ) ;
#34 = EDGE_CURVE ( 'NONE', #24, #238, #181, .T. ) ;
#35 = CONICAL_SURFACE ( 'NONE', #293, 0.04750000000000064587, 0.7853981633974466137 ) ;
#36 = FILL_AREA_STYLE_COLOUR ( '', #279 ) ;
#37 = CONICAL_SURFACE ( 'NONE', #80, 0.04750000000000064587, 0.7853981633974466137 ) ;
#38 =( NAMED_UNIT ( * ) PLANE_ANGLE_UNIT ( ) SI_UNIT ( $, .RADIAN. ) );
#39 = LINE ( 'NONE', #280, #69 ) ;
#40 = SURFACE_SIDE_STYLE ('',( #142 ) ) ;
#41 = EDGE_CURVE ( 'NONE', #269, #149, #143, .T. ) ;
#42 = DIRECTION ( 'NONE',  ( 1.000000000000000000, 0.0000000000000000000, 0.0000000000000000000 ) ) ;
#43 = ORIENTED_EDGE ( 'NONE', *, *, #229, .T. ) ;
#44 = FACE_OUTER_BOUND ( 'NONE', #2, .T. ) ;
#45 = EDGE_CURVE ( 'NONE', #324, #295, #39, .T. ) ;
#46 = CARTESIAN_POINT ( 'NONE',  ( 6.123233995736768848E-19, 0.0000000000000000000, 0.005000000000000000104 ) ) ;
#47 = ORIENTED_EDGE ( 'NONE', *, *, #233, .F. ) ;
#48 = AXIS2_PLACEMENT_3D ( 'NONE', #77, #261, #81 ) ;
#49 = DIRECTION ( 'NONE',  ( 1.000000000000000000, 0.0000000000000000000, 0.0000000000000000000 ) ) ;
#50 = EDGE_CURVE ( 'NONE', #31, #86, #12, .T. ) ;
#51 = DIRECTION ( 'NONE',  ( -1.224646799147353700E-16, -0.0000000000000000000, -1.000000000000000000 ) ) ;
#52 = ORIENTED_EDGE ( 'NONE', *, *, #41, .T. ) ;
#53 = AXIS2_PLACEMENT_3D ( 'NONE', #282, #307, #61 ) ;
#54 = COLOUR_RGB ( '',0.7921568627450980005, 0.8196078431372548767, 0.9333333333333333481 ) ;
#55 = FILL_AREA_STYLE ('',( #162 ) ) ;
#56 = ORIENTED_EDGE ( 'NONE', *, *, #62, .F. ) ;
#57 =( NAMED_UNIT ( * ) SI_UNIT ( $, .STERADIAN. ) SOLID_ANGLE_UNIT ( ) );
#58 = EDGE_CURVE ( 'NONE', #31, #149, #336, .T. ) ;
#59 = ORIENTED_EDGE ( 'NONE', *, *, #323, .F. ) ;
#60 = CARTESIAN_POINT ( 'NONE',  ( -0.03121874999999998609, 5.738618360379552157E-18, 0.1880000000000000282 ) ) ;
#61 = DIRECTION ( 'NONE',  ( 1.000000000000000000, 0.0000000000000000000, 0.0000000000000000000 ) ) ;
#62 = EDGE_CURVE ( 'NONE', #238, #154, #333, .T. ) ;
#63 = DIRECTION ( 'NONE',  ( 0.0000000000000000000, 0.0000000000000000000, 1.000000000000000000 ) ) ;
#64 = AXIS2_PLACEMENT_3D ( 'NONE', #314, #294, #318 ) ;
#65 = LENGTH_MEASURE_WITH_UNIT ( LENGTH_MEASURE( 0.02539999999999999897 ), #331 );
#66 = CARTESIAN_POINT ( 'NONE',  ( 0.04750000000000064587, 5.817072295950006528E-18, 1.500000000000000222 ) ) ;
#67 = CARTESIAN_POINT ( 'NONE',  ( -0.02621875000000000941, 3.210870826514467669E-18, 0.005000000000000000104 ) ) ;
#68 = CARTESIAN_POINT ( 'NONE',  ( 2.302335982397025094E-17, 0.0000000000000000000, 0.1880000000000000282 ) ) ;
#69 = VECTOR ( 'NONE', #248, 39.37007874015748143 ) ;
#70 = ORIENTED_EDGE ( 'NONE', *, *, #204, .F. ) ;
#71 = DIRECTION ( 'NONE',  ( 0.0000000000000000000, 0.0000000000000000000, 1.000000000000000000 ) ) ;
#72 = CARTESIAN_POINT ( 'NONE',  ( 0.0000000000000000000, 0.0000000000000000000, 1.500000000000000222 ) ) ;
#73 = AXIS2_PLACEMENT_3D ( 'NONE', #260, #230, #42 ) ;
#74 = AXIS2_PLACEMENT_3D ( 'NONE', #325, #265, #103 ) ;
#75 = DIRECTION ( 'NONE',  ( 1.000000000000000000, 0.0000000000000000000, -0.0000000000000000000 ) ) ;
#76 = DIRECTION ( 'NONE',  ( -1.000000000000000000, 0.0000000000000000000, 0.0000000000000000000 ) ) ;
#77 = CARTESIAN_POINT ( 'NONE',  ( 0.0000000000000000000, 0.0000000000000000000, 0.0000000000000000000 ) ) ;
#78 = ORIENTED_EDGE ( 'NONE', *, *, #33, .T. ) ;
#79 = ADVANCED_FACE ( 'NONE', ( #251 ), #139, .T. ) ;
#80 = AXIS2_PLACEMENT_3D ( 'NONE', #348, #27, #268 ) ;
#81 = DIRECTION ( 'NONE',  ( 1.000000000000000000, 0.0000000000000000000, -0.0000000000000000000 ) ) ;
#82 = EDGE_LOOP ( 'NONE', ( #59, #131, #5, #185 ) ) ;
#83 = DIRECTION ( 'NONE',  ( 0.0000000000000000000, 0.0000000000000000000, 1.000000000000000000 ) ) ;
#84 = ORIENTED_EDGE ( 'NONE', *, *, #102, .T. ) ;
#85 = EDGE_CURVE ( 'NONE', #149, #133, #184, .T. ) ;
#86 = VERTEX_POINT ( 'NONE', #89 ) ;
#87 = AXIS2_PLACEMENT_3D ( 'NONE', #286, #145, #75 ) ;
#88 =( GEOMETRIC_REPRESENTATION_CONTEXT ( 3 ) GLOBAL_UNCERTAINTY_ASSIGNED_CONTEXT ( ( #301 ) ) GLOBAL_UNIT_ASSIGNED_CONTEXT ( ( #182, #319, #57 ) ) REPRESENTATION_CONTEXT ( 'NONE', 'WORKASPACE' ) );
#89 = CARTESIAN_POINT ( 'NONE',  ( -0.06249999999999997918, 0.0000000000000000000, 0.3654047844199155848 ) ) ;
#90 = CARTESIAN_POINT ( 'NONE',  ( 0.0000000000000000000, 0.0000000000000000000, 1.500000000000000222 ) ) ;
#91 = ADVANCED_FACE ( 'NONE', ( #225 ), #219, .T. ) ;
#92 = AXIS2_PLACEMENT_3D ( 'NONE', #176, #175, #289 ) ;
#93 = DIRECTION ( 'NONE',  ( 0.0000000000000000000, 0.0000000000000000000, -1.000000000000000000 ) ) ;
#94 = ADVANCED_FACE ( 'NONE', ( #245 ), #35, .T. ) ;
#95 = CARTESIAN_POINT ( 'NONE',  ( 0.03121875000000000691, 3.823194226088144458E-18, 0.005000000000000000971 ) ) ;
#96 = DIRECTION ( 'NONE',  ( -1.224646799147353700E-16, -0.0000000000000000000, -1.000000000000000000 ) ) ;
#97 = ORIENTED_EDGE ( 'NONE', *, *, #58, .T. ) ;
#98 = UNCERTAINTY_MEASURE_WITH_UNIT (LENGTH_MEASURE( 1.000000000000000082E-05 ), #127, 'distance_accuracy_value', 'NONE');
#99 = CARTESIAN_POINT ( 'NONE',  ( -0.02621875000000000941, 3.517032526301306063E-18, 0.0000000000000000000 ) ) ;
#100 = CARTESIAN_POINT ( 'NONE',  ( -0.03121875000000000691, 0.0000000000000000000, 0.005000000000000000971 ) ) ;
#101 = AXIS2_PLACEMENT_3D ( 'NONE', #68, #15, #200 ) ;
#102 = EDGE_CURVE ( 'NONE', #302, #24, #190, .T. ) ;
#103 = DIRECTION ( 'NONE',  ( 1.000000000000000000, 0.0000000000000000000, 0.0000000000000000000 ) ) ;
#104 = ORIENTED_EDGE ( 'NONE', *, *, #50, .F. ) ;
#105 = MANIFOLD_SOLID_BREP ( 'Fillet1', #161 ) ;
#106 = ORIENTED_EDGE ( 'NONE', *, *, #146, .T. ) ;
#107 = UNCERTAINTY_MEASURE_WITH_UNIT (LENGTH_MEASURE( 1.000000000000000082E-05 ), #276, 'distance_accuracy_value', 'NONE');
#108 = EDGE_LOOP ( 'NONE', ( #300, #70, #106, #350 ) ) ;
#109 = DIRECTION ( 'NONE',  ( 0.0000000000000000000, 0.0000000000000000000, 1.000000000000000000 ) ) ;
#110 = CARTESIAN_POINT ( 'NONE',  ( 6.123233995736769811E-19, 0.0000000000000000000, 0.005000000000000000971 ) ) ;
#111 = CIRCLE ( 'NONE', #101, 0.03121875000000000691 ) ;
#112 = EDGE_CURVE ( 'NONE', #302, #154, #222, .T. ) ;
#113 = DIRECTION ( 'NONE',  ( -1.000000000000000000, 1.224646799147353947E-16, 0.0000000000000000000 ) ) ;
#114 = PRESENTATION_STYLE_ASSIGNMENT (( #167 ) ) ;
#115 = AXIS2_PLACEMENT_3D ( 'NONE', #18, #231, #126 ) ;
#116 = CARTESIAN_POINT ( 'NONE',  ( 0.0000000000000000000, 0.0000000000000000000, 1.500000000000000222 ) ) ;
#117 = AXIS2_PLACEMENT_3D ( 'NONE', #72, #253, #49 ) ;
#118 = CARTESIAN_POINT ( 'NONE',  ( 4.474917996329784544E-17, 0.0000000000000000000, 0.3654047844199155848 ) ) ;
#119 = CARTESIAN_POINT ( 'NONE',  ( 0.0000000000000000000, 0.0000000000000000000, 0.0000000000000000000 ) ) ;
#120 = CYLINDRICAL_SURFACE ( 'NONE', #92, 0.03121875000000000691 ) ;
#121 = EDGE_LOOP ( 'NONE', ( #43, #84 ) ) ;
#122 = PRODUCT_CONTEXT ( 'NONE', #187, 'mechanical' ) ;
#123 = CARTESIAN_POINT ( 'NONE',  ( 6.123233995736768848E-19, 0.0000000000000000000, 0.005000000000000000104 ) ) ;
#124 = PRESENTATION_LAYER_ASSIGNMENT (  '', '', ( #250 ) ) ;
#125 = DIRECTION ( 'NONE',  ( -0.0000000000000000000, -0.0000000000000000000, -1.000000000000000000 ) ) ;
#126 = DIRECTION ( 'NONE',  ( 0.0000000000000000000, 0.0000000000000000000, -1.000000000000000000 ) ) ;
#127 =( CONVERSION_BASED_UNIT ( 'INCH', #20 ) LENGTH_UNIT ( ) NAMED_UNIT ( #277 ) );
#128 = ORIENTED_EDGE ( 'NONE', *, *, #34, .T. ) ;
#129 = VECTOR ( 'NONE', #144, 39.37007874015748854 ) ;
#130 =( LENGTH_UNIT ( ) NAMED_UNIT ( * ) SI_UNIT ( $, .METRE. ) );
#131 = ORIENTED_EDGE ( 'NONE', *, *, #335, .T. ) ;
#132 = SURFACE_SIDE_STYLE ('',( #153 ) ) ;
#133 = VERTEX_POINT ( 'NONE', #95 ) ;
#134 =( NAMED_UNIT ( * ) PLANE_ANGLE_UNIT ( ) SI_UNIT ( $, .RADIAN. ) );
#135 = ORIENTED_EDGE ( 'NONE', *, *, #252, .T. ) ;
#136 = VECTOR ( 'NONE', #170, 39.37007874015748854 ) ;
#137 = VERTEX_POINT ( 'NONE', #151 ) ;
#138 = EDGE_LOOP ( 'NONE', ( #275, #188, #17, #351 ) ) ;
#139 = CYLINDRICAL_SURFACE ( 'NONE', #199, 0.06250000000000002776 ) ;
#140 = AXIS2_PLACEMENT_3D ( 'NONE', #119, #201, #288 ) ;
#141 = CARTESIAN_POINT ( 'NONE',  ( -0.03121874999999998609, 3.823194226088144458E-18, 0.1880000000000000282 ) ) ;
#142 = SURFACE_STYLE_FILL_AREA ( #312 ) ;
#143 = CIRCLE ( 'NONE', #341, 0.004999999999999997502 ) ;
#144 = DIRECTION ( 'NONE',  ( -0.7071067811865462405, 0.0000000000000000000, -0.7071067811865486830 ) ) ;
#145 = DIRECTION ( 'NONE',  ( 0.0000000000000000000, 0.0000000000000000000, 1.000000000000000000 ) ) ;
#146 = EDGE_CURVE ( 'NONE', #137, #133, #177, .T. ) ;
#147 = CARTESIAN_POINT ( 'NONE',  ( 2.302335982397025094E-17, 0.0000000000000000000, 0.1880000000000000282 ) ) ;
#148 = FACE_OUTER_BOUND ( 'NONE', #160, .T. ) ;
#149 = VERTEX_POINT ( 'NONE', #100 ) ;
#150 = DIRECTION ( 'NONE',  ( 1.000000000000000000, 0.0000000000000000000, 0.0000000000000000000 ) ) ;
#151 = CARTESIAN_POINT ( 'NONE',  ( 0.02621875000000000941, 0.0000000000000000000, 0.0000000000000000000 ) ) ;
#152 = ADVANCED_FACE ( 'NONE', ( #205 ), #197, .T. ) ;
#153 = SURFACE_STYLE_FILL_AREA ( #55 ) ;
#154 = VERTEX_POINT ( 'NONE', #316 ) ;
#155 = AXIS2_PLACEMENT_3D ( 'NONE', #171, #13, #308 ) ;
#156 = EDGE_CURVE ( 'NONE', #86, #295, #29, .T. ) ;
#157 = DIRECTION ( 'NONE',  ( -0.0000000000000000000, -0.0000000000000000000, -1.000000000000000000 ) ) ;
#158 = EDGE_LOOP ( 'NONE', ( #28, #272, #128, #32 ) ) ;
#159 = SURFACE_STYLE_USAGE ( .BOTH. , #132 ) ;
#160 = EDGE_LOOP ( 'NONE', ( #104, #163, #263, #135 ) ) ;
#161 = CLOSED_SHELL ( 'NONE', ( #271, #152, #264, #315, #91, #79, #220, #94, #191, #254, #290, #237 ) ) ;
#162 = FILL_AREA_STYLE_COLOUR ( '', #54 ) ;
#163 = ORIENTED_EDGE ( 'NONE', *, *, #169, .F. ) ;
#164 = CIRCLE ( 'NONE', #235, 0.02621875000000000941 ) ;
#165 = CARTESIAN_POINT ( 'NONE',  ( 2.302335982397025094E-17, 0.0000000000000000000, 0.1880000000000000282 ) ) ;
#166 = EDGE_CURVE ( 'NONE', #269, #137, #256, .T. ) ;
#167 = SURFACE_STYLE_USAGE ( .BOTH. , #40 ) ;
#168 = DIRECTION ( 'NONE',  ( -1.224646799147353700E-16, -0.0000000000000000000, -1.000000000000000000 ) ) ;
#169 = EDGE_CURVE ( 'NONE', #324, #31, #111, .T. ) ;
#170 = DIRECTION ( 'NONE',  ( 0.7071067811865462405, 8.659560562354916834E-17, -0.7071067811865486830 ) ) ;
#171 = CARTESIAN_POINT ( 'NONE',  ( 0.0000000000000000000, 0.0000000000000000000, 1.485000000000000764 ) ) ;
#172 = TOROIDAL_SURFACE ( 'NONE', #334, 0.02621875000000000941, 0.005000000000000000104 ) ;
#173 = CARTESIAN_POINT ( 'NONE',  ( 6.123233995736768848E-19, 0.0000000000000000000, 0.0000000000000000000 ) ) ;
#174 = EDGE_LOOP ( 'NONE', ( #180, #298 ) ) ;
#175 = DIRECTION ( 'NONE',  ( -1.224646799147353700E-16, -0.0000000000000000000, -1.000000000000000000 ) ) ;
#176 = CARTESIAN_POINT ( 'NONE',  ( 0.0000000000000000000, 0.0000000000000000000, 0.0000000000000000000 ) ) ;
#177 = CIRCLE ( 'NONE', #115, 0.005000000000000000104 ) ;
#178 = AXIS2_PLACEMENT_3D ( 'NONE', #147, #255, #343 ) ;
#179 = FACE_OUTER_BOUND ( 'NONE', #108, .T. ) ;
#180 = ORIENTED_EDGE ( 'NONE', *, *, #204, .T. ) ;
#181 = LINE ( 'NONE', #192, #129 ) ;
#182 =( CONVERSION_BASED_UNIT ( 'INCH', #303 ) LENGTH_UNIT ( ) NAMED_UNIT ( #223 ) );
#183 = ORIENTED_EDGE ( 'NONE', *, *, #169, .T. ) ;
#184 = CIRCLE ( 'NONE', #53, 0.03121875000000000691 ) ;
#185 = ORIENTED_EDGE ( 'NONE', *, *, #252, .F. ) ;
#186 = CARTESIAN_POINT ( 'NONE',  ( 0.04750000000000064587, 6.735557395310483192E-18, 1.500000000000000222 ) ) ;
#187 = APPLICATION_CONTEXT ( 'automotive_design' ) ;
#188 = ORIENTED_EDGE ( 'NONE', *, *, #323, .T. ) ;
#189 = EDGE_LOOP ( 'NONE', ( #47, #183, #97, #327 ) ) ;
#190 = CIRCLE ( 'NONE', #347, 0.04750000000000064587 ) ;
#191 = ADVANCED_FACE ( 'NONE', ( #148 ), #273, .T. ) ;
#192 = CARTESIAN_POINT ( 'NONE',  ( -0.04750000000000064587, 0.0000000000000000000, 1.500000000000000222 ) ) ;
#193 = DIRECTION ( 'NONE',  ( -1.000000000000000000, 0.0000000000000000000, 0.0000000000000000000 ) ) ;
#194 = DIRECTION ( 'NONE',  ( 1.224646799147353207E-16, 1.000000000000000000, -0.0000000000000000000 ) ) ;
#195 = AXIS2_PLACEMENT_3D ( 'NONE', #118, #96, #259 ) ;
#196 = CARTESIAN_POINT ( 'NONE',  ( 0.0000000000000000000, 0.0000000000000000000, 1.500000000000000222 ) ) ;
#197 = CYLINDRICAL_SURFACE ( 'NONE', #283, 0.03121875000000000691 ) ;
#198 = SHAPE_DEFINITION_REPRESENTATION ( #224, #292 ) ;
#199 = AXIS2_PLACEMENT_3D ( 'NONE', #116, #278, #217 ) ;
#200 = DIRECTION ( 'NONE',  ( -1.000000000000000000, 0.0000000000000000000, 0.0000000000000000000 ) ) ;
#201 = DIRECTION ( 'NONE',  ( 0.0000000000000000000, 0.0000000000000000000, 1.000000000000000000 ) ) ;
#202 = FACE_OUTER_BOUND ( 'NONE', #266, .T. ) ;
#203 = FACE_OUTER_BOUND ( 'NONE', #121, .T. ) ;
#204 = EDGE_CURVE ( 'NONE', #137, #269, #164, .T. ) ;
#205 = FACE_OUTER_BOUND ( 'NONE', #241, .T. ) ;
#206 = CARTESIAN_POINT ( 'NONE',  ( 0.06250000000000006939, 7.654042494670963708E-18, 0.3654047844199155848 ) ) ;
#207 = ORIENTED_EDGE ( 'NONE', *, *, #112, .T. ) ;
#208 = DIRECTION ( 'NONE',  ( -0.0000000000000000000, -0.0000000000000000000, -1.000000000000000000 ) ) ;
#209 = ORIENTED_EDGE ( 'NONE', *, *, #166, .F. ) ;
#210 = CARTESIAN_POINT ( 'NONE',  ( 0.06250000000000002776, 7.654042494670959086E-18, 1.500000000000000222 ) ) ;
#211 = ORIENTED_EDGE ( 'NONE', *, *, #102, .F. ) ;
#212 =( GEOMETRIC_REPRESENTATION_CONTEXT ( 3 ) GLOBAL_UNCERTAINTY_ASSIGNED_CONTEXT ( ( #107 ) ) GLOBAL_UNIT_ASSIGNED_CONTEXT ( ( #276, #38, #332 ) ) REPRESENTATION_CONTEXT ( 'NONE', 'WORKASPACE' ) );
#213 = EDGE_LOOP ( 'NONE', ( #211, #207, #56, #322 ) ) ;
#214 =( LENGTH_UNIT ( ) NAMED_UNIT ( * ) SI_UNIT ( $, .METRE. ) );
#215 = DIRECTION ( 'NONE',  ( 1.000000000000000000, 0.0000000000000000000, 0.0000000000000000000 ) ) ;
#216 = PRODUCT_RELATED_PRODUCT_CATEGORY ( 'part', '', ( #10 ) ) ;
#217 = DIRECTION ( 'NONE',  ( -1.000000000000000000, 0.0000000000000000000, 0.0000000000000000000 ) ) ;
#218 = TOROIDAL_SURFACE ( 'NONE', #9, 0.02621875000000000941, 0.005000000000000000104 ) ;
#219 = CYLINDRICAL_SURFACE ( 'NONE', #306, 0.06250000000000002776 ) ;
#220 = ADVANCED_FACE ( 'NONE', ( #203 ), #232, .T. ) ;
#221 = AXIS2_PLACEMENT_3D ( 'NONE', #110, #109, #215 ) ;
#222 = LINE ( 'NONE', #66, #136 ) ;
#223 = DIMENSIONAL_EXPONENTS ( 1.000000000000000000, 0.0000000000000000000, 0.0000000000000000000, 0.0000000000000000000, 0.0000000000000000000, 0.0000000000000000000, 0.0000000000000000000 ) ;
#224 = PRODUCT_DEFINITION_SHAPE ( 'NONE', 'NONE',  #19 ) ;
#225 = FACE_OUTER_BOUND ( 'NONE', #138, .T. ) ;
#226 = FACE_OUTER_BOUND ( 'NONE', #189, .T. ) ;
#227 = DIMENSIONAL_EXPONENTS ( 1.000000000000000000, 0.0000000000000000000, 0.0000000000000000000, 0.0000000000000000000, 0.0000000000000000000, 0.0000000000000000000, 0.0000000000000000000 ) ;
#228 = APPLICATION_PROTOCOL_DEFINITION ( 'draft international standard', 'automotive_design', 1998, #267 ) ;
#229 = EDGE_CURVE ( 'NONE', #24, #302, #328, .T. ) ;
#230 = DIRECTION ( 'NONE',  ( -0.0000000000000000000, -0.0000000000000000000, -1.000000000000000000 ) ) ;
#231 = DIRECTION ( 'NONE',  ( 0.0000000000000000000, -1.000000000000000000, 0.0000000000000000000 ) ) ;
#232 = PLANE ( 'NONE',  #87 ) ;
#233 = EDGE_CURVE ( 'NONE', #324, #133, #14, .T. ) ;
#234 = DIRECTION ( 'NONE',  ( -1.000000000000000000, 0.0000000000000000000, 1.224646799147353700E-16 ) ) ;
#235 = AXIS2_PLACEMENT_3D ( 'NONE', #173, #125, #16 ) ;
#236 = ORIENTED_EDGE ( 'NONE', *, *, #58, .F. ) ;
#237 = ADVANCED_FACE ( 'NONE', ( #179 ), #172, .T. ) ;
#238 = VERTEX_POINT ( 'NONE', #258 ) ;
#239 = ORIENTED_EDGE ( 'NONE', *, *, #25, .F. ) ;
#240 =( NAMED_UNIT ( * ) SI_UNIT ( $, .STERADIAN. ) SOLID_ANGLE_UNIT ( ) );
#241 = EDGE_LOOP ( 'NONE', ( #78, #244, #304, #236 ) ) ;
#242 = PRODUCT_DEFINITION_FORMATION_WITH_SPECIFIED_SOURCE ( 'ANY', '', #10, .NOT_KNOWN. ) ;
#243 = APPLICATION_PROTOCOL_DEFINITION ( 'draft international standard', 'automotive_design', 1998, #187 ) ;
#244 = ORIENTED_EDGE ( 'NONE', *, *, #233, .T. ) ;
#245 = FACE_OUTER_BOUND ( 'NONE', #158, .T. ) ;
#246 = VECTOR ( 'NONE', #330, 39.37007874015747433 ) ;
#247 = VECTOR ( 'NONE', #345, 39.37007874015748143 ) ;
#248 = DIRECTION ( 'NONE',  ( 0.1736481776669313859, 0.0000000000000000000, 0.9848077530122077983 ) ) ;
#249 = DIRECTION ( 'NONE',  ( 1.000000000000000000, 0.0000000000000000000, 0.0000000000000000000 ) ) ;
#250 = STYLED_ITEM ( 'NONE', ( #114 ), #105 ) ;
#251 = FACE_OUTER_BOUND ( 'NONE', #82, .T. ) ;
#252 = EDGE_CURVE ( 'NONE', #295, #86, #311, .T. ) ;
#253 = DIRECTION ( 'NONE',  ( 0.0000000000000000000, 0.0000000000000000000, 1.000000000000000000 ) ) ;
#254 = ADVANCED_FACE ( 'NONE', ( #226 ), #120, .T. ) ;
#255 = DIRECTION ( 'NONE',  ( 1.224646799147353700E-16, 0.0000000000000000000, 1.000000000000000000 ) ) ;
#256 = CIRCLE ( 'NONE', #73, 0.02621875000000000941 ) ;
#257 = STYLED_ITEM ( 'NONE', ( #3 ), #292 ) ;
#258 = CARTESIAN_POINT ( 'NONE',  ( -0.06250000000000002776, 0.0000000000000000000, 1.485000000000000764 ) ) ;
#259 = DIRECTION ( 'NONE',  ( 1.000000000000000000, 0.0000000000000000000, 0.0000000000000000000 ) ) ;
#260 = CARTESIAN_POINT ( 'NONE',  ( 6.123233995736768848E-19, 0.0000000000000000000, 0.0000000000000000000 ) ) ;
#261 = DIRECTION ( 'NONE',  ( 0.0000000000000000000, 0.0000000000000000000, 1.000000000000000000 ) ) ;
#262 = MECHANICAL_DESIGN_GEOMETRIC_PRESENTATION_REPRESENTATION (  '', ( #250 ), #212 ) ;
#263 = ORIENTED_EDGE ( 'NONE', *, *, #45, .T. ) ;
#264 = ADVANCED_FACE ( 'NONE', ( #44 ), #299, .T. ) ;
#265 = DIRECTION ( 'NONE',  ( 0.0000000000000000000, 0.0000000000000000000, -1.000000000000000000 ) ) ;
#266 = EDGE_LOOP ( 'NONE', ( #209, #52, #239, #26 ) ) ;
#267 = APPLICATION_CONTEXT ( 'automotive_design' ) ;
#268 = DIRECTION ( 'NONE',  ( -1.000000000000000000, 0.0000000000000000000, 0.0000000000000000000 ) ) ;
#269 = VERTEX_POINT ( 'NONE', #99 ) ;
#270 = LINE ( 'NONE', #210, #30 ) ;
#271 = ADVANCED_FACE ( 'NONE', ( #202 ), #218, .T. ) ;
#272 = ORIENTED_EDGE ( 'NONE', *, *, #229, .F. ) ;
#273 = CONICAL_SURFACE ( 'NONE', #317, 0.03121875000000000691, 0.1745329251994338915 ) ;
#274 = CIRCLE ( 'NONE', #74, 0.06250000000000002776 ) ;
#275 = ORIENTED_EDGE ( 'NONE', *, *, #62, .T. ) ;
#276 =( CONVERSION_BASED_UNIT ( 'INCH', #65 ) LENGTH_UNIT ( ) NAMED_UNIT ( #227 ) );
#277 = DIMENSIONAL_EXPONENTS ( 1.000000000000000000, 0.0000000000000000000, 0.0000000000000000000, 0.0000000000000000000, 0.0000000000000000000, 0.0000000000000000000, 0.0000000000000000000 ) ;
#278 = DIRECTION ( 'NONE',  ( -0.0000000000000000000, -0.0000000000000000000, -1.000000000000000000 ) ) ;
#279 = COLOUR_RGB ( '',0.7921568627450980005, 0.8196078431372548767, 0.9333333333333333481 ) ;
#280 = CARTESIAN_POINT ( 'NONE',  ( 0.03121875000000002773, 0.0000000000000000000, 0.1880000000000000282 ) ) ;
#281 = CIRCLE ( 'NONE', #310, 0.03121875000000000691 ) ;
#282 = CARTESIAN_POINT ( 'NONE',  ( 6.123233995736769811E-19, 0.0000000000000000000, 0.005000000000000000971 ) ) ;
#283 = AXIS2_PLACEMENT_3D ( 'NONE', #313, #51, #234 ) ;
#284 = MECHANICAL_DESIGN_GEOMETRIC_PRESENTATION_REPRESENTATION (  '', ( #257 ), #22 ) ;
#285 = VECTOR ( 'NONE', #157, 39.37007874015748143 ) ;
#286 = CARTESIAN_POINT ( 'NONE',  ( 0.0000000000000000000, 0.0000000000000000000, 1.500000000000000222 ) ) ;
#287 = ORIENTED_EDGE ( 'NONE', *, *, #45, .F. ) ;
#288 = DIRECTION ( 'NONE',  ( 1.000000000000000000, 0.0000000000000000000, 0.0000000000000000000 ) ) ;
#289 = DIRECTION ( 'NONE',  ( -1.000000000000000000, 0.0000000000000000000, 1.224646799147353700E-16 ) ) ;
#290 = ADVANCED_FACE ( 'NONE', ( #291 ), #349, .F. ) ;
#291 = FACE_OUTER_BOUND ( 'NONE', #174, .T. ) ;
#292 = ADVANCED_BREP_SHAPE_REPRESENTATION ( 'Micro_GEC-062-4-005', ( #105, #140 ), #88 ) ;
#293 = AXIS2_PLACEMENT_3D ( 'NONE', #90, #93, #329 ) ;
#294 = DIRECTION ( 'NONE',  ( -1.224646799147353700E-16, -0.0000000000000000000, -1.000000000000000000 ) ) ;
#295 = VERTEX_POINT ( 'NONE', #206 ) ;
#296 = CARTESIAN_POINT ( 'NONE',  ( 0.03121875000000000691, 3.823194226088144458E-18, -3.823194226088145998E-18 ) ) ;
#297 = DIRECTION ( 'NONE',  ( 1.000000000000000000, 0.0000000000000000000, 0.0000000000000000000 ) ) ;
#298 = ORIENTED_EDGE ( 'NONE', *, *, #166, .T. ) ;
#299 = CONICAL_SURFACE ( 'NONE', #178, 0.03121875000000000691, 0.1745329251994338915 ) ;
#300 = ORIENTED_EDGE ( 'NONE', *, *, #41, .F. ) ;
#301 = UNCERTAINTY_MEASURE_WITH_UNIT (LENGTH_MEASURE( 1.000000000000000082E-05 ), #182, 'distance_accuracy_value', 'NONE');
#302 = VERTEX_POINT ( 'NONE', #186 ) ;
#303 = LENGTH_MEASURE_WITH_UNIT ( LENGTH_MEASURE( 0.02539999999999999897 ), #214 );
#304 = ORIENTED_EDGE ( 'NONE', *, *, #25, .T. ) ;
#305 = ORIENTED_EDGE ( 'NONE', *, *, #50, .T. ) ;
#306 = AXIS2_PLACEMENT_3D ( 'NONE', #309, #11, #193 ) ;
#307 = DIRECTION ( 'NONE',  ( 0.0000000000000000000, 0.0000000000000000000, 1.000000000000000000 ) ) ;
#308 = DIRECTION ( 'NONE',  ( 1.000000000000000000, 0.0000000000000000000, 0.0000000000000000000 ) ) ;
#309 = CARTESIAN_POINT ( 'NONE',  ( 0.0000000000000000000, 0.0000000000000000000, 1.500000000000000222 ) ) ;
#310 = AXIS2_PLACEMENT_3D ( 'NONE', #165, #320, #76 ) ;
#311 = CIRCLE ( 'NONE', #195, 0.06250000000000002776 ) ;
#312 = FILL_AREA_STYLE ('',( #36 ) ) ;
#313 = CARTESIAN_POINT ( 'NONE',  ( 0.0000000000000000000, 0.0000000000000000000, 0.0000000000000000000 ) ) ;
#314 = CARTESIAN_POINT ( 'NONE',  ( 4.474917996329784544E-17, 0.0000000000000000000, 0.3654047844199155848 ) ) ;
#315 = ADVANCED_FACE ( 'NONE', ( #321 ), #37, .T. ) ;
#316 = CARTESIAN_POINT ( 'NONE',  ( 0.06250000000000002776, 7.654042494670959086E-18, 1.485000000000000764 ) ) ;
#317 = AXIS2_PLACEMENT_3D ( 'NONE', #338, #344, #150 ) ;
#318 = DIRECTION ( 'NONE',  ( 1.000000000000000000, 0.0000000000000000000, 0.0000000000000000000 ) ) ;
#319 =( NAMED_UNIT ( * ) PLANE_ANGLE_UNIT ( ) SI_UNIT ( $, .RADIAN. ) );
#320 = DIRECTION ( 'NONE',  ( -1.224646799147353700E-16, -0.0000000000000000000, -1.000000000000000000 ) ) ;
#321 = FACE_OUTER_BOUND ( 'NONE', #213, .T. ) ;
#322 = ORIENTED_EDGE ( 'NONE', *, *, #34, .F. ) ;
#323 = EDGE_CURVE ( 'NONE', #154, #295, #270, .T. ) ;
#324 = VERTEX_POINT ( 'NONE', #1 ) ;
#325 = CARTESIAN_POINT ( 'NONE',  ( 0.0000000000000000000, 0.0000000000000000000, 1.485000000000000764 ) ) ;
#326 = CARTESIAN_POINT ( 'NONE',  ( -0.06250000000000002776, 0.0000000000000000000, 1.500000000000000222 ) ) ;
#327 = ORIENTED_EDGE ( 'NONE', *, *, #85, .T. ) ;
#328 = CIRCLE ( 'NONE', #117, 0.04750000000000064587 ) ;
#329 = DIRECTION ( 'NONE',  ( -1.000000000000000000, 0.0000000000000000000, 0.0000000000000000000 ) ) ;
#330 = DIRECTION ( 'NONE',  ( -0.1736481776669311916, 2.126576849575783316E-17, 0.9848077530122080203 ) ) ;
#331 =( LENGTH_UNIT ( ) NAMED_UNIT ( * ) SI_UNIT ( $, .METRE. ) );
#332 =( NAMED_UNIT ( * ) SI_UNIT ( $, .STERADIAN. ) SOLID_ANGLE_UNIT ( ) );
#333 = CIRCLE ( 'NONE', #155, 0.06250000000000002776 ) ;
#334 = AXIS2_PLACEMENT_3D ( 'NONE', #123, #71, #337 ) ;
#335 = EDGE_CURVE ( 'NONE', #154, #238, #274, .T. ) ;
#336 = LINE ( 'NONE', #8, #7 ) ;
#337 = DIRECTION ( 'NONE',  ( 1.000000000000000000, 0.0000000000000000000, 0.0000000000000000000 ) ) ;
#338 = CARTESIAN_POINT ( 'NONE',  ( 2.302335982397025094E-17, 0.0000000000000000000, 0.1880000000000000282 ) ) ;
#339 = EDGE_CURVE ( 'NONE', #238, #86, #23, .T. ) ;
#340 = ORIENTED_EDGE ( 'NONE', *, *, #33, .F. ) ;
#341 = AXIS2_PLACEMENT_3D ( 'NONE', #67, #194, #113 ) ;
#342 = PRESENTATION_LAYER_ASSIGNMENT (  '', '', ( #257 ) ) ;
#343 = DIRECTION ( 'NONE',  ( 1.000000000000000000, 0.0000000000000000000, 0.0000000000000000000 ) ) ;
#344 = DIRECTION ( 'NONE',  ( 1.224646799147353700E-16, 0.0000000000000000000, 1.000000000000000000 ) ) ;
#345 = DIRECTION ( 'NONE',  ( -1.224646799147353700E-16, -0.0000000000000000000, -1.000000000000000000 ) ) ;
#346 = PRODUCT_DEFINITION_CONTEXT ( 'detailed design', #267, 'design' ) ;
#347 = AXIS2_PLACEMENT_3D ( 'NONE', #196, #63, #249 ) ;
#348 = CARTESIAN_POINT ( 'NONE',  ( 0.0000000000000000000, 0.0000000000000000000, 1.500000000000000222 ) ) ;
#349 = PLANE ( 'NONE',  #48 ) ;
#350 = ORIENTED_EDGE ( 'NONE', *, *, #85, .F. ) ;
#351 = ORIENTED_EDGE ( 'NONE', *, *, #339, .F. ) ;
ENDSEC;
END-ISO-10303-21;
