ISO-10303-21;
HEADER;
FILE_DESCRIPTION (( 'STEP AP214' ),
    '1' );
FILE_NAME ('83297.STEP',
    '2023-06-30T23:01:22',
    ( '' ),
    ( '' ),
    'SwSTEP 2.0',
    'SolidWorks 2023',
    '' );
FILE_SCHEMA (( 'AUTOMOTIVE_DESIGN' ));
ENDSEC;

DATA;
#1 = DIRECTION ( 'NONE',  ( 0.000000000000000000, 0.000000000000000000, -1.000000000000000000 ) ) ;
#2 = FILL_AREA_STYLE_COLOUR ( '', #277 ) ;
#3 = FILL_AREA_STYLE_COLOUR ( '', #286 ) ;
#4 = EDGE_LOOP ( 'NONE', ( #297, #36, #302, #63 ) ) ;
#5 = CARTESIAN_POINT ( 'NONE',  ( -0.2499999999999998612, 3.000000000000000444, 0.000000000000000000 ) ) ;
#6 = AXIS2_PLACEMENT_3D ( 'NONE', #162, #51, #250 ) ;
#7 = UNCERTAINTY_MEASURE_WITH_UNIT (LENGTH_MEASURE( 1.000000000000000082E-05 ), #323, 'distance_accuracy_value', 'NONE');
#8 = ORIENTED_EDGE ( 'NONE', *, *, #340, .T. ) ;
#9 = PRESENTATION_STYLE_ASSIGNMENT (( #257 ) ) ;
#10 = PLANE ( 'NONE',  #369 ) ;
#11 = CLOSED_SHELL ( 'NONE', ( #311, #203, #188, #227 ) ) ;
#12 = MECHANICAL_DESIGN_GEOMETRIC_PRESENTATION_REPRESENTATION (  '', ( #310 ), #35 ) ;
#13 = AXIS2_PLACEMENT_3D ( 'NONE', #156, #18, #131 ) ;
#14 = ORIENTED_EDGE ( 'NONE', *, *, #355, .T. ) ;
#15 =( CONVERSION_BASED_UNIT ( 'INCH', #177 ) LENGTH_UNIT ( ) NAMED_UNIT ( #200 ) );
#16 = CARTESIAN_POINT ( 'NONE',  ( -6.123233995736772199E-17, 3.000000000000000444, 0.000000000000000000 ) ) ;
#17 = EDGE_LOOP ( 'NONE', ( #324, #276, #245, #333 ) ) ;
#18 = DIRECTION ( 'NONE',  ( -1.574545884618025728E-16, 1.000000000000000000, -0.000000000000000000 ) ) ;
#19 = CIRCLE ( 'NONE', #367, 0.2500000000000000000 ) ;
#20 = FILL_AREA_STYLE ('',( #100 ) ) ;
#21 =( GEOMETRIC_REPRESENTATION_CONTEXT ( 3 ) GLOBAL_UNCERTAINTY_ASSIGNED_CONTEXT ( ( #7 ) ) GLOBAL_UNIT_ASSIGNED_CONTEXT ( ( #323, #72, #266 ) ) REPRESENTATION_CONTEXT ( 'NONE', 'WORKASPACE' ) );
#22 = CYLINDRICAL_SURFACE ( 'NONE', #309, 0.2499999999999999167 ) ;
#23 = PRESENTATION_STYLE_ASSIGNMENT (( #163 ) ) ;
#24 = CARTESIAN_POINT ( 'NONE',  ( 0.000000000000000000, 0.2500000000000000000, -0.2500000000000000000 ) ) ;
#25 = LENGTH_MEASURE_WITH_UNIT ( LENGTH_MEASURE( 0.02539999999999999897 ), #103 );
#26 = CIRCLE ( 'NONE', #167, 0.2500000000000000000 ) ;
#27 = FILL_AREA_STYLE ('',( #368 ) ) ;
#28 = UNCERTAINTY_MEASURE_WITH_UNIT (LENGTH_MEASURE( 1.000000000000000082E-05 ), #58, 'distance_accuracy_value', 'NONE');
#29 = CIRCLE ( 'NONE', #248, 0.2500000000000000000 ) ;
#30 = DIMENSIONAL_EXPONENTS ( 1.000000000000000000, 0.000000000000000000, 0.000000000000000000, 0.000000000000000000, 0.000000000000000000, 0.000000000000000000, 0.000000000000000000 ) ;
#31 = SURFACE_SIDE_STYLE ('',( #62 ) ) ;
#32 = EDGE_LOOP ( 'NONE', ( #265, #327 ) ) ;
#33 = DIRECTION ( 'NONE',  ( 0.000000000000000000, 1.000000000000000000, 0.000000000000000000 ) ) ;
#34 = ORIENTED_EDGE ( 'NONE', *, *, #96, .F. ) ;
#35 =( GEOMETRIC_REPRESENTATION_CONTEXT ( 3 ) GLOBAL_UNCERTAINTY_ASSIGNED_CONTEXT ( ( #214 ) ) GLOBAL_UNIT_ASSIGNED_CONTEXT ( ( #314, #221, #344 ) ) REPRESENTATION_CONTEXT ( 'NONE', 'WORKASPACE' ) );
#36 = ORIENTED_EDGE ( 'NONE', *, *, #210, .T. ) ;
#37 =( NAMED_UNIT ( * ) PLANE_ANGLE_UNIT ( ) SI_UNIT ( $, .RADIAN. ) );
#38 = VERTEX_POINT ( 'NONE', #44 ) ;
#39 = CARTESIAN_POINT ( 'NONE',  ( -3.061616997868383018E-17, 0.2500000000000000000, 0.000000000000000000 ) ) ;
#40 = CARTESIAN_POINT ( 'NONE',  ( 0.000000000000000000, 0.2500000000000000000, 0.000000000000000000 ) ) ;
#41 = FACE_OUTER_BOUND ( 'NONE', #186, .T. ) ;
#42 = STYLED_ITEM ( 'NONE', ( #23 ), #325 ) ;
#43 = LINE ( 'NONE', #158, #230 ) ;
#44 = CARTESIAN_POINT ( 'NONE',  ( -0.2500000000000000000, 0.2500000000000000000, 3.061616997868382402E-17 ) ) ;
#45 = DIRECTION ( 'NONE',  ( -1.574545884618025728E-16, 1.000000000000000000, -0.000000000000000000 ) ) ;
#46 = DIRECTION ( 'NONE',  ( 1.574545884618025728E-16, -1.000000000000000000, 0.000000000000000000 ) ) ;
#47 = CARTESIAN_POINT ( 'NONE',  ( -3.061616997868383018E-17, 0.2500000000000000000, 0.000000000000000000 ) ) ;
#48 = CIRCLE ( 'NONE', #88, 0.2499999999999996114 ) ;
#49 = CYLINDRICAL_SURFACE ( 'NONE', #191, 0.2499999999999999167 ) ;
#50 = PRESENTATION_LAYER_ASSIGNMENT (  '', '', ( #150 ) ) ;
#51 = DIRECTION ( 'NONE',  ( 0.000000000000000000, 0.000000000000000000, 1.000000000000000000 ) ) ;
#52 = CARTESIAN_POINT ( 'NONE',  ( -6.123233995736772199E-17, 3.000000000000000444, 0.000000000000000000 ) ) ;
#53 = PRODUCT_RELATED_PRODUCT_CATEGORY ( 'part', '', ( #135 ) ) ;
#54 = CARTESIAN_POINT ( 'NONE',  ( 0.000000000000000000, 0.000000000000000000, 0.000000000000000000 ) ) ;
#55 = CIRCLE ( 'NONE', #71, 0.2500000000000000000 ) ;
#56 = AXIS2_PLACEMENT_3D ( 'NONE', #242, #337, #196 ) ;
#57 = EDGE_CURVE ( 'NONE', #267, #101, #153, .T. ) ;
#58 =( CONVERSION_BASED_UNIT ( 'INCH', #82 ) LENGTH_UNIT ( ) NAMED_UNIT ( #315 ) );
#59 = DIMENSIONAL_EXPONENTS ( 1.000000000000000000, 0.000000000000000000, 0.000000000000000000, 0.000000000000000000, 0.000000000000000000, 0.000000000000000000, 0.000000000000000000 ) ;
#60 = ORIENTED_EDGE ( 'NONE', *, *, #340, .F. ) ;
#61 = ORIENTED_EDGE ( 'NONE', *, *, #278, .T. ) ;
#62 = SURFACE_STYLE_FILL_AREA ( #207 ) ;
#63 = ORIENTED_EDGE ( 'NONE', *, *, #147, .T. ) ;
#64 = MECHANICAL_DESIGN_GEOMETRIC_PRESENTATION_REPRESENTATION (  '', ( #269 ), #243 ) ;
#65 = EDGE_CURVE ( 'NONE', #118, #172, #48, .T. ) ;
#66 = LENGTH_MEASURE_WITH_UNIT ( LENGTH_MEASURE( 0.02539999999999999897 ), #326 );
#67 = ORIENTED_EDGE ( 'NONE', *, *, #271, .F. ) ;
#68 = DIRECTION ( 'NONE',  ( -0.000000000000000000, -1.000000000000000000, -0.000000000000000000 ) ) ;
#69 = SURFACE_SIDE_STYLE ('',( #270 ) ) ;
#70 = STYLED_ITEM ( 'NONE', ( #353 ), #348 ) ;
#71 = AXIS2_PLACEMENT_3D ( 'NONE', #283, #370, #371 ) ;
#72 =( NAMED_UNIT ( * ) PLANE_ANGLE_UNIT ( ) SI_UNIT ( $, .RADIAN. ) );
#73 = DIRECTION ( 'NONE',  ( 1.000000000000000000, 0.000000000000000000, -1.224646799147353207E-16 ) ) ;
#74 = SURFACE_SIDE_STYLE ('',( #362 ) ) ;
#75 = ORIENTED_EDGE ( 'NONE', *, *, #143, .T. ) ;
#76 = CIRCLE ( 'NONE', #318, 0.2499999999999998335 ) ;
#77 =( NAMED_UNIT ( * ) PLANE_ANGLE_UNIT ( ) SI_UNIT ( $, .RADIAN. ) );
#78 =( NAMED_UNIT ( * ) SI_UNIT ( $, .STERADIAN. ) SOLID_ANGLE_UNIT ( ) );
#79 =( CONVERSION_BASED_UNIT ( 'INCH', #109 ) LENGTH_UNIT ( ) NAMED_UNIT ( #171 ) );
#80 = APPLICATION_CONTEXT ( 'automotive_design' ) ;
#81 = COLOUR_RGB ( '',1.000000000000000000, 0.000000000000000000, 0.000000000000000000 ) ;
#82 = LENGTH_MEASURE_WITH_UNIT ( LENGTH_MEASURE( 0.02539999999999999897 ), #193 );
#83 = UNCERTAINTY_MEASURE_WITH_UNIT (LENGTH_MEASURE( 1.000000000000000082E-05 ), #102, 'distance_accuracy_value', 'NONE');
#84 = DIMENSIONAL_EXPONENTS ( 1.000000000000000000, 0.000000000000000000, 0.000000000000000000, 0.000000000000000000, 0.000000000000000000, 0.000000000000000000, 0.000000000000000000 ) ;
#85 =( GEOMETRIC_REPRESENTATION_CONTEXT ( 3 ) GLOBAL_UNCERTAINTY_ASSIGNED_CONTEXT ( ( #231 ) ) GLOBAL_UNIT_ASSIGNED_CONTEXT ( ( #15, #37, #273 ) ) REPRESENTATION_CONTEXT ( 'NONE', 'WORKASPACE' ) );
#86 = CYLINDRICAL_SURFACE ( 'NONE', #373, 0.2499999999999998057 ) ;
#87 = LENGTH_MEASURE_WITH_UNIT ( LENGTH_MEASURE( 0.02539999999999999897 ), #350 );
#88 = AXIS2_PLACEMENT_3D ( 'NONE', #215, #45, #220 ) ;
#89 = AXIS2_PLACEMENT_3D ( 'NONE', #304, #46, #94 ) ;
#90 = PRODUCT_DEFINITION ( 'UNKNOWN', '', #262, #328 ) ;
#91 = MECHANICAL_DESIGN_GEOMETRIC_PRESENTATION_REPRESENTATION (  '', ( #154 ), #332 ) ;
#92 = UNCERTAINTY_MEASURE_WITH_UNIT (LENGTH_MEASURE( 1.000000000000000082E-05 ), #279, 'distance_accuracy_value', 'NONE');
#93 = CARTESIAN_POINT ( 'NONE',  ( 3.061616997868381785E-17, 1.250000000000000000, 0.2499999999999998335 ) ) ;
#94 = DIRECTION ( 'NONE',  ( 1.000000000000000000, 1.574545884618025728E-16, 0.000000000000000000 ) ) ;
#95 = DIRECTION ( 'NONE',  ( 1.000000000000000000, 0.000000000000000000, 0.000000000000000000 ) ) ;
#96 = EDGE_CURVE ( 'NONE', #179, #229, #29, .T. ) ;
#97 = DIRECTION ( 'NONE',  ( -0.000000000000000000, -1.000000000000000000, -0.000000000000000000 ) ) ;
#98 = PRESENTATION_STYLE_ASSIGNMENT (( #239 ) ) ;
#99 =( GEOMETRIC_REPRESENTATION_CONTEXT ( 3 ) GLOBAL_UNCERTAINTY_ASSIGNED_CONTEXT ( ( #145 ) ) GLOBAL_UNIT_ASSIGNED_CONTEXT ( ( #79, #77, #319 ) ) REPRESENTATION_CONTEXT ( 'NONE', 'WORKASPACE' ) );
#100 = FILL_AREA_STYLE_COLOUR ( '', #255 ) ;
#101 = VERTEX_POINT ( 'NONE', #93 ) ;
#102 =( CONVERSION_BASED_UNIT ( 'INCH', #25 ) LENGTH_UNIT ( ) NAMED_UNIT ( #259 ) );
#103 =( LENGTH_UNIT ( ) NAMED_UNIT ( * ) SI_UNIT ( $, .METRE. ) );
#104 = CARTESIAN_POINT ( 'NONE',  ( -0.2499999999999994171, 1.250000000000000000, 0.000000000000000000 ) ) ;
#105 = APPLICATION_CONTEXT ( 'automotive_design' ) ;
#106 = DIRECTION ( 'NONE',  ( -1.574545884618025728E-16, 1.000000000000000000, -0.000000000000000000 ) ) ;
#107 = CIRCLE ( 'NONE', #137, 0.2499999999999996114 ) ;
#108 = EDGE_CURVE ( 'NONE', #38, #238, #19, .T. ) ;
#109 = LENGTH_MEASURE_WITH_UNIT ( LENGTH_MEASURE( 0.02539999999999999897 ), #168 );
#110 = ADVANCED_FACE ( 'NONE', ( #41 ), #22, .T. ) ;
#111 = SPHERICAL_SURFACE ( 'NONE', #138, 0.2500000000000000000 ) ;
#112 = PRODUCT_DEFINITION_SHAPE ( 'NONE', 'NONE',  #90 ) ;
#113 = SURFACE_SIDE_STYLE ('',( #204 ) ) ;
#114 = DIRECTION ( 'NONE',  ( -1.574545884618025728E-16, 1.000000000000000000, -0.000000000000000000 ) ) ;
#115 =( NAMED_UNIT ( * ) PLANE_ANGLE_UNIT ( ) SI_UNIT ( $, .RADIAN. ) );
#116 =( GEOMETRIC_REPRESENTATION_CONTEXT ( 3 ) GLOBAL_UNCERTAINTY_ASSIGNED_CONTEXT ( ( #83 ) ) GLOBAL_UNIT_ASSIGNED_CONTEXT ( ( #102, #252, #246 ) ) REPRESENTATION_CONTEXT ( 'NONE', 'WORKASPACE' ) );
#117 = MECHANICAL_DESIGN_GEOMETRIC_PRESENTATION_REPRESENTATION (  '', ( #42 ), #99 ) ;
#118 = VERTEX_POINT ( 'NONE', #104 ) ;
#119 = SURFACE_STYLE_USAGE ( .BOTH. , #113 ) ;
#120 = VERTEX_POINT ( 'NONE', #24 ) ;
#121 = EDGE_CURVE ( 'NONE', #120, #179, #55, .T. ) ;
#122 = SPHERICAL_SURFACE ( 'NONE', #183, 0.2500000000000000000 ) ;
#123 = PRESENTATION_LAYER_ASSIGNMENT (  '', '', ( #70 ) ) ;
#124 = ORIENTED_EDGE ( 'NONE', *, *, #271, .T. ) ;
#125 = PRESENTATION_LAYER_ASSIGNMENT (  '', '', ( #310 ) ) ;
#126 = ADVANCED_FACE ( 'NONE', ( #343 ), #111, .T. ) ;
#127 = MECHANICAL_DESIGN_GEOMETRIC_PRESENTATION_REPRESENTATION (  '', ( #70 ), #85 ) ;
#128 = DIRECTION ( 'NONE',  ( -1.574545884618025728E-16, 1.000000000000000000, -0.000000000000000000 ) ) ;
#129 = DIRECTION ( 'NONE',  ( -0.000000000000000000, -1.000000000000000000, -0.000000000000000000 ) ) ;
#130 = DIRECTION ( 'NONE',  ( 0.000000000000000000, 0.000000000000000000, -1.000000000000000000 ) ) ;
#131 = DIRECTION ( 'NONE',  ( -1.000000000000000000, 0.000000000000000000, 0.000000000000000000 ) ) ;
#132 = ORIENTED_EDGE ( 'NONE', *, *, #121, .F. ) ;
#133 = CARTESIAN_POINT ( 'NONE',  ( 0.000000000000000000, 1.250000000000000000, 0.000000000000000000 ) ) ;
#134 = ADVANCED_FACE ( 'NONE', ( #140 ), #291, .T. ) ;
#135 = PRODUCT ( '83297', '83297', '', ( #280 ) ) ;
#136 = DIRECTION ( 'NONE',  ( 0.000000000000000000, 0.000000000000000000, -1.000000000000000000 ) ) ;
#137 = AXIS2_PLACEMENT_3D ( 'NONE', #263, #268, #216 ) ;
#138 = AXIS2_PLACEMENT_3D ( 'NONE', #225, #222, #228 ) ;
#139 = FACE_OUTER_BOUND ( 'NONE', #234, .T. ) ;
#140 = FACE_OUTER_BOUND ( 'NONE', #32, .T. ) ;
#141 = PRESENTATION_STYLE_ASSIGNMENT (( #338 ) ) ;
#142 = VECTOR ( 'NONE', #114, 39.37007874015748143 ) ;
#143 = EDGE_CURVE ( 'NONE', #160, #321, #294, .T. ) ;
#144 = LINE ( 'NONE', #5, #142 ) ;
#145 = UNCERTAINTY_MEASURE_WITH_UNIT (LENGTH_MEASURE( 1.000000000000000082E-05 ), #79, 'distance_accuracy_value', 'NONE');
#146 = ORIENTED_EDGE ( 'NONE', *, *, #355, .F. ) ;
#147 = EDGE_CURVE ( 'NONE', #179, #238, #26, .T. ) ;
#148 = SURFACE_STYLE_FILL_AREA ( #345 ) ;
#149 = DIRECTION ( 'NONE',  ( -1.574545884618025728E-16, 1.000000000000000000, -0.000000000000000000 ) ) ;
#150 = STYLED_ITEM ( 'NONE', ( #320 ), #159 ) ;
#151 = ORIENTED_EDGE ( 'NONE', *, *, #65, .F. ) ;
#152 = DIRECTION ( 'NONE',  ( 0.000000000000000000, 0.000000000000000000, 1.000000000000000000 ) ) ;
#153 = CIRCLE ( 'NONE', #299, 0.2499999999999998335 ) ;
#154 = STYLED_ITEM ( 'NONE', ( #9 ), #134 ) ;
#155 = LINE ( 'NONE', #272, #237 ) ;
#156 = CARTESIAN_POINT ( 'NONE',  ( -6.123233995736770966E-17, 3.000000000000000444, 0.000000000000000000 ) ) ;
#157 = CARTESIAN_POINT ( 'NONE',  ( 0.2500000000000000000, 0.2500000000000000000, 0.000000000000000000 ) ) ;
#158 = CARTESIAN_POINT ( 'NONE',  ( 0.2499999999999997224, 3.000000000000000444, 3.061616997868380553E-17 ) ) ;
#159 = MANIFOLD_SOLID_BREP ( 'Revolve - Cutting Edge', #317 ) ;
#160 = VERTEX_POINT ( 'NONE', #217 ) ;
#161 = AXIS2_PLACEMENT_3D ( 'NONE', #316, #33, #292 ) ;
#162 = CARTESIAN_POINT ( 'NONE',  ( 0.000000000000000000, 0.000000000000000000, 0.000000000000000000 ) ) ;
#163 = SURFACE_STYLE_USAGE ( .BOTH. , #313 ) ;
#164 = LENGTH_MEASURE_WITH_UNIT ( LENGTH_MEASURE( 0.02539999999999999897 ), #184 );
#165 = FACE_OUTER_BOUND ( 'NONE', #170, .T. ) ;
#166 = LENGTH_MEASURE_WITH_UNIT ( LENGTH_MEASURE( 0.02539999999999999897 ), #192 );
#167 = AXIS2_PLACEMENT_3D ( 'NONE', #264, #205, #174 ) ;
#168 =( LENGTH_UNIT ( ) NAMED_UNIT ( * ) SI_UNIT ( $, .METRE. ) );
#169 = AXIS2_PLACEMENT_3D ( 'NONE', #40, #187, #130 ) ;
#170 = EDGE_LOOP ( 'NONE', ( #295, #209, #34, #132, #232 ) ) ;
#171 = DIMENSIONAL_EXPONENTS ( 1.000000000000000000, 0.000000000000000000, 0.000000000000000000, 0.000000000000000000, 0.000000000000000000, 0.000000000000000000, 0.000000000000000000 ) ;
#172 = VERTEX_POINT ( 'NONE', #334 ) ;
#173 = CARTESIAN_POINT ( 'NONE',  ( 0.000000000000000000, 0.000000000000000000, 0.000000000000000000 ) ) ;
#174 = DIRECTION ( 'NONE',  ( -1.000000000000000000, 0.000000000000000000, 0.000000000000000000 ) ) ;
#175 = ORIENTED_EDGE ( 'NONE', *, *, #254, .T. ) ;
#176 = COLOUR_RGB ( '',1.000000000000000000, 0.000000000000000000, 0.000000000000000000 ) ;
#177 = LENGTH_MEASURE_WITH_UNIT ( LENGTH_MEASURE( 0.02539999999999999897 ), #181 );
#178 =( NAMED_UNIT ( * ) SI_UNIT ( $, .STERADIAN. ) SOLID_ANGLE_UNIT ( ) );
#179 = VERTEX_POINT ( 'NONE', #157 ) ;
#180 = CARTESIAN_POINT ( 'NONE',  ( 0.000000000000000000, 0.2500000000000000000, 0.000000000000000000 ) ) ;
#181 =( LENGTH_UNIT ( ) NAMED_UNIT ( * ) SI_UNIT ( $, .METRE. ) );
#182 = CARTESIAN_POINT ( 'NONE',  ( 2.143131898507868297E-16, 1.250000000000000000, 0.000000000000000000 ) ) ;
#183 = AXIS2_PLACEMENT_3D ( 'NONE', #39, #152, #95 ) ;
#184 =( LENGTH_UNIT ( ) NAMED_UNIT ( * ) SI_UNIT ( $, .METRE. ) );
#185 = CARTESIAN_POINT ( 'NONE',  ( 3.061616997868382402E-17, 0.000000000000000000, 0.2499999999999999167 ) ) ;
#186 = EDGE_LOOP ( 'NONE', ( #305, #175, #61, #261, #290 ) ) ;
#187 = DIRECTION ( 'NONE',  ( -0.000000000000000000, -1.000000000000000000, -0.000000000000000000 ) ) ;
#188 = ADVANCED_FACE ( 'NONE', ( #336 ), #86, .T. ) ;
#189 = SURFACE_STYLE_USAGE ( .BOTH. , #74 ) ;
#190 = AXIS2_PLACEMENT_3D ( 'NONE', #260, #149, #349 ) ;
#191 = AXIS2_PLACEMENT_3D ( 'NONE', #173, #256, #1 ) ;
#192 =( LENGTH_UNIT ( ) NAMED_UNIT ( * ) SI_UNIT ( $, .METRE. ) );
#193 =( LENGTH_UNIT ( ) NAMED_UNIT ( * ) SI_UNIT ( $, .METRE. ) );
#194 =( NAMED_UNIT ( * ) SI_UNIT ( $, .STERADIAN. ) SOLID_ANGLE_UNIT ( ) );
#195 = MECHANICAL_DESIGN_GEOMETRIC_PRESENTATION_REPRESENTATION (  '', ( #150 ), #21 ) ;
#196 = DIRECTION ( 'NONE',  ( 0.000000000000000000, 0.000000000000000000, -1.000000000000000000 ) ) ;
#197 = UNCERTAINTY_MEASURE_WITH_UNIT (LENGTH_MEASURE( 1.000000000000000082E-05 ), #233, 'distance_accuracy_value', 'NONE');
#198 = SURFACE_STYLE_USAGE ( .BOTH. , #322 ) ;
#199 = CIRCLE ( 'NONE', #13, 0.2499999999999999722 ) ;
#200 = DIMENSIONAL_EXPONENTS ( 1.000000000000000000, 0.000000000000000000, 0.000000000000000000, 0.000000000000000000, 0.000000000000000000, 0.000000000000000000, 0.000000000000000000 ) ;
#201 = MECHANICAL_DESIGN_GEOMETRIC_PRESENTATION_REPRESENTATION (  '', ( #293 ), #235 ) ;
#202 = CIRCLE ( 'NONE', #56, 0.2500000000000000000 ) ;
#203 = ADVANCED_FACE ( 'NONE', ( #356 ), #10, .F. ) ;
#204 = SURFACE_STYLE_FILL_AREA ( #296 ) ;
#205 = DIRECTION ( 'NONE',  ( 0.000000000000000000, 0.000000000000000000, -1.000000000000000000 ) ) ;
#206 = ORIENTED_EDGE ( 'NONE', *, *, #372, .F. ) ;
#207 = FILL_AREA_STYLE ('',( #289 ) ) ;
#208 = VECTOR ( 'NONE', #68, 39.37007874015748143 ) ;
#209 = ORIENTED_EDGE ( 'NONE', *, *, #218, .T. ) ;
#210 = EDGE_CURVE ( 'NONE', #38, #120, #360, .T. ) ;
#211 = DIRECTION ( 'NONE',  ( -1.000000000000000000, 0.000000000000000000, 0.000000000000000000 ) ) ;
#212 = DIRECTION ( 'NONE',  ( -0.000000000000000000, -1.000000000000000000, -0.000000000000000000 ) ) ;
#213 = CARTESIAN_POINT ( 'NONE',  ( -1.530808498934191509E-17, 0.000000000000000000, 0.000000000000000000 ) ) ;
#214 = UNCERTAINTY_MEASURE_WITH_UNIT (LENGTH_MEASURE( 1.000000000000000082E-05 ), #314, 'distance_accuracy_value', 'NONE');
#215 = CARTESIAN_POINT ( 'NONE',  ( 2.143131898507868297E-16, 1.250000000000000000, 0.000000000000000000 ) ) ;
#216 = DIRECTION ( 'NONE',  ( -1.000000000000000000, 0.000000000000000000, 0.000000000000000000 ) ) ;
#217 = CARTESIAN_POINT ( 'NONE',  ( -0.2500000000000000555, 3.000000000000000444, 0.000000000000000000 ) ) ;
#218 = EDGE_CURVE ( 'NONE', #101, #229, #354, .T. ) ;
#219 = PRESENTATION_LAYER_ASSIGNMENT (  '', '', ( #293 ) ) ;
#220 = DIRECTION ( 'NONE',  ( -1.000000000000000000, 0.000000000000000000, 0.000000000000000000 ) ) ;
#221 =( NAMED_UNIT ( * ) PLANE_ANGLE_UNIT ( ) SI_UNIT ( $, .RADIAN. ) );
#222 = DIRECTION ( 'NONE',  ( 0.000000000000000000, 0.000000000000000000, 1.000000000000000000 ) ) ;
#223 = CARTESIAN_POINT ( 'NONE',  ( 0.2499999999999998890, 3.000000000000000444, 3.061616997868381785E-17 ) ) ;
#224 = SURFACE_STYLE_FILL_AREA ( #27 ) ;
#225 = CARTESIAN_POINT ( 'NONE',  ( -3.061616997868383018E-17, 0.2500000000000000000, 0.000000000000000000 ) ) ;
#226 = PRESENTATION_LAYER_ASSIGNMENT (  '', '', ( #269 ) ) ;
#227 = ADVANCED_FACE ( 'NONE', ( #300 ), #240, .F. ) ;
#228 = DIRECTION ( 'NONE',  ( 1.000000000000000000, 0.000000000000000000, 0.000000000000000000 ) ) ;
#229 = VERTEX_POINT ( 'NONE', #358 ) ;
#230 = VECTOR ( 'NONE', #275, 39.37007874015748143 ) ;
#231 = UNCERTAINTY_MEASURE_WITH_UNIT (LENGTH_MEASURE( 1.000000000000000082E-05 ), #15, 'distance_accuracy_value', 'NONE');
#232 = ORIENTED_EDGE ( 'NONE', *, *, #278, .F. ) ;
#233 =( CONVERSION_BASED_UNIT ( 'INCH', #66 ) LENGTH_UNIT ( ) NAMED_UNIT ( #30 ) );
#234 = EDGE_LOOP ( 'NONE', ( #357, #124, #346, #60 ) ) ;
#235 =( GEOMETRIC_REPRESENTATION_CONTEXT ( 3 ) GLOBAL_UNCERTAINTY_ASSIGNED_CONTEXT ( ( #92 ) ) GLOBAL_UNIT_ASSIGNED_CONTEXT ( ( #279, #285, #194 ) ) REPRESENTATION_CONTEXT ( 'NONE', 'WORKASPACE' ) );
#236 = DIRECTION ( 'NONE',  ( -1.000000000000000000, -1.574545884618025728E-16, 0.000000000000000000 ) ) ;
#237 = VECTOR ( 'NONE', #331, 39.37007874015748143 ) ;
#238 = VERTEX_POINT ( 'NONE', #213 ) ;
#239 = SURFACE_STYLE_USAGE ( .BOTH. , #69 ) ;
#240 = PLANE ( 'NONE',  #89 ) ;
#241 = FILL_AREA_STYLE ('',( #330 ) ) ;
#242 = CARTESIAN_POINT ( 'NONE',  ( 0.000000000000000000, 0.2500000000000000000, 0.000000000000000000 ) ) ;
#243 =( GEOMETRIC_REPRESENTATION_CONTEXT ( 3 ) GLOBAL_UNCERTAINTY_ASSIGNED_CONTEXT ( ( #28 ) ) GLOBAL_UNIT_ASSIGNED_CONTEXT ( ( #58, #253, #78 ) ) REPRESENTATION_CONTEXT ( 'NONE', 'WORKASPACE' ) );
#244 = DIRECTION ( 'NONE',  ( 0.000000000000000000, 0.000000000000000000, -1.000000000000000000 ) ) ;
#245 = ORIENTED_EDGE ( 'NONE', *, *, #147, .F. ) ;
#246 =( NAMED_UNIT ( * ) SI_UNIT ( $, .STERADIAN. ) SOLID_ANGLE_UNIT ( ) );
#247 = SURFACE_SIDE_STYLE ('',( #224 ) ) ;
#248 = AXIS2_PLACEMENT_3D ( 'NONE', #180, #129, #298 ) ;
#249 = AXIS2_PLACEMENT_3D ( 'NONE', #52, #106, #251 ) ;
#250 = DIRECTION ( 'NONE',  ( 1.000000000000000000, 0.000000000000000000, 0.000000000000000000 ) ) ;
#251 = DIRECTION ( 'NONE',  ( -1.000000000000000000, 0.000000000000000000, 0.000000000000000000 ) ) ;
#252 =( NAMED_UNIT ( * ) PLANE_ANGLE_UNIT ( ) SI_UNIT ( $, .RADIAN. ) );
#253 =( NAMED_UNIT ( * ) PLANE_ANGLE_UNIT ( ) SI_UNIT ( $, .RADIAN. ) );
#254 = EDGE_CURVE ( 'NONE', #101, #267, #76, .T. ) ;
#255 = COLOUR_RGB ( '',0.7921568627450980005, 0.8196078431372548767, 0.9333333333333333481 ) ;
#256 = DIRECTION ( 'NONE',  ( -0.000000000000000000, -1.000000000000000000, -0.000000000000000000 ) ) ;
#257 = SURFACE_STYLE_USAGE ( .BOTH. , #31 ) ;
#258 = ORIENTED_EDGE ( 'NONE', *, *, #372, .T. ) ;
#259 = DIMENSIONAL_EXPONENTS ( 1.000000000000000000, 0.000000000000000000, 0.000000000000000000, 0.000000000000000000, 0.000000000000000000, 0.000000000000000000, 0.000000000000000000 ) ;
#260 = CARTESIAN_POINT ( 'NONE',  ( -6.123233995736770966E-17, 3.000000000000000444, 0.000000000000000000 ) ) ;
#261 = ORIENTED_EDGE ( 'NONE', *, *, #210, .F. ) ;
#262 = PRODUCT_DEFINITION_FORMATION_WITH_SPECIFIED_SOURCE ( 'ANY', '', #135, .NOT_KNOWN. ) ;
#263 = CARTESIAN_POINT ( 'NONE',  ( 2.143131898507868297E-16, 1.250000000000000000, 0.000000000000000000 ) ) ;
#264 = CARTESIAN_POINT ( 'NONE',  ( -3.061616997868383018E-17, 0.2500000000000000000, 0.000000000000000000 ) ) ;
#265 = ORIENTED_EDGE ( 'NONE', *, *, #57, .F. ) ;
#266 =( NAMED_UNIT ( * ) SI_UNIT ( $, .STERADIAN. ) SOLID_ANGLE_UNIT ( ) );
#267 = VERTEX_POINT ( 'NONE', #274 ) ;
#268 = DIRECTION ( 'NONE',  ( -1.574545884618025728E-16, 1.000000000000000000, -0.000000000000000000 ) ) ;
#269 = STYLED_ITEM ( 'NONE', ( #141 ), #126 ) ;
#270 = SURFACE_STYLE_FILL_AREA ( #241 ) ;
#271 = EDGE_CURVE ( 'NONE', #172, #321, #43, .T. ) ;
#272 = CARTESIAN_POINT ( 'NONE',  ( 0.000000000000000000, 0.000000000000000000, -0.2499999999999999167 ) ) ;
#273 =( NAMED_UNIT ( * ) SI_UNIT ( $, .STERADIAN. ) SOLID_ANGLE_UNIT ( ) );
#274 = CARTESIAN_POINT ( 'NONE',  ( 0.000000000000000000, 1.250000000000000000, -0.2499999999999998335 ) ) ;
#275 = DIRECTION ( 'NONE',  ( -1.574545884618025728E-16, 1.000000000000000000, -0.000000000000000000 ) ) ;
#276 = ORIENTED_EDGE ( 'NONE', *, *, #108, .T. ) ;
#277 = COLOUR_RGB ( '',0.7921568627450980005, 0.8196078431372548767, 0.9333333333333333481 ) ;
#278 = EDGE_CURVE ( 'NONE', #267, #120, #155, .T. ) ;
#279 =( CONVERSION_BASED_UNIT ( 'INCH', #164 ) LENGTH_UNIT ( ) NAMED_UNIT ( #287 ) );
#280 = PRODUCT_CONTEXT ( 'NONE', #80, 'mechanical' ) ;
#281 = FILL_AREA_STYLE ('',( #365 ) ) ;
#282 = PRESENTATION_LAYER_ASSIGNMENT (  '', '', ( #42 ) ) ;
#283 = CARTESIAN_POINT ( 'NONE',  ( 0.000000000000000000, 0.2500000000000000000, 0.000000000000000000 ) ) ;
#284 = MANIFOLD_SOLID_BREP ( 'Revolve - Tool Body (Straight Shanked)', #11 ) ;
#285 =( NAMED_UNIT ( * ) PLANE_ANGLE_UNIT ( ) SI_UNIT ( $, .RADIAN. ) );
#286 = COLOUR_RGB ( '',1.000000000000000000, 0.000000000000000000, 0.000000000000000000 ) ;
#287 = DIMENSIONAL_EXPONENTS ( 1.000000000000000000, 0.000000000000000000, 0.000000000000000000, 0.000000000000000000, 0.000000000000000000, 0.000000000000000000, 0.000000000000000000 ) ;
#288 = COLOUR_RGB ( '',1.000000000000000000, 0.000000000000000000, 0.000000000000000000 ) ;
#289 = FILL_AREA_STYLE_COLOUR ( '', #81 ) ;
#290 = ORIENTED_EDGE ( 'NONE', *, *, #306, .F. ) ;
#291 = PLANE ( 'NONE',  #161 ) ;
#292 = DIRECTION ( 'NONE',  ( 0.000000000000000000, -0.000000000000000000, 1.000000000000000000 ) ) ;
#293 = STYLED_ITEM ( 'NONE', ( #98 ), #110 ) ;
#294 = CIRCLE ( 'NONE', #190, 0.2499999999999999722 ) ;
#295 = ORIENTED_EDGE ( 'NONE', *, *, #57, .T. ) ;
#296 = FILL_AREA_STYLE ('',( #2 ) ) ;
#297 = ORIENTED_EDGE ( 'NONE', *, *, #108, .F. ) ;
#298 = DIRECTION ( 'NONE',  ( 0.000000000000000000, 0.000000000000000000, -1.000000000000000000 ) ) ;
#299 = AXIS2_PLACEMENT_3D ( 'NONE', #364, #212, #303 ) ;
#300 = FACE_OUTER_BOUND ( 'NONE', #352, .T. ) ;
#301 = COLOUR_RGB ( '',1.000000000000000000, 0.000000000000000000, 0.000000000000000000 ) ;
#302 = ORIENTED_EDGE ( 'NONE', *, *, #121, .T. ) ;
#303 = DIRECTION ( 'NONE',  ( 0.000000000000000000, 0.000000000000000000, -1.000000000000000000 ) ) ;
#304 = CARTESIAN_POINT ( 'NONE',  ( 0.2499999999999998890, 3.000000000000000444, 0.000000000000000000 ) ) ;
#305 = ORIENTED_EDGE ( 'NONE', *, *, #218, .F. ) ;
#306 = EDGE_CURVE ( 'NONE', #229, #38, #202, .T. ) ;
#307 = SURFACE_STYLE_FILL_AREA ( #281 ) ;
#308 = EDGE_LOOP ( 'NONE', ( #151, #146 ) ) ;
#309 = AXIS2_PLACEMENT_3D ( 'NONE', #54, #366, #136 ) ;
#310 = STYLED_ITEM ( 'NONE', ( #341 ), #284 ) ;
#311 = ADVANCED_FACE ( 'NONE', ( #139 ), #339, .T. ) ;
#312 = APPLICATION_PROTOCOL_DEFINITION ( 'draft international standard', 'automotive_design', 1998, #105 ) ;
#313 = SURFACE_SIDE_STYLE ('',( #307 ) ) ;
#314 =( CONVERSION_BASED_UNIT ( 'INCH', #166 ) LENGTH_UNIT ( ) NAMED_UNIT ( #84 ) );
#315 = DIMENSIONAL_EXPONENTS ( 1.000000000000000000, 0.000000000000000000, 0.000000000000000000, 0.000000000000000000, 0.000000000000000000, 0.000000000000000000, 0.000000000000000000 ) ;
#316 = CARTESIAN_POINT ( 'NONE',  ( 0.000000000000000000, 1.250000000000000000, 0.000000000000000000 ) ) ;
#317 = CLOSED_SHELL ( 'NONE', ( #348, #325, #134, #110, #126 ) ) ;
#318 = AXIS2_PLACEMENT_3D ( 'NONE', #133, #97, #244 ) ;
#319 =( NAMED_UNIT ( * ) SI_UNIT ( $, .STERADIAN. ) SOLID_ANGLE_UNIT ( ) );
#320 = PRESENTATION_STYLE_ASSIGNMENT (( #119 ) ) ;
#321 = VERTEX_POINT ( 'NONE', #223 ) ;
#322 = SURFACE_SIDE_STYLE ('',( #148 ) ) ;
#323 =( CONVERSION_BASED_UNIT ( 'INCH', #87 ) LENGTH_UNIT ( ) NAMED_UNIT ( #59 ) );
#324 = ORIENTED_EDGE ( 'NONE', *, *, #306, .T. ) ;
#325 = ADVANCED_FACE ( 'NONE', ( #165 ), #49, .T. ) ;
#326 =( LENGTH_UNIT ( ) NAMED_UNIT ( * ) SI_UNIT ( $, .METRE. ) );
#327 = ORIENTED_EDGE ( 'NONE', *, *, #254, .F. ) ;
#328 = PRODUCT_DEFINITION_CONTEXT ( 'detailed design', #105, 'design' ) ;
#329 = EDGE_LOOP ( 'NONE', ( #67, #14, #8, #206 ) ) ;
#330 = FILL_AREA_STYLE_COLOUR ( '', #176 ) ;
#331 = DIRECTION ( 'NONE',  ( -0.000000000000000000, -1.000000000000000000, -0.000000000000000000 ) ) ;
#332 =( GEOMETRIC_REPRESENTATION_CONTEXT ( 3 ) GLOBAL_UNCERTAINTY_ASSIGNED_CONTEXT ( ( #197 ) ) GLOBAL_UNIT_ASSIGNED_CONTEXT ( ( #233, #115, #178 ) ) REPRESENTATION_CONTEXT ( 'NONE', 'WORKASPACE' ) );
#333 = ORIENTED_EDGE ( 'NONE', *, *, #96, .T. ) ;
#334 = CARTESIAN_POINT ( 'NONE',  ( 0.2499999999999998612, 1.250000000000000000, 3.061616997868381169E-17 ) ) ;
#335 = DIRECTION ( 'NONE',  ( 1.224646799147353207E-16, -0.000000000000000000, 1.000000000000000000 ) ) ;
#336 = FACE_OUTER_BOUND ( 'NONE', #329, .T. ) ;
#337 = DIRECTION ( 'NONE',  ( -0.000000000000000000, -1.000000000000000000, -0.000000000000000000 ) ) ;
#338 = SURFACE_STYLE_USAGE ( .BOTH. , #247 ) ;
#339 = CYLINDRICAL_SURFACE ( 'NONE', #249, 0.2499999999999998057 ) ;
#340 = EDGE_CURVE ( 'NONE', #118, #160, #144, .T. ) ;
#341 = PRESENTATION_STYLE_ASSIGNMENT (( #189 ) ) ;
#342 = SHAPE_DEFINITION_REPRESENTATION ( #112, #363 ) ;
#343 = FACE_OUTER_BOUND ( 'NONE', #4, .T. ) ;
#344 =( NAMED_UNIT ( * ) SI_UNIT ( $, .STERADIAN. ) SOLID_ANGLE_UNIT ( ) );
#345 = FILL_AREA_STYLE ('',( #3 ) ) ;
#346 = ORIENTED_EDGE ( 'NONE', *, *, #143, .F. ) ;
#347 = PRESENTATION_LAYER_ASSIGNMENT (  '', '', ( #154 ) ) ;
#348 = ADVANCED_FACE ( 'NONE', ( #351 ), #122, .T. ) ;
#349 = DIRECTION ( 'NONE',  ( -1.000000000000000000, 0.000000000000000000, 0.000000000000000000 ) ) ;
#350 =( LENGTH_UNIT ( ) NAMED_UNIT ( * ) SI_UNIT ( $, .METRE. ) );
#351 = FACE_OUTER_BOUND ( 'NONE', #17, .T. ) ;
#352 = EDGE_LOOP ( 'NONE', ( #75, #258 ) ) ;
#353 = PRESENTATION_STYLE_ASSIGNMENT (( #198 ) ) ;
#354 = LINE ( 'NONE', #185, #208 ) ;
#355 = EDGE_CURVE ( 'NONE', #172, #118, #107, .T. ) ;
#356 = FACE_OUTER_BOUND ( 'NONE', #308, .T. ) ;
#357 = ORIENTED_EDGE ( 'NONE', *, *, #65, .T. ) ;
#358 = CARTESIAN_POINT ( 'NONE',  ( 3.061616997868383018E-17, 0.2500000000000000000, 0.2500000000000000000 ) ) ;
#359 = DIRECTION ( 'NONE',  ( -1.574545884618025728E-16, 1.000000000000000000, 0.000000000000000000 ) ) ;
#360 = CIRCLE ( 'NONE', #169, 0.2500000000000000000 ) ;
#361 = APPLICATION_PROTOCOL_DEFINITION ( 'draft international standard', 'automotive_design', 1998, #80 ) ;
#362 = SURFACE_STYLE_FILL_AREA ( #20 ) ;
#363 = ADVANCED_BREP_SHAPE_REPRESENTATION ( '83297', ( #159, #284, #6 ), #116 ) ;
#364 = CARTESIAN_POINT ( 'NONE',  ( 0.000000000000000000, 1.250000000000000000, 0.000000000000000000 ) ) ;
#365 = FILL_AREA_STYLE_COLOUR ( '', #301 ) ;
#366 = DIRECTION ( 'NONE',  ( -0.000000000000000000, -1.000000000000000000, -0.000000000000000000 ) ) ;
#367 = AXIS2_PLACEMENT_3D ( 'NONE', #47, #335, #73 ) ;
#368 = FILL_AREA_STYLE_COLOUR ( '', #288 ) ;
#369 = AXIS2_PLACEMENT_3D ( 'NONE', #182, #359, #236 ) ;
#370 = DIRECTION ( 'NONE',  ( -0.000000000000000000, -1.000000000000000000, -0.000000000000000000 ) ) ;
#371 = DIRECTION ( 'NONE',  ( 0.000000000000000000, 0.000000000000000000, -1.000000000000000000 ) ) ;
#372 = EDGE_CURVE ( 'NONE', #321, #160, #199, .T. ) ;
#373 = AXIS2_PLACEMENT_3D ( 'NONE', #16, #128, #211 ) ;
ENDSEC;
END-ISO-10303-21;
