ISO-10303-21;
HEADER;
FILE_DESCRIPTION (( 'STEP AP214' ),
    '1' );
FILE_NAME ('48691.STEP',
    '2023-06-22T22:00:06',
    ( '' ),
    ( '' ),
    'SwSTEP 2.0',
    'SolidWorks 2023',
    '' );
FILE_SCHEMA (( 'AUTOMOTIVE_DESIGN' ));
ENDSEC;

DATA;
#1 = CIRCLE ( 'NONE', #38, 0.5000000000000000000 ) ;
#2 =( NAMED_UNIT ( * ) SI_UNIT ( $, .STERADIAN. ) SOLID_ANGLE_UNIT ( ) );
#3 = CYLINDRICAL_SURFACE ( 'NONE', #25, 0.5000000000000000000 ) ;
#4 = ORIENTED_EDGE ( 'NONE', *, *, #245, .T. ) ;
#5 = EDGE_LOOP ( 'NONE', ( #46, #231 ) ) ;
#6 = CARTESIAN_POINT ( 'NONE',  ( 0.5000000000000000000, 4.000000000000000000, 0.000000000000000000 ) ) ;
#7 = FILL_AREA_STYLE ('',( #266 ) ) ;
#8 =( CONVERSION_BASED_UNIT ( 'INCH', #117 ) LENGTH_UNIT ( ) NAMED_UNIT ( #13 ) );
#9 = FACE_OUTER_BOUND ( 'NONE', #295, .T. ) ;
#10 = SURFACE_STYLE_USAGE ( .BOTH. , #110 ) ;
#11 = ORIENTED_EDGE ( 'NONE', *, *, #307, .T. ) ;
#12 = VECTOR ( 'NONE', #51, 39.37007874015748143 ) ;
#13 = DIMENSIONAL_EXPONENTS ( 1.000000000000000000, 0.000000000000000000, 0.000000000000000000, 0.000000000000000000, 0.000000000000000000, 0.000000000000000000, 0.000000000000000000 ) ;
#14 = CYLINDRICAL_SURFACE ( 'NONE', #259, 0.4999999999999999445 ) ;
#15 =( NAMED_UNIT ( * ) SI_UNIT ( $, .STERADIAN. ) SOLID_ANGLE_UNIT ( ) );
#16 = MANIFOLD_SOLID_BREP ( 'Revolve - Cutting Edge', #303 ) ;
#17 = CARTESIAN_POINT ( 'NONE',  ( 0.000000000000000000, 0.000000000000000000, 0.000000000000000000 ) ) ;
#18 = FILL_AREA_STYLE_COLOUR ( '', #291 ) ;
#19 = VECTOR ( 'NONE', #27, 39.37007874015748143 ) ;
#20 = CARTESIAN_POINT ( 'NONE',  ( 0.000000000000000000, 0.000000000000000000, 0.000000000000000000 ) ) ;
#21 = CARTESIAN_POINT ( 'NONE',  ( 0.000000000000000000, 1.250000000000000000, 0.000000000000000000 ) ) ;
#22 = CARTESIAN_POINT ( 'NONE',  ( 0.000000000000000000, 0.000000000000000000, 0.000000000000000000 ) ) ;
#23 = DIRECTION ( 'NONE',  ( 0.000000000000000000, 0.000000000000000000, -1.000000000000000000 ) ) ;
#24 = FACE_OUTER_BOUND ( 'NONE', #225, .T. ) ;
#25 = AXIS2_PLACEMENT_3D ( 'NONE', #244, #160, #103 ) ;
#26 = CIRCLE ( 'NONE', #281, 0.5000000000000000000 ) ;
#27 = DIRECTION ( 'NONE',  ( -0.000000000000000000, -1.000000000000000000, -0.000000000000000000 ) ) ;
#28 = ORIENTED_EDGE ( 'NONE', *, *, #119, .T. ) ;
#29 = APPLICATION_PROTOCOL_DEFINITION ( 'draft international standard', 'automotive_design', 1998, #247 ) ;
#30 = UNCERTAINTY_MEASURE_WITH_UNIT (LENGTH_MEASURE( 1.000000000000000082E-05 ), #65, 'distance_accuracy_value', 'NONE');
#31 = CARTESIAN_POINT ( 'NONE',  ( 1.224646799147353207E-16, 4.000000000000000000, 0.000000000000000000 ) ) ;
#32 =( GEOMETRIC_REPRESENTATION_CONTEXT ( 3 ) GLOBAL_UNCERTAINTY_ASSIGNED_CONTEXT ( ( #275 ) ) GLOBAL_UNIT_ASSIGNED_CONTEXT ( ( #101, #55, #60 ) ) REPRESENTATION_CONTEXT ( 'NONE', 'WORKASPACE' ) );
#33 = EDGE_CURVE ( 'NONE', #271, #108, #146, .T. ) ;
#34 = MECHANICAL_DESIGN_GEOMETRIC_PRESENTATION_REPRESENTATION (  '', ( #177 ), #129 ) ;
#35 = FACE_OUTER_BOUND ( 'NONE', #67, .T. ) ;
#36 =( CONVERSION_BASED_UNIT ( 'INCH', #306 ) LENGTH_UNIT ( ) NAMED_UNIT ( #120 ) );
#37 = PRODUCT_CONTEXT ( 'NONE', #247, 'mechanical' ) ;
#38 = AXIS2_PLACEMENT_3D ( 'NONE', #22, #125, #98 ) ;
#39 = AXIS2_PLACEMENT_3D ( 'NONE', #224, #61, #221 ) ;
#40 = DIRECTION ( 'NONE',  ( -1.000000000000000000, 0.000000000000000000, 0.000000000000000000 ) ) ;
#41 = ORIENTED_EDGE ( 'NONE', *, *, #33, .T. ) ;
#42 = CARTESIAN_POINT ( 'NONE',  ( 1.224646799147353207E-16, 4.000000000000000000, 0.000000000000000000 ) ) ;
#43 = ADVANCED_FACE ( 'NONE', ( #24 ), #96, .T. ) ;
#44 = VERTEX_POINT ( 'NONE', #194 ) ;
#45 = DIMENSIONAL_EXPONENTS ( 1.000000000000000000, 0.000000000000000000, 0.000000000000000000, 0.000000000000000000, 0.000000000000000000, 0.000000000000000000, 0.000000000000000000 ) ;
#46 = ORIENTED_EDGE ( 'NONE', *, *, #195, .T. ) ;
#47 = ADVANCED_BREP_SHAPE_REPRESENTATION ( '48691', ( #16, #223, #39 ), #115 ) ;
#48 = LINE ( 'NONE', #56, #304 ) ;
#49 = EDGE_LOOP ( 'NONE', ( #163, #41, #116, #233 ) ) ;
#50 = STYLED_ITEM ( 'NONE', ( #260 ), #43 ) ;
#51 = DIRECTION ( 'NONE',  ( 4.453261087808557677E-17, 1.000000000000000000, -0.000000000000000000 ) ) ;
#52 = CARTESIAN_POINT ( 'NONE',  ( 6.123233995736766036E-17, 0.000000000000000000, 0.5000000000000000000 ) ) ;
#53 = DIRECTION ( 'NONE',  ( -0.000000000000000000, -1.000000000000000000, -0.000000000000000000 ) ) ;
#54 =( NAMED_UNIT ( * ) PLANE_ANGLE_UNIT ( ) SI_UNIT ( $, .RADIAN. ) );
#55 =( NAMED_UNIT ( * ) PLANE_ANGLE_UNIT ( ) SI_UNIT ( $, .RADIAN. ) );
#56 = CARTESIAN_POINT ( 'NONE',  ( 0.5000000000000001110, 4.000000000000000000, 6.123233995736764803E-17 ) ) ;
#57 = DIRECTION ( 'NONE',  ( 4.453261087808557677E-17, 1.000000000000000000, -0.000000000000000000 ) ) ;
#58 = AXIS2_PLACEMENT_3D ( 'NONE', #237, #171, #257 ) ;
#59 = PLANE ( 'NONE',  #227 ) ;
#60 =( NAMED_UNIT ( * ) SI_UNIT ( $, .STERADIAN. ) SOLID_ANGLE_UNIT ( ) );
#61 = DIRECTION ( 'NONE',  ( 0.000000000000000000, 0.000000000000000000, 1.000000000000000000 ) ) ;
#62 = SURFACE_STYLE_USAGE ( .BOTH. , #269 ) ;
#63 = DIMENSIONAL_EXPONENTS ( 1.000000000000000000, 0.000000000000000000, 0.000000000000000000, 0.000000000000000000, 0.000000000000000000, 0.000000000000000000, 0.000000000000000000 ) ;
#64 = MECHANICAL_DESIGN_GEOMETRIC_PRESENTATION_REPRESENTATION (  '', ( #249 ), #280 ) ;
#65 =( CONVERSION_BASED_UNIT ( 'INCH', #202 ) LENGTH_UNIT ( ) NAMED_UNIT ( #69 ) );
#66 = PRESENTATION_STYLE_ASSIGNMENT (( #62 ) ) ;
#67 = EDGE_LOOP ( 'NONE', ( #290, #136 ) ) ;
#68 = PRESENTATION_LAYER_ASSIGNMENT (  '', '', ( #84 ) ) ;
#69 = DIMENSIONAL_EXPONENTS ( 1.000000000000000000, 0.000000000000000000, 0.000000000000000000, 0.000000000000000000, 0.000000000000000000, 0.000000000000000000, 0.000000000000000000 ) ;
#70 = ORIENTED_EDGE ( 'NONE', *, *, #109, .F. ) ;
#71 = FACE_OUTER_BOUND ( 'NONE', #5, .T. ) ;
#72 = FACE_OUTER_BOUND ( 'NONE', #199, .T. ) ;
#73 = DIRECTION ( 'NONE',  ( 0.000000000000000000, -0.000000000000000000, 1.000000000000000000 ) ) ;
#74 = VERTEX_POINT ( 'NONE', #100 ) ;
#75 =( NAMED_UNIT ( * ) PLANE_ANGLE_UNIT ( ) SI_UNIT ( $, .RADIAN. ) );
#76 = UNCERTAINTY_MEASURE_WITH_UNIT (LENGTH_MEASURE( 1.000000000000000082E-05 ), #78, 'distance_accuracy_value', 'NONE');
#77 = DIRECTION ( 'NONE',  ( -1.000000000000000000, 0.000000000000000000, 0.000000000000000000 ) ) ;
#78 =( CONVERSION_BASED_UNIT ( 'INCH', #172 ) LENGTH_UNIT ( ) NAMED_UNIT ( #254 ) );
#79 =( NAMED_UNIT ( * ) SI_UNIT ( $, .STERADIAN. ) SOLID_ANGLE_UNIT ( ) );
#80 = DIRECTION ( 'NONE',  ( 0.000000000000000000, 1.000000000000000000, 0.000000000000000000 ) ) ;
#81 = UNCERTAINTY_MEASURE_WITH_UNIT (LENGTH_MEASURE( 1.000000000000000082E-05 ), #218, 'distance_accuracy_value', 'NONE');
#82 = FACE_OUTER_BOUND ( 'NONE', #49, .T. ) ;
#83 = CIRCLE ( 'NONE', #241, 0.4999999999999998335 ) ;
#84 = STYLED_ITEM ( 'NONE', ( #137 ), #239 ) ;
#85 = ORIENTED_EDGE ( 'NONE', *, *, #173, .T. ) ;
#86 = AXIS2_PLACEMENT_3D ( 'NONE', #284, #154, #159 ) ;
#87 = EDGE_CURVE ( 'NONE', #271, #186, #162, .T. ) ;
#88 = DIRECTION ( 'NONE',  ( -1.000000000000000000, 0.000000000000000000, 0.000000000000000000 ) ) ;
#89 = EDGE_LOOP ( 'NONE', ( #28, #255, #185, #270 ) ) ;
#90 = DIRECTION ( 'NONE',  ( 0.000000000000000000, 0.000000000000000000, -1.000000000000000000 ) ) ;
#91 = AXIS2_PLACEMENT_3D ( 'NONE', #42, #253, #40 ) ;
#92 = DIRECTION ( 'NONE',  ( -1.000000000000000000, 0.000000000000000000, 0.000000000000000000 ) ) ;
#93 = SURFACE_STYLE_USAGE ( .BOTH. , #273 ) ;
#94 = DIRECTION ( 'NONE',  ( 4.453261087808557677E-17, 1.000000000000000000, -0.000000000000000000 ) ) ;
#95 = CARTESIAN_POINT ( 'NONE',  ( -1.516480271171051896E-32, 1.250000000000000000, 0.000000000000000000 ) ) ;
#96 = PLANE ( 'NONE',  #267 ) ;
#97 = CLOSED_SHELL ( 'NONE', ( #279, #166, #157, #134 ) ) ;
#98 = DIRECTION ( 'NONE',  ( 0.000000000000000000, 0.000000000000000000, -1.000000000000000000 ) ) ;
#99 = SURFACE_SIDE_STYLE ('',( #274 ) ) ;
#100 = CARTESIAN_POINT ( 'NONE',  ( -0.5000000000000000000, 1.250000000000000000, 0.000000000000000000 ) ) ;
#101 =( CONVERSION_BASED_UNIT ( 'INCH', #130 ) LENGTH_UNIT ( ) NAMED_UNIT ( #45 ) );
#102 = STYLED_ITEM ( 'NONE', ( #205 ), #178 ) ;
#103 = DIRECTION ( 'NONE',  ( 0.000000000000000000, 0.000000000000000000, -1.000000000000000000 ) ) ;
#104 =( LENGTH_UNIT ( ) NAMED_UNIT ( * ) SI_UNIT ( $, .METRE. ) );
#105 = VERTEX_POINT ( 'NONE', #193 ) ;
#106 = SHAPE_DEFINITION_REPRESENTATION ( #250, #47 ) ;
#107 = APPLICATION_CONTEXT ( 'automotive_design' ) ;
#108 = VERTEX_POINT ( 'NONE', #52 ) ;
#109 = EDGE_CURVE ( 'NONE', #108, #252, #1, .T. ) ;
#110 = SURFACE_SIDE_STYLE ('',( #112 ) ) ;
#111 = DIRECTION ( 'NONE',  ( 1.000000000000000000, -4.453261087808557677E-17, 0.000000000000000000 ) ) ;
#112 = SURFACE_STYLE_FILL_AREA ( #7 ) ;
#113 = COLOUR_RGB ( '',1.000000000000000000, 0.000000000000000000, 0.000000000000000000 ) ;
#114 = DIRECTION ( 'NONE',  ( 0.000000000000000000, 0.000000000000000000, -1.000000000000000000 ) ) ;
#115 =( GEOMETRIC_REPRESENTATION_CONTEXT ( 3 ) GLOBAL_UNCERTAINTY_ASSIGNED_CONTEXT ( ( #170 ) ) GLOBAL_UNIT_ASSIGNED_CONTEXT ( ( #36, #126, #79 ) ) REPRESENTATION_CONTEXT ( 'NONE', 'WORKASPACE' ) );
#116 = ORIENTED_EDGE ( 'NONE', *, *, #278, .F. ) ;
#117 = LENGTH_MEASURE_WITH_UNIT ( LENGTH_MEASURE( 0.02539999999999999897 ), #261 );
#118 = DIRECTION ( 'NONE',  ( 0.000000000000000000, 0.000000000000000000, -1.000000000000000000 ) ) ;
#119 = EDGE_CURVE ( 'NONE', #74, #208, #121, .T. ) ;
#120 = DIMENSIONAL_EXPONENTS ( 1.000000000000000000, 0.000000000000000000, 0.000000000000000000, 0.000000000000000000, 0.000000000000000000, 0.000000000000000000, 0.000000000000000000 ) ;
#121 = CIRCLE ( 'NONE', #86, 0.5000000000000000000 ) ;
#122 = FILL_AREA_STYLE ('',( #18 ) ) ;
#123 = SURFACE_STYLE_USAGE ( .BOTH. , #192 ) ;
#124 = ADVANCED_FACE ( 'NONE', ( #35 ), #59, .T. ) ;
#125 = DIRECTION ( 'NONE',  ( -0.000000000000000000, -1.000000000000000000, -0.000000000000000000 ) ) ;
#126 =( NAMED_UNIT ( * ) PLANE_ANGLE_UNIT ( ) SI_UNIT ( $, .RADIAN. ) );
#127 =( LENGTH_UNIT ( ) NAMED_UNIT ( * ) SI_UNIT ( $, .METRE. ) );
#128 = PRESENTATION_LAYER_ASSIGNMENT (  '', '', ( #249 ) ) ;
#129 =( GEOMETRIC_REPRESENTATION_CONTEXT ( 3 ) GLOBAL_UNCERTAINTY_ASSIGNED_CONTEXT ( ( #30 ) ) GLOBAL_UNIT_ASSIGNED_CONTEXT ( ( #65, #246, #15 ) ) REPRESENTATION_CONTEXT ( 'NONE', 'WORKASPACE' ) );
#130 = LENGTH_MEASURE_WITH_UNIT ( LENGTH_MEASURE( 0.02539999999999999897 ), #174 );
#131 = FILL_AREA_STYLE_COLOUR ( '', #198 ) ;
#132 = SURFACE_SIDE_STYLE ('',( #196 ) ) ;
#133 = FILL_AREA_STYLE_COLOUR ( '', #292 ) ;
#134 = ADVANCED_FACE ( 'NONE', ( #71 ), #138, .F. ) ;
#135 = FILL_AREA_STYLE_COLOUR ( '', #113 ) ;
#136 = ORIENTED_EDGE ( 'NONE', *, *, #109, .T. ) ;
#137 = PRESENTATION_STYLE_ASSIGNMENT (( #219 ) ) ;
#138 = PLANE ( 'NONE',  #285 ) ;
#139 = DIMENSIONAL_EXPONENTS ( 1.000000000000000000, 0.000000000000000000, 0.000000000000000000, 0.000000000000000000, 0.000000000000000000, 0.000000000000000000, 0.000000000000000000 ) ;
#140 = ORIENTED_EDGE ( 'NONE', *, *, #33, .F. ) ;
#141 = CIRCLE ( 'NONE', #179, 0.5000000000000000000 ) ;
#142 = PRODUCT_RELATED_PRODUCT_CATEGORY ( 'part', '', ( #182 ) ) ;
#143 = EDGE_LOOP ( 'NONE', ( #140, #210, #4, #70 ) ) ;
#144 = DIRECTION ( 'NONE',  ( 4.453261087808557677E-17, 1.000000000000000000, -0.000000000000000000 ) ) ;
#145 = DIRECTION ( 'NONE',  ( 4.453261087808557677E-17, 1.000000000000000000, -0.000000000000000000 ) ) ;
#146 = LINE ( 'NONE', #277, #19 ) ;
#147 = MECHANICAL_DESIGN_GEOMETRIC_PRESENTATION_REPRESENTATION (  '', ( #102 ), #32 ) ;
#148 = MECHANICAL_DESIGN_GEOMETRIC_PRESENTATION_REPRESENTATION (  '', ( #84 ), #183 ) ;
#149 = UNCERTAINTY_MEASURE_WITH_UNIT (LENGTH_MEASURE( 1.000000000000000082E-05 ), #8, 'distance_accuracy_value', 'NONE');
#150 =( LENGTH_UNIT ( ) NAMED_UNIT ( * ) SI_UNIT ( $, .METRE. ) );
#151 = MECHANICAL_DESIGN_GEOMETRIC_PRESENTATION_REPRESENTATION (  '', ( #50 ), #220 ) ;
#152 = CARTESIAN_POINT ( 'NONE',  ( 0.5000000000000000000, 1.250000000000000000, 6.123233995736764803E-17 ) ) ;
#153 = PRODUCT_DEFINITION_CONTEXT ( 'detailed design', #107, 'design' ) ;
#154 = DIRECTION ( 'NONE',  ( 4.453261087808557677E-17, 1.000000000000000000, -0.000000000000000000 ) ) ;
#155 = SURFACE_STYLE_USAGE ( .BOTH. , #132 ) ;
#156 = CARTESIAN_POINT ( 'NONE',  ( 0.000000000000000000, 1.250000000000000000, -0.5000000000000000000 ) ) ;
#157 = ADVANCED_FACE ( 'NONE', ( #9 ), #213, .T. ) ;
#158 = DIRECTION ( 'NONE',  ( -0.000000000000000000, -1.000000000000000000, -0.000000000000000000 ) ) ;
#159 = DIRECTION ( 'NONE',  ( -1.000000000000000000, 0.000000000000000000, 0.000000000000000000 ) ) ;
#160 = DIRECTION ( 'NONE',  ( -0.000000000000000000, -1.000000000000000000, -0.000000000000000000 ) ) ;
#161 = FACE_OUTER_BOUND ( 'NONE', #143, .T. ) ;
#162 = CIRCLE ( 'NONE', #58, 0.5000000000000000000 ) ;
#163 = ORIENTED_EDGE ( 'NONE', *, *, #175, .T. ) ;
#164 = DIRECTION ( 'NONE',  ( -0.000000000000000000, -1.000000000000000000, -0.000000000000000000 ) ) ;
#165 = ORIENTED_EDGE ( 'NONE', *, *, #87, .F. ) ;
#166 = ADVANCED_FACE ( 'NONE', ( #72 ), #184, .F. ) ;
#167 = PRESENTATION_LAYER_ASSIGNMENT (  '', '', ( #102 ) ) ;
#168 = ORIENTED_EDGE ( 'NONE', *, *, #307, .F. ) ;
#169 = CARTESIAN_POINT ( 'NONE',  ( 4.957883579047464389E-34, 1.250000000000000000, 0.000000000000000000 ) ) ;
#170 = UNCERTAINTY_MEASURE_WITH_UNIT (LENGTH_MEASURE( 1.000000000000000082E-05 ), #36, 'distance_accuracy_value', 'NONE');
#171 = DIRECTION ( 'NONE',  ( -0.000000000000000000, -1.000000000000000000, -0.000000000000000000 ) ) ;
#172 = LENGTH_MEASURE_WITH_UNIT ( LENGTH_MEASURE( 0.02539999999999999897 ), #150 );
#173 = EDGE_CURVE ( 'NONE', #74, #105, #276, .T. ) ;
#174 =( LENGTH_UNIT ( ) NAMED_UNIT ( * ) SI_UNIT ( $, .METRE. ) );
#175 = EDGE_CURVE ( 'NONE', #186, #271, #190, .T. ) ;
#176 = SURFACE_STYLE_FILL_AREA ( #240 ) ;
#177 = STYLED_ITEM ( 'NONE', ( #66 ), #223 ) ;
#178 = ADVANCED_FACE ( 'NONE', ( #82 ), #3, .T. ) ;
#179 = AXIS2_PLACEMENT_3D ( 'NONE', #95, #145, #92 ) ;
#180 = LENGTH_MEASURE_WITH_UNIT ( LENGTH_MEASURE( 0.02539999999999999897 ), #104 );
#181 = CARTESIAN_POINT ( 'NONE',  ( 0.000000000000000000, 0.000000000000000000, 0.000000000000000000 ) ) ;
#182 = PRODUCT ( '48691', '48691', '', ( #37 ) ) ;
#183 =( GEOMETRIC_REPRESENTATION_CONTEXT ( 3 ) GLOBAL_UNCERTAINTY_ASSIGNED_CONTEXT ( ( #149 ) ) GLOBAL_UNIT_ASSIGNED_CONTEXT ( ( #8, #54, #201 ) ) REPRESENTATION_CONTEXT ( 'NONE', 'WORKASPACE' ) );
#184 = PLANE ( 'NONE',  #286 ) ;
#185 = ORIENTED_EDGE ( 'NONE', *, *, #195, .F. ) ;
#186 = VERTEX_POINT ( 'NONE', #156 ) ;
#187 = CIRCLE ( 'NONE', #91, 0.4999999999999998335 ) ;
#188 = FILL_AREA_STYLE ('',( #248 ) ) ;
#189 = DIRECTION ( 'NONE',  ( -1.000000000000000000, 4.453261087808557677E-17, 0.000000000000000000 ) ) ;
#190 = CIRCLE ( 'NONE', #234, 0.5000000000000000000 ) ;
#191 =( LENGTH_UNIT ( ) NAMED_UNIT ( * ) SI_UNIT ( $, .METRE. ) );
#192 = SURFACE_SIDE_STYLE ('',( #176 ) ) ;
#193 = CARTESIAN_POINT ( 'NONE',  ( -0.4999999999999997224, 4.000000000000000000, 0.000000000000000000 ) ) ;
#194 = CARTESIAN_POINT ( 'NONE',  ( 0.5000000000000000000, 4.000000000000000000, 6.123233995736764803E-17 ) ) ;
#195 = EDGE_CURVE ( 'NONE', #105, #44, #83, .T. ) ;
#196 = SURFACE_STYLE_FILL_AREA ( #308 ) ;
#197 = SURFACE_STYLE_FILL_AREA ( #309 ) ;
#198 = COLOUR_RGB ( '',1.000000000000000000, 0.000000000000000000, 0.000000000000000000 ) ;
#199 = EDGE_LOOP ( 'NONE', ( #200, #168 ) ) ;
#200 = ORIENTED_EDGE ( 'NONE', *, *, #119, .F. ) ;
#201 =( NAMED_UNIT ( * ) SI_UNIT ( $, .STERADIAN. ) SOLID_ANGLE_UNIT ( ) );
#202 = LENGTH_MEASURE_WITH_UNIT ( LENGTH_MEASURE( 0.02539999999999999897 ), #268 );
#203 = COLOUR_RGB ( '',1.000000000000000000, 0.000000000000000000, 0.000000000000000000 ) ;
#204 = CARTESIAN_POINT ( 'NONE',  ( 1.224646799147353207E-16, 4.000000000000000000, 0.000000000000000000 ) ) ;
#205 = PRESENTATION_STYLE_ASSIGNMENT (( #10 ) ) ;
#206 = EDGE_CURVE ( 'NONE', #44, #105, #187, .T. ) ;
#207 = CARTESIAN_POINT ( 'NONE',  ( 0.000000000000000000, 0.000000000000000000, -0.5000000000000000000 ) ) ;
#208 = VERTEX_POINT ( 'NONE', #152 ) ;
#209 = CARTESIAN_POINT ( 'NONE',  ( 1.224646799147353207E-16, 4.000000000000000000, 0.000000000000000000 ) ) ;
#210 = ORIENTED_EDGE ( 'NONE', *, *, #87, .T. ) ;
#211 = STYLED_ITEM ( 'NONE', ( #212 ), #16 ) ;
#212 = PRESENTATION_STYLE_ASSIGNMENT (( #93 ) ) ;
#213 = CYLINDRICAL_SURFACE ( 'NONE', #262, 0.4999999999999999445 ) ;
#214 =( GEOMETRIC_REPRESENTATION_CONTEXT ( 3 ) GLOBAL_UNCERTAINTY_ASSIGNED_CONTEXT ( ( #76 ) ) GLOBAL_UNIT_ASSIGNED_CONTEXT ( ( #78, #75, #235 ) ) REPRESENTATION_CONTEXT ( 'NONE', 'WORKASPACE' ) );
#215 = PRESENTATION_LAYER_ASSIGNMENT (  '', '', ( #177 ) ) ;
#216 = LENGTH_MEASURE_WITH_UNIT ( LENGTH_MEASURE( 0.02539999999999999897 ), #191 );
#217 = EDGE_CURVE ( 'NONE', #208, #44, #48, .T. ) ;
#218 =( CONVERSION_BASED_UNIT ( 'INCH', #216 ) LENGTH_UNIT ( ) NAMED_UNIT ( #63 ) );
#219 = SURFACE_STYLE_USAGE ( .BOTH. , #99 ) ;
#220 =( GEOMETRIC_REPRESENTATION_CONTEXT ( 3 ) GLOBAL_UNCERTAINTY_ASSIGNED_CONTEXT ( ( #81 ) ) GLOBAL_UNIT_ASSIGNED_CONTEXT ( ( #218, #300, #283 ) ) REPRESENTATION_CONTEXT ( 'NONE', 'WORKASPACE' ) );
#221 = DIRECTION ( 'NONE',  ( 1.000000000000000000, 0.000000000000000000, 0.000000000000000000 ) ) ;
#222 =( NAMED_UNIT ( * ) PLANE_ANGLE_UNIT ( ) SI_UNIT ( $, .RADIAN. ) );
#223 = MANIFOLD_SOLID_BREP ( 'Revolve - Tool Body (Straight Shanked)', #97 ) ;
#224 = CARTESIAN_POINT ( 'NONE',  ( 0.000000000000000000, 0.000000000000000000, 0.000000000000000000 ) ) ;
#225 = EDGE_LOOP ( 'NONE', ( #229, #165 ) ) ;
#226 = DIRECTION ( 'NONE',  ( -0.000000000000000000, -1.000000000000000000, -0.000000000000000000 ) ) ;
#227 = AXIS2_PLACEMENT_3D ( 'NONE', #20, #238, #114 ) ;
#228 = LINE ( 'NONE', #289, #288 ) ;
#229 = ORIENTED_EDGE ( 'NONE', *, *, #175, .F. ) ;
#230 = DIRECTION ( 'NONE',  ( -4.453261087808557677E-17, -1.000000000000000000, 0.000000000000000000 ) ) ;
#231 = ORIENTED_EDGE ( 'NONE', *, *, #206, .T. ) ;
#232 = MECHANICAL_DESIGN_GEOMETRIC_PRESENTATION_REPRESENTATION (  '', ( #211 ), #214 ) ;
#233 = ORIENTED_EDGE ( 'NONE', *, *, #245, .F. ) ;
#234 = AXIS2_PLACEMENT_3D ( 'NONE', #21, #53, #23 ) ;
#235 =( NAMED_UNIT ( * ) SI_UNIT ( $, .STERADIAN. ) SOLID_ANGLE_UNIT ( ) );
#236 = PRODUCT_DEFINITION ( 'UNKNOWN', '', #272, #153 ) ;
#237 = CARTESIAN_POINT ( 'NONE',  ( 0.000000000000000000, 1.250000000000000000, 0.000000000000000000 ) ) ;
#238 = DIRECTION ( 'NONE',  ( 0.000000000000000000, -1.000000000000000000, -0.000000000000000000 ) ) ;
#239 = ADVANCED_FACE ( 'NONE', ( #161 ), #243, .T. ) ;
#240 = FILL_AREA_STYLE ('',( #131 ) ) ;
#241 = AXIS2_PLACEMENT_3D ( 'NONE', #31, #144, #251 ) ;
#242 = PRESENTATION_LAYER_ASSIGNMENT (  '', '', ( #50 ) ) ;
#243 = CYLINDRICAL_SURFACE ( 'NONE', #264, 0.5000000000000000000 ) ;
#244 = CARTESIAN_POINT ( 'NONE',  ( 0.000000000000000000, 0.000000000000000000, 0.000000000000000000 ) ) ;
#245 = EDGE_CURVE ( 'NONE', #186, #252, #228, .T. ) ;
#246 =( NAMED_UNIT ( * ) PLANE_ANGLE_UNIT ( ) SI_UNIT ( $, .RADIAN. ) );
#247 = APPLICATION_CONTEXT ( 'automotive_design' ) ;
#248 = FILL_AREA_STYLE_COLOUR ( '', #203 ) ;
#249 = STYLED_ITEM ( 'NONE', ( #287 ), #124 ) ;
#250 = PRODUCT_DEFINITION_SHAPE ( 'NONE', 'NONE',  #236 ) ;
#251 = DIRECTION ( 'NONE',  ( -1.000000000000000000, 0.000000000000000000, 0.000000000000000000 ) ) ;
#252 = VERTEX_POINT ( 'NONE', #207 ) ;
#253 = DIRECTION ( 'NONE',  ( 4.453261087808557677E-17, 1.000000000000000000, -0.000000000000000000 ) ) ;
#254 = DIMENSIONAL_EXPONENTS ( 1.000000000000000000, 0.000000000000000000, 0.000000000000000000, 0.000000000000000000, 0.000000000000000000, 0.000000000000000000, 0.000000000000000000 ) ;
#255 = ORIENTED_EDGE ( 'NONE', *, *, #217, .T. ) ;
#256 = CARTESIAN_POINT ( 'NONE',  ( -0.4999999999999997780, 4.000000000000000000, 0.000000000000000000 ) ) ;
#257 = DIRECTION ( 'NONE',  ( 0.000000000000000000, 0.000000000000000000, -1.000000000000000000 ) ) ;
#258 = UNCERTAINTY_MEASURE_WITH_UNIT (LENGTH_MEASURE( 1.000000000000000082E-05 ), #265, 'distance_accuracy_value', 'NONE');
#259 = AXIS2_PLACEMENT_3D ( 'NONE', #209, #282, #77 ) ;
#260 = PRESENTATION_STYLE_ASSIGNMENT (( #123 ) ) ;
#261 =( LENGTH_UNIT ( ) NAMED_UNIT ( * ) SI_UNIT ( $, .METRE. ) );
#262 = AXIS2_PLACEMENT_3D ( 'NONE', #204, #293, #88 ) ;
#263 = ORIENTED_EDGE ( 'NONE', *, *, #217, .F. ) ;
#264 = AXIS2_PLACEMENT_3D ( 'NONE', #181, #226, #90 ) ;
#265 =( CONVERSION_BASED_UNIT ( 'INCH', #180 ) LENGTH_UNIT ( ) NAMED_UNIT ( #139 ) );
#266 = FILL_AREA_STYLE_COLOUR ( '', #299 ) ;
#267 = AXIS2_PLACEMENT_3D ( 'NONE', #301, #80, #73 ) ;
#268 =( LENGTH_UNIT ( ) NAMED_UNIT ( * ) SI_UNIT ( $, .METRE. ) );
#269 = SURFACE_SIDE_STYLE ('',( #197 ) ) ;
#270 = ORIENTED_EDGE ( 'NONE', *, *, #173, .F. ) ;
#271 = VERTEX_POINT ( 'NONE', #294 ) ;
#272 = PRODUCT_DEFINITION_FORMATION_WITH_SPECIFIED_SOURCE ( 'ANY', '', #182, .NOT_KNOWN. ) ;
#273 = SURFACE_SIDE_STYLE ('',( #298 ) ) ;
#274 = SURFACE_STYLE_FILL_AREA ( #188 ) ;
#275 = UNCERTAINTY_MEASURE_WITH_UNIT (LENGTH_MEASURE( 1.000000000000000082E-05 ), #101, 'distance_accuracy_value', 'NONE');
#276 = LINE ( 'NONE', #256, #12 ) ;
#277 = CARTESIAN_POINT ( 'NONE',  ( 6.123233995736766036E-17, 0.000000000000000000, 0.5000000000000000000 ) ) ;
#278 = EDGE_CURVE ( 'NONE', #252, #108, #26, .T. ) ;
#279 = ADVANCED_FACE ( 'NONE', ( #296 ), #14, .T. ) ;
#280 =( GEOMETRIC_REPRESENTATION_CONTEXT ( 3 ) GLOBAL_UNCERTAINTY_ASSIGNED_CONTEXT ( ( #258 ) ) GLOBAL_UNIT_ASSIGNED_CONTEXT ( ( #265, #222, #2 ) ) REPRESENTATION_CONTEXT ( 'NONE', 'WORKASPACE' ) );
#281 = AXIS2_PLACEMENT_3D ( 'NONE', #17, #164, #118 ) ;
#282 = DIRECTION ( 'NONE',  ( 4.453261087808557677E-17, 1.000000000000000000, -0.000000000000000000 ) ) ;
#283 =( NAMED_UNIT ( * ) SI_UNIT ( $, .STERADIAN. ) SOLID_ANGLE_UNIT ( ) );
#284 = CARTESIAN_POINT ( 'NONE',  ( -1.516480271171051896E-32, 1.250000000000000000, 0.000000000000000000 ) ) ;
#285 = AXIS2_PLACEMENT_3D ( 'NONE', #6, #230, #111 ) ;
#286 = AXIS2_PLACEMENT_3D ( 'NONE', #169, #94, #189 ) ;
#287 = PRESENTATION_STYLE_ASSIGNMENT (( #155 ) ) ;
#288 = VECTOR ( 'NONE', #158, 39.37007874015748143 ) ;
#289 = CARTESIAN_POINT ( 'NONE',  ( 0.000000000000000000, 0.000000000000000000, -0.5000000000000000000 ) ) ;
#290 = ORIENTED_EDGE ( 'NONE', *, *, #278, .T. ) ;
#291 = COLOUR_RGB ( '',0.7921568627450980005, 0.8196078431372548767, 0.9333333333333333481 ) ;
#292 = COLOUR_RGB ( '',0.7921568627450980005, 0.8196078431372548767, 0.9333333333333333481 ) ;
#293 = DIRECTION ( 'NONE',  ( 4.453261087808557677E-17, 1.000000000000000000, -0.000000000000000000 ) ) ;
#294 = CARTESIAN_POINT ( 'NONE',  ( 6.123233995736766036E-17, 1.250000000000000000, 0.5000000000000000000 ) ) ;
#295 = EDGE_LOOP ( 'NONE', ( #263, #11, #85, #302 ) ) ;
#296 = FACE_OUTER_BOUND ( 'NONE', #89, .T. ) ;
#297 = PRESENTATION_LAYER_ASSIGNMENT (  '', '', ( #211 ) ) ;
#298 = SURFACE_STYLE_FILL_AREA ( #122 ) ;
#299 = COLOUR_RGB ( '',1.000000000000000000, 0.000000000000000000, 0.000000000000000000 ) ;
#300 =( NAMED_UNIT ( * ) PLANE_ANGLE_UNIT ( ) SI_UNIT ( $, .RADIAN. ) );
#301 = CARTESIAN_POINT ( 'NONE',  ( 0.000000000000000000, 1.250000000000000000, 0.000000000000000000 ) ) ;
#302 = ORIENTED_EDGE ( 'NONE', *, *, #206, .F. ) ;
#303 = CLOSED_SHELL ( 'NONE', ( #178, #43, #239, #124 ) ) ;
#304 = VECTOR ( 'NONE', #57, 39.37007874015748143 ) ;
#305 = APPLICATION_PROTOCOL_DEFINITION ( 'draft international standard', 'automotive_design', 1998, #107 ) ;
#306 = LENGTH_MEASURE_WITH_UNIT ( LENGTH_MEASURE( 0.02539999999999999897 ), #127 );
#307 = EDGE_CURVE ( 'NONE', #208, #74, #141, .T. ) ;
#308 = FILL_AREA_STYLE ('',( #135 ) ) ;
#309 = FILL_AREA_STYLE ('',( #133 ) ) ;
ENDSEC;
END-ISO-10303-21;
