ISO-10303-21;
HEADER;
FILE_DESCRIPTION (( 'STEP AP214' ),
    '1' );
FILE_NAME ('49075.STEP',
    '2023-06-30T21:57:05',
    ( '' ),
    ( '' ),
    'SwSTEP 2.0',
    'SolidWorks 2023',
    '' );
FILE_SCHEMA (( 'AUTOMOTIVE_DESIGN' ));
ENDSEC;

DATA;
#1 = STYLED_ITEM ( 'NONE', ( #276 ), #181 ) ;
#2 = DIRECTION ( 'NONE',  ( 1.217383013172805092E-16, -1.000000000000000000, 0.000000000000000000 ) ) ;
#3 = PRESENTATION_STYLE_ASSIGNMENT (( #89 ) ) ;
#4 = ORIENTED_EDGE ( 'NONE', *, *, #137, .T. ) ;
#5 =( NAMED_UNIT ( * ) SI_UNIT ( $, .STERADIAN. ) SOLID_ANGLE_UNIT ( ) );
#6 = FILL_AREA_STYLE ('',( #179 ) ) ;
#7 =( NAMED_UNIT ( * ) SI_UNIT ( $, .STERADIAN. ) SOLID_ANGLE_UNIT ( ) );
#8 = CLOSED_SHELL ( 'NONE', ( #255, #114, #131, #200 ) ) ;
#9 = EDGE_LOOP ( 'NONE', ( #328, #353, #208, #10 ) ) ;
#10 = ORIENTED_EDGE ( 'NONE', *, *, #21, .T. ) ;
#11 =( CONVERSION_BASED_UNIT ( 'INCH', #39 ) LENGTH_UNIT ( ) NAMED_UNIT ( #286 ) );
#12 = DIMENSIONAL_EXPONENTS ( 1.000000000000000000, 0.000000000000000000, 0.000000000000000000, 0.000000000000000000, 0.000000000000000000, 0.000000000000000000, 0.000000000000000000 ) ;
#13 = SURFACE_STYLE_USAGE ( .BOTH. , #48 ) ;
#14 =( NAMED_UNIT ( * ) PLANE_ANGLE_UNIT ( ) SI_UNIT ( $, .RADIAN. ) );
#15 = CIRCLE ( 'NONE', #133, 0.1250000000000000000 ) ;
#16 = DIRECTION ( 'NONE',  ( -0.000000000000000000, -1.000000000000000000, -0.000000000000000000 ) ) ;
#17 = DIRECTION ( 'NONE',  ( -1.000000000000000000, 0.000000000000000000, 0.000000000000000000 ) ) ;
#18 = CARTESIAN_POINT ( 'NONE',  ( -1.530808498934191509E-17, 0.1250000000000000000, 0.000000000000000000 ) ) ;
#19 = CARTESIAN_POINT ( 'NONE',  ( 0.000000000000000000, 0.3749999999999999445, 0.000000000000000000 ) ) ;
#20 =( GEOMETRIC_REPRESENTATION_CONTEXT ( 3 ) GLOBAL_UNCERTAINTY_ASSIGNED_CONTEXT ( ( #42 ) ) GLOBAL_UNIT_ASSIGNED_CONTEXT ( ( #130, #159, #189 ) ) REPRESENTATION_CONTEXT ( 'NONE', 'WORKASPACE' ) );
#21 = EDGE_CURVE ( 'NONE', #245, #138, #66, .T. ) ;
#22 = COLOUR_RGB ( '',0.7921568627450980005, 0.8196078431372548767, 0.9333333333333333481 ) ;
#23 = DIRECTION ( 'NONE',  ( -0.000000000000000000, -1.000000000000000000, -0.000000000000000000 ) ) ;
#24 = SPHERICAL_SURFACE ( 'NONE', #34, 0.1250000000000000000 ) ;
#25 = ORIENTED_EDGE ( 'NONE', *, *, #210, .F. ) ;
#26 = DIMENSIONAL_EXPONENTS ( 1.000000000000000000, 0.000000000000000000, 0.000000000000000000, 0.000000000000000000, 0.000000000000000000, 0.000000000000000000, 0.000000000000000000 ) ;
#27 = FILL_AREA_STYLE ('',( #366 ) ) ;
#28 = MECHANICAL_DESIGN_GEOMETRIC_PRESENTATION_REPRESENTATION (  '', ( #197 ), #206 ) ;
#29 = DIRECTION ( 'NONE',  ( 1.000000000000000000, 0.000000000000000000, 0.000000000000000000 ) ) ;
#30 =( LENGTH_UNIT ( ) NAMED_UNIT ( * ) SI_UNIT ( $, .METRE. ) );
#31 = SURFACE_STYLE_FILL_AREA ( #225 ) ;
#32 = PRODUCT_DEFINITION_FORMATION_WITH_SPECIFIED_SOURCE ( 'ANY', '', #296, .NOT_KNOWN. ) ;
#33 = LINE ( 'NONE', #121, #318 ) ;
#34 = AXIS2_PLACEMENT_3D ( 'NONE', #83, #139, #29 ) ;
#35 = AXIS2_PLACEMENT_3D ( 'NONE', #104, #47, #136 ) ;
#36 = DIRECTION ( 'NONE',  ( -0.000000000000000000, -1.000000000000000000, -0.000000000000000000 ) ) ;
#37 = ORIENTED_EDGE ( 'NONE', *, *, #57, .F. ) ;
#38 = VERTEX_POINT ( 'NONE', #261 ) ;
#39 = LENGTH_MEASURE_WITH_UNIT ( LENGTH_MEASURE( 0.02539999999999999897 ), #301 );
#40 = ORIENTED_EDGE ( 'NONE', *, *, #51, .T. ) ;
#41 = PRESENTATION_LAYER_ASSIGNMENT (  '', '', ( #204 ) ) ;
#42 = UNCERTAINTY_MEASURE_WITH_UNIT (LENGTH_MEASURE( 1.000000000000000082E-05 ), #130, 'distance_accuracy_value', 'NONE');
#43 = DIRECTION ( 'NONE',  ( -1.000000000000000000, 0.000000000000000000, 0.000000000000000000 ) ) ;
#44 = ADVANCED_BREP_SHAPE_REPRESENTATION ( '49075', ( #314, #181, #124 ), #226 ) ;
#45 = EDGE_LOOP ( 'NONE', ( #157, #184 ) ) ;
#46 = DIRECTION ( 'NONE',  ( 1.000000000000000000, 0.000000000000000000, 0.000000000000000000 ) ) ;
#47 = DIRECTION ( 'NONE',  ( -1.217383013172805092E-16, 1.000000000000000000, -0.000000000000000000 ) ) ;
#48 = SURFACE_SIDE_STYLE ('',( #158 ) ) ;
#49 =( NAMED_UNIT ( * ) PLANE_ANGLE_UNIT ( ) SI_UNIT ( $, .RADIAN. ) );
#50 = DIRECTION ( 'NONE',  ( -1.217383013172805092E-16, 1.000000000000000000, -0.000000000000000000 ) ) ;
#51 = EDGE_CURVE ( 'NONE', #38, #123, #140, .T. ) ;
#52 = AXIS2_PLACEMENT_3D ( 'NONE', #94, #295, #134 ) ;
#53 = FACE_OUTER_BOUND ( 'NONE', #45, .T. ) ;
#54 = ORIENTED_EDGE ( 'NONE', *, *, #195, .T. ) ;
#55 =( NAMED_UNIT ( * ) PLANE_ANGLE_UNIT ( ) SI_UNIT ( $, .RADIAN. ) );
#56 = DIRECTION ( 'NONE',  ( -0.000000000000000000, -1.000000000000000000, -0.000000000000000000 ) ) ;
#57 = EDGE_CURVE ( 'NONE', #61, #302, #33, .T. ) ;
#58 = DIRECTION ( 'NONE',  ( -0.000000000000000000, -1.000000000000000000, -0.000000000000000000 ) ) ;
#59 = DIRECTION ( 'NONE',  ( -0.000000000000000000, -1.000000000000000000, -0.000000000000000000 ) ) ;
#60 = AXIS2_PLACEMENT_3D ( 'NONE', #330, #2, #234 ) ;
#61 = VERTEX_POINT ( 'NONE', #321 ) ;
#62 = ORIENTED_EDGE ( 'NONE', *, *, #205, .F. ) ;
#63 = PRESENTATION_STYLE_ASSIGNMENT (( #65 ) ) ;
#64 = ORIENTED_EDGE ( 'NONE', *, *, #273, .T. ) ;
#65 = SURFACE_STYLE_USAGE ( .BOTH. , #242 ) ;
#66 = CIRCLE ( 'NONE', #175, 0.1250000000000000000 ) ;
#67 = FILL_AREA_STYLE_COLOUR ( '', #22 ) ;
#68 = AXIS2_PLACEMENT_3D ( 'NONE', #18, #338, #287 ) ;
#69 =( LENGTH_UNIT ( ) NAMED_UNIT ( * ) SI_UNIT ( $, .METRE. ) );
#70 = LENGTH_MEASURE_WITH_UNIT ( LENGTH_MEASURE( 0.02539999999999999897 ), #102 );
#71 = DIRECTION ( 'NONE',  ( 0.000000000000000000, 0.000000000000000000, -1.000000000000000000 ) ) ;
#72 =( CONVERSION_BASED_UNIT ( 'INCH', #334 ) LENGTH_UNIT ( ) NAMED_UNIT ( #26 ) );
#73 = DIRECTION ( 'NONE',  ( 0.000000000000000000, 0.000000000000000000, -1.000000000000000000 ) ) ;
#74 = CYLINDRICAL_SURFACE ( 'NONE', #223, 0.1249999999999999584 ) ;
#75 =( GEOMETRIC_REPRESENTATION_CONTEXT ( 3 ) GLOBAL_UNCERTAINTY_ASSIGNED_CONTEXT ( ( #329 ) ) GLOBAL_UNIT_ASSIGNED_CONTEXT ( ( #177, #207, #107 ) ) REPRESENTATION_CONTEXT ( 'NONE', 'WORKASPACE' ) );
#76 = CIRCLE ( 'NONE', #52, 0.1250000000000000000 ) ;
#77 = LINE ( 'NONE', #336, #182 ) ;
#78 = ADVANCED_FACE ( 'NONE', ( #167 ), #24, .T. ) ;
#79 = ADVANCED_FACE ( 'NONE', ( #165 ), #74, .T. ) ;
#80 = DIRECTION ( 'NONE',  ( -1.217383013172805092E-16, 1.000000000000000000, -0.000000000000000000 ) ) ;
#81 = APPLICATION_CONTEXT ( 'automotive_design' ) ;
#82 = AXIS2_PLACEMENT_3D ( 'NONE', #333, #188, #17 ) ;
#83 = CARTESIAN_POINT ( 'NONE',  ( -1.530808498934191509E-17, 0.1250000000000000000, 0.000000000000000000 ) ) ;
#84 =( GEOMETRIC_REPRESENTATION_CONTEXT ( 3 ) GLOBAL_UNCERTAINTY_ASSIGNED_CONTEXT ( ( #187 ) ) GLOBAL_UNIT_ASSIGNED_CONTEXT ( ( #161, #49, #185 ) ) REPRESENTATION_CONTEXT ( 'NONE', 'WORKASPACE' ) );
#85 = MECHANICAL_DESIGN_GEOMETRIC_PRESENTATION_REPRESENTATION (  '', ( #204 ), #20 ) ;
#86 =( CONVERSION_BASED_UNIT ( 'INCH', #111 ) LENGTH_UNIT ( ) NAMED_UNIT ( #162 ) );
#87 = EDGE_LOOP ( 'NONE', ( #266, #214 ) ) ;
#88 = CARTESIAN_POINT ( 'NONE',  ( 1.530808498934191509E-17, 0.1250000000000000278, 0.1250000000000000000 ) ) ;
#89 = SURFACE_STYLE_USAGE ( .BOTH. , #347 ) ;
#90 = ORIENTED_EDGE ( 'NONE', *, *, #135, .T. ) ;
#91 = AXIS2_PLACEMENT_3D ( 'NONE', #363, #112, #345 ) ;
#92 = CIRCLE ( 'NONE', #239, 0.1250000000000000000 ) ;
#93 = ORIENTED_EDGE ( 'NONE', *, *, #231, .F. ) ;
#94 = CARTESIAN_POINT ( 'NONE',  ( -1.530808498934191509E-17, 0.1250000000000000000, 0.000000000000000000 ) ) ;
#95 =( NAMED_UNIT ( * ) SI_UNIT ( $, .STERADIAN. ) SOLID_ANGLE_UNIT ( ) );
#96 = APPLICATION_CONTEXT ( 'automotive_design' ) ;
#97 =( GEOMETRIC_REPRESENTATION_CONTEXT ( 3 ) GLOBAL_UNCERTAINTY_ASSIGNED_CONTEXT ( ( #274 ) ) GLOBAL_UNIT_ASSIGNED_CONTEXT ( ( #172, #55, #291 ) ) REPRESENTATION_CONTEXT ( 'NONE', 'WORKASPACE' ) );
#98 = CIRCLE ( 'NONE', #176, 0.1249999999999999445 ) ;
#99 = APPLICATION_PROTOCOL_DEFINITION ( 'draft international standard', 'automotive_design', 1998, #96 ) ;
#100 = UNCERTAINTY_MEASURE_WITH_UNIT (LENGTH_MEASURE( 1.000000000000000082E-05 ), #369, 'distance_accuracy_value', 'NONE');
#101 = LINE ( 'NONE', #256, #298 ) ;
#102 =( LENGTH_UNIT ( ) NAMED_UNIT ( * ) SI_UNIT ( $, .METRE. ) );
#103 = DIRECTION ( 'NONE',  ( -0.000000000000000000, -1.000000000000000000, -0.000000000000000000 ) ) ;
#104 = CARTESIAN_POINT ( 'NONE',  ( 1.224646799147353700E-16, 2.000000000000000000, 0.000000000000000000 ) ) ;
#105 = VECTOR ( 'NONE', #227, 39.37007874015748143 ) ;
#106 = CARTESIAN_POINT ( 'NONE',  ( -0.1250000000000000000, 0.1250000000000000278, 1.530808498934191201E-17 ) ) ;
#107 =( NAMED_UNIT ( * ) SI_UNIT ( $, .STERADIAN. ) SOLID_ANGLE_UNIT ( ) );
#108 = ORIENTED_EDGE ( 'NONE', *, *, #135, .F. ) ;
#109 = PRESENTATION_LAYER_ASSIGNMENT (  '', '', ( #352 ) ) ;
#110 = CARTESIAN_POINT ( 'NONE',  ( 0.000000000000000000, 0.3749999999999999445, 0.000000000000000000 ) ) ;
#111 = LENGTH_MEASURE_WITH_UNIT ( LENGTH_MEASURE( 0.02539999999999999897 ), #69 );
#112 = DIRECTION ( 'NONE',  ( -1.217383013172805092E-16, 1.000000000000000000, -0.000000000000000000 ) ) ;
#113 = DIRECTION ( 'NONE',  ( -0.000000000000000000, -1.000000000000000000, -0.000000000000000000 ) ) ;
#114 = ADVANCED_FACE ( 'NONE', ( #53 ), #168, .F. ) ;
#115 = ADVANCED_FACE ( 'NONE', ( #228 ), #232, .T. ) ;
#116 = DIRECTION ( 'NONE',  ( -1.000000000000000000, -1.217383013172805092E-16, 0.000000000000000000 ) ) ;
#117 = STYLED_ITEM ( 'NONE', ( #170 ), #78 ) ;
#118 = AXIS2_PLACEMENT_3D ( 'NONE', #252, #16, #73 ) ;
#119 = FACE_OUTER_BOUND ( 'NONE', #174, .T. ) ;
#120 = FILL_AREA_STYLE_COLOUR ( '', #340 ) ;
#121 = CARTESIAN_POINT ( 'NONE',  ( 0.000000000000000000, 0.000000000000000000, -0.1249999999999999584 ) ) ;
#122 = ORIENTED_EDGE ( 'NONE', *, *, #183, .T. ) ;
#123 = VERTEX_POINT ( 'NONE', #339 ) ;
#124 = AXIS2_PLACEMENT_3D ( 'NONE', #241, #236, #46 ) ;
#125 = SURFACE_STYLE_FILL_AREA ( #6 ) ;
#126 = CIRCLE ( 'NONE', #118, 0.1250000000000000000 ) ;
#127 = EDGE_LOOP ( 'NONE', ( #93, #326 ) ) ;
#128 = VERTEX_POINT ( 'NONE', #368 ) ;
#129 =( NAMED_UNIT ( * ) PLANE_ANGLE_UNIT ( ) SI_UNIT ( $, .RADIAN. ) );
#130 =( CONVERSION_BASED_UNIT ( 'INCH', #70 ) LENGTH_UNIT ( ) NAMED_UNIT ( #220 ) );
#131 = ADVANCED_FACE ( 'NONE', ( #342 ), #193, .T. ) ;
#132 = CARTESIAN_POINT ( 'NONE',  ( 0.000000000000000000, 0.1250000000000000278, -0.1250000000000000000 ) ) ;
#133 = AXIS2_PLACEMENT_3D ( 'NONE', #278, #311, #71 ) ;
#134 = DIRECTION ( 'NONE',  ( 1.000000000000000000, 0.000000000000000000, -1.224646799147353207E-16 ) ) ;
#135 = EDGE_CURVE ( 'NONE', #38, #128, #324, .T. ) ;
#136 = DIRECTION ( 'NONE',  ( -1.000000000000000000, 0.000000000000000000, 0.000000000000000000 ) ) ;
#137 = EDGE_CURVE ( 'NONE', #123, #38, #229, .T. ) ;
#138 = VERTEX_POINT ( 'NONE', #88 ) ;
#139 = DIRECTION ( 'NONE',  ( 0.000000000000000000, 0.000000000000000000, 1.000000000000000000 ) ) ;
#140 = CIRCLE ( 'NONE', #91, 0.1249999999999996253 ) ;
#141 = COLOUR_RGB ( '',1.000000000000000000, 0.000000000000000000, 0.000000000000000000 ) ;
#142 = SURFACE_STYLE_USAGE ( .BOTH. , #290 ) ;
#143 = ADVANCED_FACE ( 'NONE', ( #299 ), #246, .T. ) ;
#144 = LENGTH_MEASURE_WITH_UNIT ( LENGTH_MEASURE( 0.02539999999999999897 ), #30 );
#145 = CARTESIAN_POINT ( 'NONE',  ( 0.000000000000000000, 0.000000000000000000, 0.000000000000000000 ) ) ;
#146 = FILL_AREA_STYLE_COLOUR ( '', #141 ) ;
#147 = CIRCLE ( 'NONE', #35, 0.1249999999999998335 ) ;
#148 = VERTEX_POINT ( 'NONE', #351 ) ;
#149 = ORIENTED_EDGE ( 'NONE', *, *, #195, .F. ) ;
#150 = CARTESIAN_POINT ( 'NONE',  ( 0.000000000000000000, 0.000000000000000000, 0.000000000000000000 ) ) ;
#151 =( LENGTH_UNIT ( ) NAMED_UNIT ( * ) SI_UNIT ( $, .METRE. ) );
#152 = ORIENTED_EDGE ( 'NONE', *, *, #364, .F. ) ;
#153 = SURFACE_STYLE_USAGE ( .BOTH. , #365 ) ;
#154 = AXIS2_PLACEMENT_3D ( 'NONE', #343, #267, #346 ) ;
#155 =( NAMED_UNIT ( * ) PLANE_ANGLE_UNIT ( ) SI_UNIT ( $, .RADIAN. ) );
#156 = DIRECTION ( 'NONE',  ( -1.217383013172805092E-16, 1.000000000000000000, -0.000000000000000000 ) ) ;
#157 = ORIENTED_EDGE ( 'NONE', *, *, #51, .F. ) ;
#158 = SURFACE_STYLE_FILL_AREA ( #335 ) ;
#159 =( NAMED_UNIT ( * ) PLANE_ANGLE_UNIT ( ) SI_UNIT ( $, .RADIAN. ) );
#160 =( GEOMETRIC_REPRESENTATION_CONTEXT ( 3 ) GLOBAL_UNCERTAINTY_ASSIGNED_CONTEXT ( ( #251 ) ) GLOBAL_UNIT_ASSIGNED_CONTEXT ( ( #86, #155, #95 ) ) REPRESENTATION_CONTEXT ( 'NONE', 'WORKASPACE' ) );
#161 =( CONVERSION_BASED_UNIT ( 'INCH', #190 ) LENGTH_UNIT ( ) NAMED_UNIT ( #367 ) );
#162 = DIMENSIONAL_EXPONENTS ( 1.000000000000000000, 0.000000000000000000, 0.000000000000000000, 0.000000000000000000, 0.000000000000000000, 0.000000000000000000, 0.000000000000000000 ) ;
#163 = DIRECTION ( 'NONE',  ( -1.000000000000000000, 0.000000000000000000, 0.000000000000000000 ) ) ;
#164 = PRODUCT_RELATED_PRODUCT_CATEGORY ( 'part', '', ( #296 ) ) ;
#165 = FACE_OUTER_BOUND ( 'NONE', #288, .T. ) ;
#166 = AXIS2_PLACEMENT_3D ( 'NONE', #313, #50, #163 ) ;
#167 = FACE_OUTER_BOUND ( 'NONE', #275, .T. ) ;
#168 = PLANE ( 'NONE',  #282 ) ;
#169 = SURFACE_STYLE_FILL_AREA ( #248 ) ;
#170 = PRESENTATION_STYLE_ASSIGNMENT (( #373 ) ) ;
#171 = FILL_AREA_STYLE_COLOUR ( '', #310 ) ;
#172 =( CONVERSION_BASED_UNIT ( 'INCH', #294 ) LENGTH_UNIT ( ) NAMED_UNIT ( #355 ) );
#173 = PRODUCT_DEFINITION_SHAPE ( 'NONE', 'NONE',  #319 ) ;
#174 = EDGE_LOOP ( 'NONE', ( #235, #122, #247, #149, #178 ) ) ;
#175 = AXIS2_PLACEMENT_3D ( 'NONE', #230, #56, #263 ) ;
#176 = AXIS2_PLACEMENT_3D ( 'NONE', #19, #103, #249 ) ;
#177 =( CONVERSION_BASED_UNIT ( 'INCH', #327 ) LENGTH_UNIT ( ) NAMED_UNIT ( #12 ) );
#178 = ORIENTED_EDGE ( 'NONE', *, *, #293, .F. ) ;
#179 = FILL_AREA_STYLE_COLOUR ( '', #360 ) ;
#180 = ORIENTED_EDGE ( 'NONE', *, *, #258, .F. ) ;
#181 = MANIFOLD_SOLID_BREP ( 'Revolve - Tool Body (Straight Shanked)', #8 ) ;
#182 = VECTOR ( 'NONE', #80, 39.37007874015748143 ) ;
#183 = EDGE_CURVE ( 'NONE', #279, #61, #283, .T. ) ;
#184 = ORIENTED_EDGE ( 'NONE', *, *, #137, .F. ) ;
#185 =( NAMED_UNIT ( * ) SI_UNIT ( $, .STERADIAN. ) SOLID_ANGLE_UNIT ( ) );
#186 = ADVANCED_FACE ( 'NONE', ( #119 ), #325, .T. ) ;
#187 = UNCERTAINTY_MEASURE_WITH_UNIT (LENGTH_MEASURE( 1.000000000000000082E-05 ), #161, 'distance_accuracy_value', 'NONE');
#188 = DIRECTION ( 'NONE',  ( 0.000000000000000000, 0.000000000000000000, -1.000000000000000000 ) ) ;
#189 =( NAMED_UNIT ( * ) SI_UNIT ( $, .STERADIAN. ) SOLID_ANGLE_UNIT ( ) );
#190 = LENGTH_MEASURE_WITH_UNIT ( LENGTH_MEASURE( 0.02539999999999999897 ), #192 );
#191 = AXIS2_PLACEMENT_3D ( 'NONE', #150, #36, #320 ) ;
#192 =( LENGTH_UNIT ( ) NAMED_UNIT ( * ) SI_UNIT ( $, .METRE. ) );
#193 = CYLINDRICAL_SURFACE ( 'NONE', #166, 0.1249999999999997224 ) ;
#194 =( LENGTH_UNIT ( ) NAMED_UNIT ( * ) SI_UNIT ( $, .METRE. ) );
#195 = EDGE_CURVE ( 'NONE', #331, #302, #92, .T. ) ;
#196 = PRESENTATION_LAYER_ASSIGNMENT (  '', '', ( #356 ) ) ;
#197 = STYLED_ITEM ( 'NONE', ( #292 ), #186 ) ;
#198 = DIMENSIONAL_EXPONENTS ( 1.000000000000000000, 0.000000000000000000, 0.000000000000000000, 0.000000000000000000, 0.000000000000000000, 0.000000000000000000, 0.000000000000000000 ) ;
#199 = DIRECTION ( 'NONE',  ( 0.000000000000000000, 0.000000000000000000, -1.000000000000000000 ) ) ;
#200 = ADVANCED_FACE ( 'NONE', ( #270 ), #268, .F. ) ;
#201 = SURFACE_STYLE_FILL_AREA ( #307 ) ;
#202 = SURFACE_SIDE_STYLE ('',( #169 ) ) ;
#203 = ORIENTED_EDGE ( 'NONE', *, *, #21, .F. ) ;
#204 = STYLED_ITEM ( 'NONE', ( #63 ), #143 ) ;
#205 = EDGE_CURVE ( 'NONE', #331, #323, #76, .T. ) ;
#206 =( GEOMETRIC_REPRESENTATION_CONTEXT ( 3 ) GLOBAL_UNCERTAINTY_ASSIGNED_CONTEXT ( ( #100 ) ) GLOBAL_UNIT_ASSIGNED_CONTEXT ( ( #369, #277, #7 ) ) REPRESENTATION_CONTEXT ( 'NONE', 'WORKASPACE' ) );
#207 =( NAMED_UNIT ( * ) PLANE_ANGLE_UNIT ( ) SI_UNIT ( $, .RADIAN. ) );
#208 = ORIENTED_EDGE ( 'NONE', *, *, #240, .F. ) ;
#209 = UNCERTAINTY_MEASURE_WITH_UNIT (LENGTH_MEASURE( 1.000000000000000082E-05 ), #72, 'distance_accuracy_value', 'NONE');
#210 = EDGE_CURVE ( 'NONE', #302, #245, #126, .T. ) ;
#211 = SURFACE_STYLE_FILL_AREA ( #244 ) ;
#212 = EDGE_LOOP ( 'NONE', ( #40, #272, #349, #108 ) ) ;
#213 = APPLICATION_PROTOCOL_DEFINITION ( 'draft international standard', 'automotive_design', 1998, #81 ) ;
#214 = ORIENTED_EDGE ( 'NONE', *, *, #258, .T. ) ;
#215 = PRESENTATION_LAYER_ASSIGNMENT (  '', '', ( #117 ) ) ;
#216 = CIRCLE ( 'NONE', #82, 0.1250000000000000000 ) ;
#217 = SHAPE_DEFINITION_REPRESENTATION ( #173, #44 ) ;
#218 = DIRECTION ( 'NONE',  ( -1.000000000000000000, 0.000000000000000000, 0.000000000000000000 ) ) ;
#219 = FACE_OUTER_BOUND ( 'NONE', #212, .T. ) ;
#220 = DIMENSIONAL_EXPONENTS ( 1.000000000000000000, 0.000000000000000000, 0.000000000000000000, 0.000000000000000000, 0.000000000000000000, 0.000000000000000000, 0.000000000000000000 ) ;
#221 = CARTESIAN_POINT ( 'NONE',  ( 1.224646799147353700E-16, 2.000000000000000000, 0.000000000000000000 ) ) ;
#222 = DIRECTION ( 'NONE',  ( 0.000000000000000000, -0.000000000000000000, 1.000000000000000000 ) ) ;
#223 = AXIS2_PLACEMENT_3D ( 'NONE', #145, #23, #199 ) ;
#224 = AXIS2_PLACEMENT_3D ( 'NONE', #254, #359, #218 ) ;
#225 = FILL_AREA_STYLE ('',( #171 ) ) ;
#226 =( GEOMETRIC_REPRESENTATION_CONTEXT ( 3 ) GLOBAL_UNCERTAINTY_ASSIGNED_CONTEXT ( ( #238 ) ) GLOBAL_UNIT_ASSIGNED_CONTEXT ( ( #11, #129, #5 ) ) REPRESENTATION_CONTEXT ( 'NONE', 'WORKASPACE' ) );
#227 = DIRECTION ( 'NONE',  ( -1.217383013172805092E-16, 1.000000000000000000, -0.000000000000000000 ) ) ;
#228 = FACE_OUTER_BOUND ( 'NONE', #127, .T. ) ;
#229 = CIRCLE ( 'NONE', #154, 0.1249999999999996253 ) ;
#230 = CARTESIAN_POINT ( 'NONE',  ( 0.000000000000000000, 0.1250000000000000278, 0.000000000000000000 ) ) ;
#231 = EDGE_CURVE ( 'NONE', #61, #279, #98, .T. ) ;
#232 = PLANE ( 'NONE',  #337 ) ;
#233 = SURFACE_SIDE_STYLE ('',( #317 ) ) ;
#234 = DIRECTION ( 'NONE',  ( 1.000000000000000000, 1.217383013172805092E-16, 0.000000000000000000 ) ) ;
#235 = ORIENTED_EDGE ( 'NONE', *, *, #273, .F. ) ;
#236 = DIRECTION ( 'NONE',  ( 0.000000000000000000, 0.000000000000000000, 1.000000000000000000 ) ) ;
#237 = ORIENTED_EDGE ( 'NONE', *, *, #231, .T. ) ;
#238 = UNCERTAINTY_MEASURE_WITH_UNIT (LENGTH_MEASURE( 1.000000000000000082E-05 ), #11, 'distance_accuracy_value', 'NONE');
#239 = AXIS2_PLACEMENT_3D ( 'NONE', #243, #59, #354 ) ;
#240 = EDGE_CURVE ( 'NONE', #245, #323, #216, .T. ) ;
#241 = CARTESIAN_POINT ( 'NONE',  ( 0.000000000000000000, 0.000000000000000000, 0.000000000000000000 ) ) ;
#242 = SURFACE_SIDE_STYLE ('',( #125 ) ) ;
#243 = CARTESIAN_POINT ( 'NONE',  ( 0.000000000000000000, 0.1250000000000000278, 0.000000000000000000 ) ) ;
#244 = FILL_AREA_STYLE ('',( #120 ) ) ;
#245 = VERTEX_POINT ( 'NONE', #306 ) ;
#246 = SPHERICAL_SURFACE ( 'NONE', #68, 0.1250000000000000000 ) ;
#247 = ORIENTED_EDGE ( 'NONE', *, *, #57, .T. ) ;
#248 = FILL_AREA_STYLE ('',( #146 ) ) ;
#249 = DIRECTION ( 'NONE',  ( 0.000000000000000000, 0.000000000000000000, -1.000000000000000000 ) ) ;
#250 = PRESENTATION_LAYER_ASSIGNMENT (  '', '', ( #197 ) ) ;
#251 = UNCERTAINTY_MEASURE_WITH_UNIT (LENGTH_MEASURE( 1.000000000000000082E-05 ), #86, 'distance_accuracy_value', 'NONE');
#252 = CARTESIAN_POINT ( 'NONE',  ( 0.000000000000000000, 0.1250000000000000278, 0.000000000000000000 ) ) ;
#253 =( NAMED_UNIT ( * ) SI_UNIT ( $, .STERADIAN. ) SOLID_ANGLE_UNIT ( ) );
#254 = CARTESIAN_POINT ( 'NONE',  ( 1.224646799147353700E-16, 2.000000000000000000, 0.000000000000000000 ) ) ;
#255 = ADVANCED_FACE ( 'NONE', ( #219 ), #303, .T. ) ;
#256 = CARTESIAN_POINT ( 'NONE',  ( 1.530808498934191201E-17, 0.000000000000000000, 0.1249999999999999584 ) ) ;
#257 = CARTESIAN_POINT ( 'NONE',  ( 0.000000000000000000, 0.3749999999999999445, 0.000000000000000000 ) ) ;
#258 = EDGE_CURVE ( 'NONE', #148, #128, #147, .T. ) ;
#259 = AXIS2_PLACEMENT_3D ( 'NONE', #110, #113, #372 ) ;
#260 = FILL_AREA_STYLE_COLOUR ( '', #315 ) ;
#261 = CARTESIAN_POINT ( 'NONE',  ( -0.1249999999999992922, 0.3749999999999999445, 0.000000000000000000 ) ) ;
#262 = DIRECTION ( 'NONE',  ( 0.000000000000000000, 1.000000000000000000, 0.000000000000000000 ) ) ;
#263 = DIRECTION ( 'NONE',  ( 0.000000000000000000, 0.000000000000000000, -1.000000000000000000 ) ) ;
#264 = CARTESIAN_POINT ( 'NONE',  ( -0.1249999999999996114, 2.000000000000000000, 0.000000000000000000 ) ) ;
#265 = CARTESIAN_POINT ( 'NONE',  ( 3.202894195553161790E-16, 0.3749999999999999445, 0.000000000000000000 ) ) ;
#266 = ORIENTED_EDGE ( 'NONE', *, *, #305, .T. ) ;
#267 = DIRECTION ( 'NONE',  ( -1.217383013172805092E-16, 1.000000000000000000, -0.000000000000000000 ) ) ;
#268 = PLANE ( 'NONE',  #60 ) ;
#269 = MECHANICAL_DESIGN_GEOMETRIC_PRESENTATION_REPRESENTATION (  '', ( #1 ), #160 ) ;
#270 = FACE_OUTER_BOUND ( 'NONE', #87, .T. ) ;
#271 = ORIENTED_EDGE ( 'NONE', *, *, #210, .T. ) ;
#272 = ORIENTED_EDGE ( 'NONE', *, *, #364, .T. ) ;
#273 = EDGE_CURVE ( 'NONE', #279, #138, #101, .T. ) ;
#274 = UNCERTAINTY_MEASURE_WITH_UNIT (LENGTH_MEASURE( 1.000000000000000082E-05 ), #172, 'distance_accuracy_value', 'NONE');
#275 = EDGE_LOOP ( 'NONE', ( #62, #54, #271, #304 ) ) ;
#276 = PRESENTATION_STYLE_ASSIGNMENT (( #153 ) ) ;
#277 =( NAMED_UNIT ( * ) PLANE_ANGLE_UNIT ( ) SI_UNIT ( $, .RADIAN. ) );
#278 = CARTESIAN_POINT ( 'NONE',  ( 0.000000000000000000, 0.1250000000000000278, 0.000000000000000000 ) ) ;
#279 = VERTEX_POINT ( 'NONE', #361 ) ;
#280 = PRODUCT_CONTEXT ( 'NONE', #81, 'mechanical' ) ;
#281 = DIRECTION ( 'NONE',  ( -0.000000000000000000, -1.000000000000000000, -0.000000000000000000 ) ) ;
#282 = AXIS2_PLACEMENT_3D ( 'NONE', #265, #371, #116 ) ;
#283 = CIRCLE ( 'NONE', #259, 0.1249999999999999445 ) ;
#284 = CARTESIAN_POINT ( 'NONE',  ( -7.654042494670957545E-18, 0.000000000000000000, 0.000000000000000000 ) ) ;
#285 = CLOSED_SHELL ( 'NONE', ( #143, #79, #115, #186, #78 ) ) ;
#286 = DIMENSIONAL_EXPONENTS ( 1.000000000000000000, 0.000000000000000000, 0.000000000000000000, 0.000000000000000000, 0.000000000000000000, 0.000000000000000000, 0.000000000000000000 ) ;
#287 = DIRECTION ( 'NONE',  ( 1.000000000000000000, 0.000000000000000000, 0.000000000000000000 ) ) ;
#288 = EDGE_LOOP ( 'NONE', ( #237, #64, #203, #25, #37 ) ) ;
#289 = PRESENTATION_LAYER_ASSIGNMENT (  '', '', ( #1 ) ) ;
#290 = SURFACE_SIDE_STYLE ('',( #201 ) ) ;
#291 =( NAMED_UNIT ( * ) SI_UNIT ( $, .STERADIAN. ) SOLID_ANGLE_UNIT ( ) );
#292 = PRESENTATION_STYLE_ASSIGNMENT (( #316 ) ) ;
#293 = EDGE_CURVE ( 'NONE', #138, #331, #15, .T. ) ;
#294 = LENGTH_MEASURE_WITH_UNIT ( LENGTH_MEASURE( 0.02539999999999999897 ), #370 );
#295 = DIRECTION ( 'NONE',  ( 1.224646799147353207E-16, -0.000000000000000000, 1.000000000000000000 ) ) ;
#296 = PRODUCT ( '49075', '49075', '', ( #280 ) ) ;
#297 =( GEOMETRIC_REPRESENTATION_CONTEXT ( 3 ) GLOBAL_UNCERTAINTY_ASSIGNED_CONTEXT ( ( #209 ) ) GLOBAL_UNIT_ASSIGNED_CONTEXT ( ( #72, #14, #253 ) ) REPRESENTATION_CONTEXT ( 'NONE', 'WORKASPACE' ) );
#298 = VECTOR ( 'NONE', #281, 39.37007874015748143 ) ;
#299 = FACE_OUTER_BOUND ( 'NONE', #9, .T. ) ;
#300 = EDGE_LOOP ( 'NONE', ( #152, #4, #90, #180 ) ) ;
#301 =( LENGTH_UNIT ( ) NAMED_UNIT ( * ) SI_UNIT ( $, .METRE. ) );
#302 = VERTEX_POINT ( 'NONE', #132 ) ;
#303 = CYLINDRICAL_SURFACE ( 'NONE', #357, 0.1249999999999997224 ) ;
#304 = ORIENTED_EDGE ( 'NONE', *, *, #240, .T. ) ;
#305 = EDGE_CURVE ( 'NONE', #128, #148, #341, .T. ) ;
#306 = CARTESIAN_POINT ( 'NONE',  ( 0.1250000000000000000, 0.1250000000000000278, 0.000000000000000000 ) ) ;
#307 = FILL_AREA_STYLE ('',( #260 ) ) ;
#308 = MECHANICAL_DESIGN_GEOMETRIC_PRESENTATION_REPRESENTATION (  '', ( #312 ), #84 ) ;
#309 = MECHANICAL_DESIGN_GEOMETRIC_PRESENTATION_REPRESENTATION (  '', ( #356 ), #297 ) ;
#310 = COLOUR_RGB ( '',0.7921568627450980005, 0.8196078431372548767, 0.9333333333333333481 ) ;
#311 = DIRECTION ( 'NONE',  ( -0.000000000000000000, -1.000000000000000000, -0.000000000000000000 ) ) ;
#312 = STYLED_ITEM ( 'NONE', ( #358 ), #314 ) ;
#313 = CARTESIAN_POINT ( 'NONE',  ( 1.224646799147353700E-16, 2.000000000000000000, 0.000000000000000000 ) ) ;
#314 = MANIFOLD_SOLID_BREP ( 'Revolve - Cutting Edge', #285 ) ;
#315 = COLOUR_RGB ( '',1.000000000000000000, 0.000000000000000000, 0.000000000000000000 ) ;
#316 = SURFACE_STYLE_USAGE ( .BOTH. , #202 ) ;
#317 = SURFACE_STYLE_FILL_AREA ( #27 ) ;
#318 = VECTOR ( 'NONE', #58, 39.37007874015748143 ) ;
#319 = PRODUCT_DEFINITION ( 'UNKNOWN', '', #32, #350 ) ;
#320 = DIRECTION ( 'NONE',  ( 0.000000000000000000, 0.000000000000000000, -1.000000000000000000 ) ) ;
#321 = CARTESIAN_POINT ( 'NONE',  ( 0.000000000000000000, 0.3749999999999999445, -0.1249999999999999445 ) ) ;
#322 = MECHANICAL_DESIGN_GEOMETRIC_PRESENTATION_REPRESENTATION (  '', ( #352 ), #75 ) ;
#323 = VERTEX_POINT ( 'NONE', #284 ) ;
#324 = LINE ( 'NONE', #264, #105 ) ;
#325 = CYLINDRICAL_SURFACE ( 'NONE', #191, 0.1249999999999999584 ) ;
#326 = ORIENTED_EDGE ( 'NONE', *, *, #183, .F. ) ;
#327 = LENGTH_MEASURE_WITH_UNIT ( LENGTH_MEASURE( 0.02539999999999999897 ), #151 );
#328 = ORIENTED_EDGE ( 'NONE', *, *, #293, .T. ) ;
#329 = UNCERTAINTY_MEASURE_WITH_UNIT (LENGTH_MEASURE( 1.000000000000000082E-05 ), #177, 'distance_accuracy_value', 'NONE');
#330 = CARTESIAN_POINT ( 'NONE',  ( 0.1249999999999999445, 2.000000000000000000, 0.000000000000000000 ) ) ;
#331 = VERTEX_POINT ( 'NONE', #106 ) ;
#332 = MECHANICAL_DESIGN_GEOMETRIC_PRESENTATION_REPRESENTATION (  '', ( #117 ), #97 ) ;
#333 = CARTESIAN_POINT ( 'NONE',  ( -1.530808498934191509E-17, 0.1250000000000000000, 0.000000000000000000 ) ) ;
#334 = LENGTH_MEASURE_WITH_UNIT ( LENGTH_MEASURE( 0.02539999999999999897 ), #194 );
#335 = FILL_AREA_STYLE ('',( #67 ) ) ;
#336 = CARTESIAN_POINT ( 'NONE',  ( 0.1249999999999998473, 2.000000000000000000, 1.530808498934188119E-17 ) ) ;
#337 = AXIS2_PLACEMENT_3D ( 'NONE', #257, #262, #222 ) ;
#338 = DIRECTION ( 'NONE',  ( 0.000000000000000000, 0.000000000000000000, 1.000000000000000000 ) ) ;
#339 = CARTESIAN_POINT ( 'NONE',  ( 0.1249999999999999445, 0.3749999999999999445, 1.530808498934188736E-17 ) ) ;
#340 = COLOUR_RGB ( '',1.000000000000000000, 0.000000000000000000, 0.000000000000000000 ) ;
#341 = CIRCLE ( 'NONE', #224, 0.1249999999999998335 ) ;
#342 = FACE_OUTER_BOUND ( 'NONE', #300, .T. ) ;
#343 = CARTESIAN_POINT ( 'NONE',  ( 3.202894195553161790E-16, 0.3749999999999999445, 0.000000000000000000 ) ) ;
#344 = COLOUR_RGB ( '',1.000000000000000000, 0.000000000000000000, 0.000000000000000000 ) ;
#345 = DIRECTION ( 'NONE',  ( -1.000000000000000000, 0.000000000000000000, 0.000000000000000000 ) ) ;
#346 = DIRECTION ( 'NONE',  ( -1.000000000000000000, 0.000000000000000000, 0.000000000000000000 ) ) ;
#347 = SURFACE_SIDE_STYLE ('',( #211 ) ) ;
#348 = PRESENTATION_STYLE_ASSIGNMENT (( #142 ) ) ;
#349 = ORIENTED_EDGE ( 'NONE', *, *, #305, .F. ) ;
#350 = PRODUCT_DEFINITION_CONTEXT ( 'detailed design', #96, 'design' ) ;
#351 = CARTESIAN_POINT ( 'NONE',  ( 0.1249999999999999445, 2.000000000000000000, 1.530808498934188736E-17 ) ) ;
#352 = STYLED_ITEM ( 'NONE', ( #3 ), #115 ) ;
#353 = ORIENTED_EDGE ( 'NONE', *, *, #205, .T. ) ;
#354 = DIRECTION ( 'NONE',  ( 0.000000000000000000, 0.000000000000000000, -1.000000000000000000 ) ) ;
#355 = DIMENSIONAL_EXPONENTS ( 1.000000000000000000, 0.000000000000000000, 0.000000000000000000, 0.000000000000000000, 0.000000000000000000, 0.000000000000000000, 0.000000000000000000 ) ;
#356 = STYLED_ITEM ( 'NONE', ( #348 ), #79 ) ;
#357 = AXIS2_PLACEMENT_3D ( 'NONE', #221, #156, #43 ) ;
#358 = PRESENTATION_STYLE_ASSIGNMENT (( #13 ) ) ;
#359 = DIRECTION ( 'NONE',  ( -1.217383013172805092E-16, 1.000000000000000000, -0.000000000000000000 ) ) ;
#360 = COLOUR_RGB ( '',1.000000000000000000, 0.000000000000000000, 0.000000000000000000 ) ;
#361 = CARTESIAN_POINT ( 'NONE',  ( 1.530808498934190893E-17, 0.3749999999999999445, 0.1249999999999999445 ) ) ;
#362 = PRESENTATION_LAYER_ASSIGNMENT (  '', '', ( #312 ) ) ;
#363 = CARTESIAN_POINT ( 'NONE',  ( 3.202894195553161790E-16, 0.3749999999999999445, 0.000000000000000000 ) ) ;
#364 = EDGE_CURVE ( 'NONE', #123, #148, #77, .T. ) ;
#365 = SURFACE_SIDE_STYLE ('',( #31 ) ) ;
#366 = FILL_AREA_STYLE_COLOUR ( '', #344 ) ;
#367 = DIMENSIONAL_EXPONENTS ( 1.000000000000000000, 0.000000000000000000, 0.000000000000000000, 0.000000000000000000, 0.000000000000000000, 0.000000000000000000, 0.000000000000000000 ) ;
#368 = CARTESIAN_POINT ( 'NONE',  ( -0.1249999999999997086, 2.000000000000000000, 0.000000000000000000 ) ) ;
#369 =( CONVERSION_BASED_UNIT ( 'INCH', #144 ) LENGTH_UNIT ( ) NAMED_UNIT ( #198 ) );
#370 =( LENGTH_UNIT ( ) NAMED_UNIT ( * ) SI_UNIT ( $, .METRE. ) );
#371 = DIRECTION ( 'NONE',  ( -1.217383013172805092E-16, 1.000000000000000000, 0.000000000000000000 ) ) ;
#372 = DIRECTION ( 'NONE',  ( 0.000000000000000000, 0.000000000000000000, -1.000000000000000000 ) ) ;
#373 = SURFACE_STYLE_USAGE ( .BOTH. , #233 ) ;
ENDSEC;
END-ISO-10303-21;
