ISO-10303-21;
HEADER;
FILE_DESCRIPTION (( 'STEP AP214' ),
    '1' );
FILE_NAME ('Micro_GEM-375-3X.STEP',
    '2021-09-01T20:38:24',
    ( '' ),
    ( '' ),
    'SwSTEP 2.0',
    'SolidWorks 2020',
    '' );
FILE_SCHEMA (( 'AUTOMOTIVE_DESIGN' ));
ENDSEC;

DATA;
#1 = CARTESIAN_POINT ( 'NONE',  ( 1.071565949253934025E-16, 0.0000000000000000000, 0.8750000000000000000 ) ) ;
#2 = FACE_OUTER_BOUND ( 'NONE', #74, .T. ) ;
#3 = MANIFOLD_SOLID_BREP ( 'Cut-Revolve1', #89 ) ;
#4 = AXIS2_PLACEMENT_3D ( 'NONE', #1, #25, #30 ) ;
#5 =( GEOMETRIC_REPRESENTATION_CONTEXT ( 3 ) GLOBAL_UNCERTAINTY_ASSIGNED_CONTEXT ( ( #275 ) ) GLOBAL_UNIT_ASSIGNED_CONTEXT ( ( #223, #260, #176 ) ) REPRESENTATION_CONTEXT ( 'NONE', 'WORKASPACE' ) );
#6 = CARTESIAN_POINT ( 'NONE',  ( 0.1724999999999995981, 2.112515728529179297E-17, 2.500000000000000000 ) ) ;
#7 = LINE ( 'NONE', #204, #229 ) ;
#8 = PRODUCT ( 'Micro_GEM-375-3X', 'Micro_GEM-375-3X', '', ( #138 ) ) ;
#9 = VECTOR ( 'NONE', #225, 39.37007874015748854 ) ;
#10 = EDGE_LOOP ( 'NONE', ( #46, #224, #105, #205 ) ) ;
#11 = DIRECTION ( 'NONE',  ( -1.000000000000000000, 0.0000000000000000000, 1.224646799147352961E-16 ) ) ;
#12 = PRODUCT_DEFINITION_FORMATION_WITH_SPECIFIED_SOURCE ( 'ANY', '', #8, .NOT_KNOWN. ) ;
#13 = ORIENTED_EDGE ( 'NONE', *, *, #42, .F. ) ;
#14 = CARTESIAN_POINT ( 'NONE',  ( 0.0000000000000000000, 0.0000000000000000000, 2.484999999999999432 ) ) ;
#15 = APPLICATION_PROTOCOL_DEFINITION ( 'draft international standard', 'automotive_design', 1998, #51 ) ;
#16 = ORIENTED_EDGE ( 'NONE', *, *, #218, .T. ) ;
#17 = DIRECTION ( 'NONE',  ( 0.0000000000000000000, 0.0000000000000000000, -1.000000000000000000 ) ) ;
#18 = CIRCLE ( 'NONE', #59, 0.1873125000000000207 ) ;
#19 = CONICAL_SURFACE ( 'NONE', #102, 0.1724999999999995981, 0.7853981633974357335 ) ;
#20 = EDGE_CURVE ( 'NONE', #85, #231, #166, .T. ) ;
#21 = VERTEX_POINT ( 'NONE', #255 ) ;
#22 = EDGE_LOOP ( 'NONE', ( #299, #278, #44, #294 ) ) ;
#23 = AXIS2_PLACEMENT_3D ( 'NONE', #34, #93, #123 ) ;
#24 = PRESENTATION_STYLE_ASSIGNMENT (( #209 ) ) ;
#25 = DIRECTION ( 'NONE',  ( 1.224646799147353207E-16, 0.0000000000000000000, 1.000000000000000000 ) ) ;
#26 = CARTESIAN_POINT ( 'NONE',  ( 0.1724999999999995981, 2.204364238465233357E-17, 2.500000000000000000 ) ) ;
#27 = AXIS2_PLACEMENT_3D ( 'NONE', #189, #68, #90 ) ;
#28 = ADVANCED_FACE ( 'NONE', ( #49 ), #111, .T. ) ;
#29 = DIRECTION ( 'NONE',  ( 0.0000000000000000000, 0.0000000000000000000, 1.000000000000000000 ) ) ;
#30 = DIRECTION ( 'NONE',  ( 1.000000000000000000, 0.0000000000000000000, 0.0000000000000000000 ) ) ;
#31 = ADVANCED_FACE ( 'NONE', ( #254 ), #216, .T. ) ;
#32 = AXIS2_PLACEMENT_3D ( 'NONE', #14, #247, #239 ) ;
#33 = DIRECTION ( 'NONE',  ( 0.0000000000000000000, 0.0000000000000000000, 1.000000000000000000 ) ) ;
#34 = CARTESIAN_POINT ( 'NONE',  ( 0.0000000000000000000, 0.0000000000000000000, 2.500000000000000000 ) ) ;
#35 = ORIENTED_EDGE ( 'NONE', *, *, #228, .T. ) ;
#36 = DIRECTION ( 'NONE',  ( -0.0000000000000000000, -0.0000000000000000000, -1.000000000000000000 ) ) ;
#37 = CARTESIAN_POINT ( 'NONE',  ( 1.072868196215332272E-16, 0.0000000000000000000, 0.8760633653411783461 ) ) ;
#38 = VERTEX_POINT ( 'NONE', #110 ) ;
#39 = DIRECTION ( 'NONE',  ( -1.224646799147353207E-16, -0.0000000000000000000, -1.000000000000000000 ) ) ;
#40 = ORIENTED_EDGE ( 'NONE', *, *, #277, .T. ) ;
#41 = CYLINDRICAL_SURFACE ( 'NONE', #279, 0.1873124999999999929 ) ;
#42 = EDGE_CURVE ( 'NONE', #120, #231, #133, .T. ) ;
#43 =( CONVERSION_BASED_UNIT ( 'INCH', #108 ) LENGTH_UNIT ( ) NAMED_UNIT ( #203 ) );
#44 = ORIENTED_EDGE ( 'NONE', *, *, #170, .F. ) ;
#45 = PRODUCT_DEFINITION_CONTEXT ( 'detailed design', #51, 'design' ) ;
#46 = ORIENTED_EDGE ( 'NONE', *, *, #285, .T. ) ;
#47 = VECTOR ( 'NONE', #292, 39.37007874015748143 ) ;
#48 = DIRECTION ( 'NONE',  ( 1.000000000000000000, 0.0000000000000000000, -0.0000000000000000000 ) ) ;
#49 = FACE_OUTER_BOUND ( 'NONE', #154, .T. ) ;
#50 = CARTESIAN_POINT ( 'NONE',  ( 0.0000000000000000000, 0.0000000000000000000, 2.500000000000000000 ) ) ;
#51 = APPLICATION_CONTEXT ( 'automotive_design' ) ;
#52 = DIRECTION ( 'NONE',  ( -1.000000000000000000, 0.0000000000000000000, 1.224646799147352961E-16 ) ) ;
#53 = PRESENTATION_STYLE_ASSIGNMENT (( #144 ) ) ;
#54 = DIRECTION ( 'NONE',  ( 0.0000000000000000000, 0.0000000000000000000, -1.000000000000000000 ) ) ;
#55 = ORIENTED_EDGE ( 'NONE', *, *, #298, .F. ) ;
#56 = DIRECTION ( 'NONE',  ( -1.000000000000000000, 0.0000000000000000000, 0.0000000000000000000 ) ) ;
#57 = SURFACE_STYLE_FILL_AREA ( #167 ) ;
#58 = DIRECTION ( 'NONE',  ( 0.0000000000000000000, 0.0000000000000000000, 1.000000000000000000 ) ) ;
#59 = AXIS2_PLACEMENT_3D ( 'NONE', #60, #96, #271 ) ;
#60 = CARTESIAN_POINT ( 'NONE',  ( 1.071565949253934025E-16, 0.0000000000000000000, 0.8750000000000000000 ) ) ;
#61 = ORIENTED_EDGE ( 'NONE', *, *, #283, .T. ) ;
#62 = PRODUCT_RELATED_PRODUCT_CATEGORY ( 'part', '', ( #8 ) ) ;
#63 = DIRECTION ( 'NONE',  ( -1.224646799147353207E-16, -0.0000000000000000000, -1.000000000000000000 ) ) ;
#64 =( GEOMETRIC_REPRESENTATION_CONTEXT ( 3 ) GLOBAL_UNCERTAINTY_ASSIGNED_CONTEXT ( ( #155 ) ) GLOBAL_UNIT_ASSIGNED_CONTEXT ( ( #238, #258, #286 ) ) REPRESENTATION_CONTEXT ( 'NONE', 'WORKASPACE' ) );
#65 = FILL_AREA_STYLE_COLOUR ( '', #92 ) ;
#66 = DIRECTION ( 'NONE',  ( -0.0000000000000000000, -0.0000000000000000000, -1.000000000000000000 ) ) ;
#67 = PLANE ( 'NONE',  #130 ) ;
#68 = DIRECTION ( 'NONE',  ( -1.224646799147353207E-16, -0.0000000000000000000, -1.000000000000000000 ) ) ;
#69 = AXIS2_PLACEMENT_3D ( 'NONE', #169, #101, #263 ) ;
#70 = CARTESIAN_POINT ( 'NONE',  ( -0.1873124999999999096, 2.293916535652885904E-17, 0.8750000000000000000 ) ) ;
#71 = AXIS2_PLACEMENT_3D ( 'NONE', #160, #66, #233 ) ;
#72 = AXIS2_PLACEMENT_3D ( 'NONE', #173, #196, #265 ) ;
#73 = FACE_OUTER_BOUND ( 'NONE', #148, .T. ) ;
#74 = EDGE_LOOP ( 'NONE', ( #13, #16, #40, #188 ) ) ;
#75 = DIRECTION ( 'NONE',  ( 1.000000000000000000, 0.0000000000000000000, 0.0000000000000000000 ) ) ;
#76 = CARTESIAN_POINT ( 'NONE',  ( 0.0000000000000000000, 0.0000000000000000000, 2.484999999999999432 ) ) ;
#77 = AXIS2_PLACEMENT_3D ( 'NONE', #151, #268, #11 ) ;
#78 = LENGTH_MEASURE_WITH_UNIT ( LENGTH_MEASURE( 0.02539999999999999897 ), #241 );
#79 = ORIENTED_EDGE ( 'NONE', *, *, #20, .F. ) ;
#80 = LINE ( 'NONE', #128, #215 ) ;
#81 = ORIENTED_EDGE ( 'NONE', *, *, #277, .F. ) ;
#82 = ORIENTED_EDGE ( 'NONE', *, *, #170, .T. ) ;
#83 = UNCERTAINTY_MEASURE_WITH_UNIT (LENGTH_MEASURE( 1.000000000000000082E-05 ), #43, 'distance_accuracy_value', 'NONE');
#84 = STYLED_ITEM ( 'NONE', ( #53 ), #113 ) ;
#85 = VERTEX_POINT ( 'NONE', #190 ) ;
#86 =( NAMED_UNIT ( * ) PLANE_ANGLE_UNIT ( ) SI_UNIT ( $, .RADIAN. ) );
#87 = ADVANCED_FACE ( 'NONE', ( #112 ), #213, .T. ) ;
#88 = DIRECTION ( 'NONE',  ( -0.0000000000000000000, -0.0000000000000000000, -1.000000000000000000 ) ) ;
#89 = CLOSED_SHELL ( 'NONE', ( #175, #273, #180, #109, #106, #31, #259, #87, #28, #114 ) ) ;
#90 = DIRECTION ( 'NONE',  ( 1.000000000000000000, 0.0000000000000000000, 0.0000000000000000000 ) ) ;
#91 = CYLINDRICAL_SURFACE ( 'NONE', #71, 0.1875000000000000278 ) ;
#92 = COLOUR_RGB ( '',0.7921568627450980005, 0.8196078431372548767, 0.9333333333333333481 ) ;
#93 = DIRECTION ( 'NONE',  ( 0.0000000000000000000, 0.0000000000000000000, 1.000000000000000000 ) ) ;
#94 = FACE_OUTER_BOUND ( 'NONE', #126, .T. ) ;
#95 = ORIENTED_EDGE ( 'NONE', *, *, #298, .T. ) ;
#96 = DIRECTION ( 'NONE',  ( -1.224646799147353207E-16, -0.0000000000000000000, -1.000000000000000000 ) ) ;
#97 = CARTESIAN_POINT ( 'NONE',  ( 0.0000000000000000000, 0.0000000000000000000, 0.0000000000000000000 ) ) ;
#98 = EDGE_LOOP ( 'NONE', ( #61, #152 ) ) ;
#99 = DIRECTION ( 'NONE',  ( 1.000000000000000000, 0.0000000000000000000, 0.0000000000000000000 ) ) ;
#100 = SHAPE_DEFINITION_REPRESENTATION ( #193, #113 ) ;
#101 = DIRECTION ( 'NONE',  ( 1.224646799147353207E-16, 0.0000000000000000000, 1.000000000000000000 ) ) ;
#102 = AXIS2_PLACEMENT_3D ( 'NONE', #227, #17, #56 ) ;
#103 = AXIS2_PLACEMENT_3D ( 'NONE', #37, #39, #121 ) ;
#104 =( NAMED_UNIT ( * ) SI_UNIT ( $, .STERADIAN. ) SOLID_ANGLE_UNIT ( ) );
#105 = ORIENTED_EDGE ( 'NONE', *, *, #163, .F. ) ;
#106 = ADVANCED_FACE ( 'NONE', ( #2 ), #191, .T. ) ;
#107 = CIRCLE ( 'NONE', #72, 0.1873125000000000207 ) ;
#108 = LENGTH_MEASURE_WITH_UNIT ( LENGTH_MEASURE( 0.02539999999999999897 ), #207 );
#109 = ADVANCED_FACE ( 'NONE', ( #162 ), #91, .T. ) ;
#110 = CARTESIAN_POINT ( 'NONE',  ( -0.1873124999999999096, 2.295064642027087123E-17, 0.8750000000000000000 ) ) ;
#111 = CYLINDRICAL_SURFACE ( 'NONE', #135, 0.1873124999999999929 ) ;
#112 = FACE_OUTER_BOUND ( 'NONE', #172, .T. ) ;
#113 = ADVANCED_BREP_SHAPE_REPRESENTATION ( 'Micro_GEM-375-3X', ( #3, #194 ), #5 ) ;
#114 = ADVANCED_FACE ( 'NONE', ( #237 ), #67, .F. ) ;
#115 = CARTESIAN_POINT ( 'NONE',  ( 2.809237542898491532E-33, 0.0000000000000000000, 2.293916535652885596E-17 ) ) ;
#116 = ORIENTED_EDGE ( 'NONE', *, *, #285, .F. ) ;
#117 = CARTESIAN_POINT ( 'NONE',  ( 0.1875000000000000833, 2.296212748401288650E-17, 0.8760633653411783461 ) ) ;
#118 = ORIENTED_EDGE ( 'NONE', *, *, #218, .F. ) ;
#119 = DIRECTION ( 'NONE',  ( -0.1736481776669311916, 2.126576849575783316E-17, 0.9848077530122080203 ) ) ;
#120 = VERTEX_POINT ( 'NONE', #282 ) ;
#121 = DIRECTION ( 'NONE',  ( 1.000000000000000000, 0.0000000000000000000, 0.0000000000000000000 ) ) ;
#122 = ORIENTED_EDGE ( 'NONE', *, *, #291, .T. ) ;
#123 = DIRECTION ( 'NONE',  ( 1.000000000000000000, 0.0000000000000000000, 0.0000000000000000000 ) ) ;
#124 = EDGE_LOOP ( 'NONE', ( #82, #140, #79, #81 ) ) ;
#125 =( GEOMETRIC_REPRESENTATION_CONTEXT ( 3 ) GLOBAL_UNCERTAINTY_ASSIGNED_CONTEXT ( ( #83 ) ) GLOBAL_UNIT_ASSIGNED_CONTEXT ( ( #43, #86, #104 ) ) REPRESENTATION_CONTEXT ( 'NONE', 'WORKASPACE' ) );
#126 = EDGE_LOOP ( 'NONE', ( #289, #181, #168, #118 ) ) ;
#127 = VERTEX_POINT ( 'NONE', #26 ) ;
#128 = CARTESIAN_POINT ( 'NONE',  ( -0.1873124999999999929, 0.0000000000000000000, 2.293916535652885596E-17 ) ) ;
#129 = ORIENTED_EDGE ( 'NONE', *, *, #153, .F. ) ;
#130 = AXIS2_PLACEMENT_3D ( 'NONE', #236, #211, #159 ) ;
#131 = EDGE_CURVE ( 'NONE', #21, #231, #214, .T. ) ;
#132 = CIRCLE ( 'NONE', #243, 0.1724999999999995981 ) ;
#133 = LINE ( 'NONE', #256, #146 ) ;
#134 = DIRECTION ( 'NONE',  ( -1.224646799147353207E-16, -0.0000000000000000000, -1.000000000000000000 ) ) ;
#135 = AXIS2_PLACEMENT_3D ( 'NONE', #192, #134, #280 ) ;
#136 = AXIS2_PLACEMENT_3D ( 'NONE', #197, #288, #149 ) ;
#137 = DIRECTION ( 'NONE',  ( -0.0000000000000000000, -0.0000000000000000000, -1.000000000000000000 ) ) ;
#138 = PRODUCT_CONTEXT ( 'NONE', #161, 'mechanical' ) ;
#139 = CIRCLE ( 'NONE', #23, 0.1724999999999995981 ) ;
#140 = ORIENTED_EDGE ( 'NONE', *, *, #42, .T. ) ;
#141 = CARTESIAN_POINT ( 'NONE',  ( -0.1724999999999995981, 0.0000000000000000000, 2.500000000000000000 ) ) ;
#142 = DIRECTION ( 'NONE',  ( 1.000000000000000000, 0.0000000000000000000, 0.0000000000000000000 ) ) ;
#143 = CARTESIAN_POINT ( 'NONE',  ( -0.1875000000000000278, 0.0000000000000000000, 2.500000000000000000 ) ) ;
#144 = SURFACE_STYLE_USAGE ( .BOTH. , #171 ) ;
#145 = LINE ( 'NONE', #70, #248 ) ;
#146 = VECTOR ( 'NONE', #88, 39.37007874015748143 ) ;
#147 = EDGE_CURVE ( 'NONE', #127, #120, #178, .T. ) ;
#148 = EDGE_LOOP ( 'NONE', ( #116, #195, #270, #251 ) ) ;
#149 = DIRECTION ( 'NONE',  ( -1.000000000000000000, 0.0000000000000000000, 0.0000000000000000000 ) ) ;
#150 = VERTEX_POINT ( 'NONE', #183 ) ;
#151 = CARTESIAN_POINT ( 'NONE',  ( 2.809237542898491532E-33, 0.0000000000000000000, 2.293916535652885596E-17 ) ) ;
#152 = ORIENTED_EDGE ( 'NONE', *, *, #210, .T. ) ;
#153 = EDGE_CURVE ( 'NONE', #38, #85, #145, .T. ) ;
#154 = EDGE_LOOP ( 'NONE', ( #230, #35, #201, #55 ) ) ;
#155 = UNCERTAINTY_MEASURE_WITH_UNIT (LENGTH_MEASURE( 1.000000000000000082E-05 ), #238, 'distance_accuracy_value', 'NONE');
#156 = MECHANICAL_DESIGN_GEOMETRIC_PRESENTATION_REPRESENTATION (  '', ( #295 ), #125 ) ;
#157 = FILL_AREA_STYLE ('',( #65 ) ) ;
#158 = EDGE_CURVE ( 'NONE', #274, #261, #290, .T. ) ;
#159 = DIRECTION ( 'NONE',  ( 1.000000000000000000, 0.0000000000000000000, -0.0000000000000000000 ) ) ;
#160 = CARTESIAN_POINT ( 'NONE',  ( 0.0000000000000000000, 0.0000000000000000000, 2.500000000000000000 ) ) ;
#161 = APPLICATION_CONTEXT ( 'automotive_design' ) ;
#162 = FACE_OUTER_BOUND ( 'NONE', #124, .T. ) ;
#163 = EDGE_CURVE ( 'NONE', #150, #246, #187, .T. ) ;
#164 = FACE_OUTER_BOUND ( 'NONE', #10, .T. ) ;
#165 = AXIS2_PLACEMENT_3D ( 'NONE', #76, #54, #99 ) ;
#166 = CIRCLE ( 'NONE', #27, 0.1875000000000000278 ) ;
#167 = FILL_AREA_STYLE ('',( #266 ) ) ;
#168 = ORIENTED_EDGE ( 'NONE', *, *, #158, .T. ) ;
#169 = CARTESIAN_POINT ( 'NONE',  ( 1.071565949253934025E-16, 0.0000000000000000000, 0.8750000000000000000 ) ) ;
#170 = EDGE_CURVE ( 'NONE', #261, #120, #252, .T. ) ;
#171 = SURFACE_SIDE_STYLE ('',( #57 ) ) ;
#172 = EDGE_LOOP ( 'NONE', ( #129, #267, #177, #122 ) ) ;
#173 = CARTESIAN_POINT ( 'NONE',  ( 1.071565949253934025E-16, 0.0000000000000000000, 0.8750000000000000000 ) ) ;
#174 = DIMENSIONAL_EXPONENTS ( 1.000000000000000000, 0.0000000000000000000, 0.0000000000000000000, 0.0000000000000000000, 0.0000000000000000000, 0.0000000000000000000, 0.0000000000000000000 ) ;
#175 = ADVANCED_FACE ( 'NONE', ( #164 ), #41, .T. ) ;
#176 =( NAMED_UNIT ( * ) SI_UNIT ( $, .STERADIAN. ) SOLID_ANGLE_UNIT ( ) );
#177 = ORIENTED_EDGE ( 'NONE', *, *, #131, .T. ) ;
#178 = LINE ( 'NONE', #6, #217 ) ;
#179 = AXIS2_PLACEMENT_3D ( 'NONE', #50, #137, #234 ) ;
#180 = ADVANCED_FACE ( 'NONE', ( #222 ), #19, .T. ) ;
#181 = ORIENTED_EDGE ( 'NONE', *, *, #283, .F. ) ;
#182 = COLOUR_RGB ( '',0.7921568627450980005, 0.8196078431372548767, 0.9333333333333333481 ) ;
#183 = CARTESIAN_POINT ( 'NONE',  ( -0.1873124999999999929, 0.0000000000000000000, 4.587833071305771192E-17 ) ) ;
#184 = ORIENTED_EDGE ( 'NONE', *, *, #163, .T. ) ;
#185 = SURFACE_STYLE_FILL_AREA ( #157 ) ;
#186 = DIMENSIONAL_EXPONENTS ( 1.000000000000000000, 0.0000000000000000000, 0.0000000000000000000, 0.0000000000000000000, 0.0000000000000000000, 0.0000000000000000000, 0.0000000000000000000 ) ;
#187 = CIRCLE ( 'NONE', #77, 0.1873124999999999929 ) ;
#188 = ORIENTED_EDGE ( 'NONE', *, *, #291, .F. ) ;
#189 = CARTESIAN_POINT ( 'NONE',  ( 1.072868196215332272E-16, 0.0000000000000000000, 0.8760633653411783461 ) ) ;
#190 = CARTESIAN_POINT ( 'NONE',  ( -0.1874999999999999167, 0.0000000000000000000, 0.8760633653411783461 ) ) ;
#191 = CYLINDRICAL_SURFACE ( 'NONE', #179, 0.1875000000000000278 ) ;
#192 = CARTESIAN_POINT ( 'NONE',  ( 0.0000000000000000000, 0.0000000000000000000, 0.0000000000000000000 ) ) ;
#193 = PRODUCT_DEFINITION_SHAPE ( 'NONE', 'NONE',  #249 ) ;
#194 = AXIS2_PLACEMENT_3D ( 'NONE', #97, #33, #142 ) ;
#195 = ORIENTED_EDGE ( 'NONE', *, *, #153, .T. ) ;
#196 = DIRECTION ( 'NONE',  ( -1.224646799147353207E-16, -0.0000000000000000000, -1.000000000000000000 ) ) ;
#197 = CARTESIAN_POINT ( 'NONE',  ( 0.0000000000000000000, 0.0000000000000000000, 2.500000000000000000 ) ) ;
#198 = APPLICATION_PROTOCOL_DEFINITION ( 'draft international standard', 'automotive_design', 1998, #161 ) ;
#199 = DIRECTION ( 'NONE',  ( 0.7071067811865385799, 8.659560562354823157E-17, -0.7071067811865563435 ) ) ;
#200 = DIRECTION ( 'NONE',  ( -1.224646799147353207E-16, -0.0000000000000000000, -1.000000000000000000 ) ) ;
#201 = ORIENTED_EDGE ( 'NONE', *, *, #293, .T. ) ;
#202 = CARTESIAN_POINT ( 'NONE',  ( 0.1873124999999999929, 2.293916535652885596E-17, 0.0000000000000000000 ) ) ;
#203 = DIMENSIONAL_EXPONENTS ( 1.000000000000000000, 0.0000000000000000000, 0.0000000000000000000, 0.0000000000000000000, 0.0000000000000000000, 0.0000000000000000000, 0.0000000000000000000 ) ;
#204 = CARTESIAN_POINT ( 'NONE',  ( 0.1873124999999999929, 2.293916535652885596E-17, -2.293916535652885596E-17 ) ) ;
#205 = ORIENTED_EDGE ( 'NONE', *, *, #293, .F. ) ;
#206 = CONICAL_SURFACE ( 'NONE', #69, 0.1873125000000000207, 0.1745329251994338915 ) ;
#207 =( LENGTH_UNIT ( ) NAMED_UNIT ( * ) SI_UNIT ( $, .METRE. ) );
#208 = CIRCLE ( 'NONE', #103, 0.1875000000000000278 ) ;
#209 = SURFACE_STYLE_USAGE ( .BOTH. , #253 ) ;
#210 = EDGE_CURVE ( 'NONE', #127, #274, #139, .T. ) ;
#211 = DIRECTION ( 'NONE',  ( 0.0000000000000000000, 0.0000000000000000000, 1.000000000000000000 ) ) ;
#212 = CIRCLE ( 'NONE', #165, 0.1875000000000000278 ) ;
#213 = CONICAL_SURFACE ( 'NONE', #4, 0.1873125000000000207, 0.1745329251994338915 ) ;
#214 = LINE ( 'NONE', #226, #47 ) ;
#215 = VECTOR ( 'NONE', #276, 39.37007874015748143 ) ;
#216 = PLANE ( 'NONE',  #235 ) ;
#217 = VECTOR ( 'NONE', #199, 39.37007874015748854 ) ;
#218 = EDGE_CURVE ( 'NONE', #120, #261, #212, .T. ) ;
#219 = MECHANICAL_DESIGN_GEOMETRIC_PRESENTATION_REPRESENTATION (  '', ( #84 ), #64 ) ;
#220 = LENGTH_MEASURE_WITH_UNIT ( LENGTH_MEASURE( 0.02539999999999999897 ), #264 );
#221 = DIRECTION ( 'NONE',  ( -1.000000000000000000, 0.0000000000000000000, 1.224646799147352961E-16 ) ) ;
#222 = FACE_OUTER_BOUND ( 'NONE', #22, .T. ) ;
#223 =( CONVERSION_BASED_UNIT ( 'INCH', #220 ) LENGTH_UNIT ( ) NAMED_UNIT ( #174 ) );
#224 = ORIENTED_EDGE ( 'NONE', *, *, #244, .T. ) ;
#225 = DIRECTION ( 'NONE',  ( -0.7071067811865385799, 0.0000000000000000000, -0.7071067811865563435 ) ) ;
#226 = CARTESIAN_POINT ( 'NONE',  ( 0.1873125000000001317, 0.0000000000000000000, 0.8750000000000000000 ) ) ;
#227 = CARTESIAN_POINT ( 'NONE',  ( 0.0000000000000000000, 0.0000000000000000000, 2.500000000000000000 ) ) ;
#228 = EDGE_CURVE ( 'NONE', #21, #38, #18, .T. ) ;
#229 = VECTOR ( 'NONE', #63, 39.37007874015748143 ) ;
#230 = ORIENTED_EDGE ( 'NONE', *, *, #244, .F. ) ;
#231 = VERTEX_POINT ( 'NONE', #117 ) ;
#232 = VECTOR ( 'NONE', #36, 39.37007874015748143 ) ;
#233 = DIRECTION ( 'NONE',  ( -1.000000000000000000, 0.0000000000000000000, 0.0000000000000000000 ) ) ;
#234 = DIRECTION ( 'NONE',  ( -1.000000000000000000, 0.0000000000000000000, 0.0000000000000000000 ) ) ;
#235 = AXIS2_PLACEMENT_3D ( 'NONE', #281, #29, #48 ) ;
#236 = CARTESIAN_POINT ( 'NONE',  ( 0.0000000000000000000, 0.0000000000000000000, 0.0000000000000000000 ) ) ;
#237 = FACE_OUTER_BOUND ( 'NONE', #250, .T. ) ;
#238 =( CONVERSION_BASED_UNIT ( 'INCH', #78 ) LENGTH_UNIT ( ) NAMED_UNIT ( #186 ) );
#239 = DIRECTION ( 'NONE',  ( 1.000000000000000000, 0.0000000000000000000, 0.0000000000000000000 ) ) ;
#240 = CARTESIAN_POINT ( 'NONE',  ( 0.0000000000000000000, 0.0000000000000000000, 2.500000000000000000 ) ) ;
#241 =( LENGTH_UNIT ( ) NAMED_UNIT ( * ) SI_UNIT ( $, .METRE. ) );
#242 = CARTESIAN_POINT ( 'NONE',  ( -0.1875000000000000278, 0.0000000000000000000, 2.484999999999999432 ) ) ;
#243 = AXIS2_PLACEMENT_3D ( 'NONE', #240, #58, #75 ) ;
#244 = EDGE_CURVE ( 'NONE', #21, #246, #7, .T. ) ;
#245 = LINE ( 'NONE', #143, #232 ) ;
#246 = VERTEX_POINT ( 'NONE', #202 ) ;
#247 = DIRECTION ( 'NONE',  ( 0.0000000000000000000, 0.0000000000000000000, -1.000000000000000000 ) ) ;
#248 = VECTOR ( 'NONE', #119, 39.37007874015747433 ) ;
#249 = PRODUCT_DEFINITION ( 'UNKNOWN', '', #12, #45 ) ;
#250 = EDGE_LOOP ( 'NONE', ( #184, #95 ) ) ;
#251 = ORIENTED_EDGE ( 'NONE', *, *, #131, .F. ) ;
#252 = CIRCLE ( 'NONE', #32, 0.1875000000000000278 ) ;
#253 = SURFACE_SIDE_STYLE ('',( #185 ) ) ;
#254 = FACE_OUTER_BOUND ( 'NONE', #98, .T. ) ;
#255 = CARTESIAN_POINT ( 'NONE',  ( 0.1873125000000001317, 0.0000000000000000000, 0.8750000000000000000 ) ) ;
#256 = CARTESIAN_POINT ( 'NONE',  ( 0.1875000000000000278, 2.296212748401287726E-17, 2.500000000000000000 ) ) ;
#257 = CIRCLE ( 'NONE', #297, 0.1873124999999999929 ) ;
#258 =( NAMED_UNIT ( * ) PLANE_ANGLE_UNIT ( ) SI_UNIT ( $, .RADIAN. ) );
#259 = ADVANCED_FACE ( 'NONE', ( #94 ), #272, .T. ) ;
#260 =( NAMED_UNIT ( * ) PLANE_ANGLE_UNIT ( ) SI_UNIT ( $, .RADIAN. ) );
#261 = VERTEX_POINT ( 'NONE', #242 ) ;
#262 = CARTESIAN_POINT ( 'NONE',  ( 0.0000000000000000000, 0.0000000000000000000, 0.0000000000000000000 ) ) ;
#263 = DIRECTION ( 'NONE',  ( 1.000000000000000000, 0.0000000000000000000, 0.0000000000000000000 ) ) ;
#264 =( LENGTH_UNIT ( ) NAMED_UNIT ( * ) SI_UNIT ( $, .METRE. ) );
#265 = DIRECTION ( 'NONE',  ( -1.000000000000000000, 0.0000000000000000000, 0.0000000000000000000 ) ) ;
#266 = FILL_AREA_STYLE_COLOUR ( '', #182 ) ;
#267 = ORIENTED_EDGE ( 'NONE', *, *, #228, .F. ) ;
#268 = DIRECTION ( 'NONE',  ( -1.224646799147353207E-16, -0.0000000000000000000, -1.000000000000000000 ) ) ;
#269 = PRESENTATION_LAYER_ASSIGNMENT (  '', '', ( #295 ) ) ;
#270 = ORIENTED_EDGE ( 'NONE', *, *, #20, .T. ) ;
#271 = DIRECTION ( 'NONE',  ( -1.000000000000000000, 0.0000000000000000000, 0.0000000000000000000 ) ) ;
#272 = CONICAL_SURFACE ( 'NONE', #136, 0.1724999999999995981, 0.7853981633974357335 ) ;
#273 = ADVANCED_FACE ( 'NONE', ( #73 ), #206, .T. ) ;
#274 = VERTEX_POINT ( 'NONE', #296 ) ;
#275 = UNCERTAINTY_MEASURE_WITH_UNIT (LENGTH_MEASURE( 1.000000000000000082E-05 ), #223, 'distance_accuracy_value', 'NONE');
#276 = DIRECTION ( 'NONE',  ( -1.224646799147353207E-16, -0.0000000000000000000, -1.000000000000000000 ) ) ;
#277 = EDGE_CURVE ( 'NONE', #261, #85, #245, .T. ) ;
#278 = ORIENTED_EDGE ( 'NONE', *, *, #147, .T. ) ;
#279 = AXIS2_PLACEMENT_3D ( 'NONE', #262, #287, #221 ) ;
#280 = DIRECTION ( 'NONE',  ( -1.000000000000000000, 0.0000000000000000000, 1.224646799147352961E-16 ) ) ;
#281 = CARTESIAN_POINT ( 'NONE',  ( 0.0000000000000000000, 0.0000000000000000000, 2.500000000000000000 ) ) ;
#282 = CARTESIAN_POINT ( 'NONE',  ( 0.1875000000000000278, 2.296212748401287726E-17, 2.484999999999999432 ) ) ;
#283 = EDGE_CURVE ( 'NONE', #274, #127, #132, .T. ) ;
#284 = PRESENTATION_LAYER_ASSIGNMENT (  '', '', ( #84 ) ) ;
#285 = EDGE_CURVE ( 'NONE', #38, #21, #107, .T. ) ;
#286 =( NAMED_UNIT ( * ) SI_UNIT ( $, .STERADIAN. ) SOLID_ANGLE_UNIT ( ) );
#287 = DIRECTION ( 'NONE',  ( -1.224646799147353207E-16, -0.0000000000000000000, -1.000000000000000000 ) ) ;
#288 = DIRECTION ( 'NONE',  ( 0.0000000000000000000, 0.0000000000000000000, -1.000000000000000000 ) ) ;
#289 = ORIENTED_EDGE ( 'NONE', *, *, #147, .F. ) ;
#290 = LINE ( 'NONE', #141, #9 ) ;
#291 = EDGE_CURVE ( 'NONE', #231, #85, #208, .T. ) ;
#292 = DIRECTION ( 'NONE',  ( 0.1736481776669313859, 0.0000000000000000000, 0.9848077530122077983 ) ) ;
#293 = EDGE_CURVE ( 'NONE', #38, #150, #80, .T. ) ;
#294 = ORIENTED_EDGE ( 'NONE', *, *, #158, .F. ) ;
#295 = STYLED_ITEM ( 'NONE', ( #24 ), #3 ) ;
#296 = CARTESIAN_POINT ( 'NONE',  ( -0.1724999999999995981, 0.0000000000000000000, 2.500000000000000000 ) ) ;
#297 = AXIS2_PLACEMENT_3D ( 'NONE', #115, #200, #52 ) ;
#298 = EDGE_CURVE ( 'NONE', #246, #150, #257, .T. ) ;
#299 = ORIENTED_EDGE ( 'NONE', *, *, #210, .F. ) ;
ENDSEC;
END-ISO-10303-21;
