ISO-10303-21;
HEADER;
FILE_DESCRIPTION (( 'STEP AP214' ),
    '1' );
FILE_NAME ('Micro_DMM-040-490.STEP',
    '2021-09-02T16:18:46',
    ( '' ),
    ( '' ),
    'SwSTEP 2.0',
    'SolidWorks 2020',
    '' );
FILE_SCHEMA (( 'AUTOMOTIVE_DESIGN' ));
ENDSEC;

DATA;
#1 = CARTESIAN_POINT ( 'NONE',  ( 0.07869000000000006545, 0.0000000000000000000, 0.4330709999999999837 ) ) ;
#2 = CIRCLE ( 'NONE', #149, 0.07874000000000000443 ) ;
#3 = AXIS2_PLACEMENT_3D ( 'NONE', #181, #284, #274 ) ;
#4 = DIRECTION ( 'NONE',  ( -0.0000000000000000000, -0.0000000000000000000, -1.000000000000000000 ) ) ;
#5 = EDGE_CURVE ( 'NONE', #218, #66, #68, .T. ) ;
#6 = CARTESIAN_POINT ( 'NONE',  ( 0.07874000000000000443, 9.642868896486258509E-18, 1.968503999999999809 ) ) ;
#7 = VECTOR ( 'NONE', #123, 39.37007874015748854 ) ;
#8 = CARTESIAN_POINT ( 'NONE',  ( -0.07874000000000000443, 0.0000000000000000000, 0.4330709999999999837 ) ) ;
#9 = CYLINDRICAL_SURFACE ( 'NONE', #45, 0.07869000000000003769 ) ;
#10 = DIRECTION ( 'NONE',  ( -1.000000000000000000, 0.0000000000000000000, 0.0000000000000000000 ) ) ;
#11 = EDGE_LOOP ( 'NONE', ( #159, #256 ) ) ;
#12 = ORIENTED_EDGE ( 'NONE', *, *, #27, .F. ) ;
#13 = ORIENTED_EDGE ( 'NONE', *, *, #312, .F. ) ;
#14 = VERTEX_POINT ( 'NONE', #210 ) ;
#15 =( GEOMETRIC_REPRESENTATION_CONTEXT ( 3 ) GLOBAL_UNCERTAINTY_ASSIGNED_CONTEXT ( ( #271 ) ) GLOBAL_UNIT_ASSIGNED_CONTEXT ( ( #82, #285, #86 ) ) REPRESENTATION_CONTEXT ( 'NONE', 'WORKASPACE' ) );
#16 = DIRECTION ( 'NONE',  ( 0.0000000000000000000, 0.0000000000000000000, 1.000000000000000000 ) ) ;
#17 = DIRECTION ( 'NONE',  ( -0.0000000000000000000, -0.0000000000000000000, -1.000000000000000000 ) ) ;
#18 = PRESENTATION_STYLE_ASSIGNMENT (( #224 ) ) ;
#19 = DIRECTION ( 'NONE',  ( -1.000000000000000000, 0.0000000000000000000, 0.0000000000000000000 ) ) ;
#20 = VECTOR ( 'NONE', #191, 39.37007874015748143 ) ;
#21 = ORIENTED_EDGE ( 'NONE', *, *, #88, .T. ) ;
#22 = AXIS2_PLACEMENT_3D ( 'NONE', #43, #142, #19 ) ;
#23 = PRESENTATION_LAYER_ASSIGNMENT (  '', '', ( #46 ) ) ;
#24 = ORIENTED_EDGE ( 'NONE', *, *, #272, .T. ) ;
#25 = LENGTH_MEASURE_WITH_UNIT ( LENGTH_MEASURE( 0.02539999999999999897 ), #303 );
#26 = FACE_OUTER_BOUND ( 'NONE', #295, .T. ) ;
#27 = EDGE_CURVE ( 'NONE', #64, #14, #2, .T. ) ;
#28 = DIRECTION ( 'NONE',  ( -0.0000000000000000000, -0.0000000000000000000, -1.000000000000000000 ) ) ;
#29 = DIRECTION ( 'NONE',  ( -0.0000000000000000000, -0.0000000000000000000, -1.000000000000000000 ) ) ;
#30 = DIRECTION ( 'NONE',  ( -0.0000000000000000000, -0.0000000000000000000, -1.000000000000000000 ) ) ;
#31 = LINE ( 'NONE', #253, #52 ) ;
#32 = EDGE_LOOP ( 'NONE', ( #267, #24, #89, #186 ) ) ;
#33 = ORIENTED_EDGE ( 'NONE', *, *, #71, .T. ) ;
#34 = FACE_OUTER_BOUND ( 'NONE', #32, .T. ) ;
#35 = CARTESIAN_POINT ( 'NONE',  ( 0.0000000000000000000, 0.0000000000000000000, 1.707404996040164512E-17 ) ) ;
#36 = DIRECTION ( 'NONE',  ( 1.000000000000000000, 0.0000000000000000000, 0.0000000000000000000 ) ) ;
#37 = ORIENTED_EDGE ( 'NONE', *, *, #193, .F. ) ;
#38 = ORIENTED_EDGE ( 'NONE', *, *, #168, .T. ) ;
#39 = ORIENTED_EDGE ( 'NONE', *, *, #286, .F. ) ;
#40 = DIRECTION ( 'NONE',  ( 1.000000000000000000, 0.0000000000000000000, -0.0000000000000000000 ) ) ;
#41 = PLANE ( 'NONE',  #270 ) ;
#42 = EDGE_CURVE ( 'NONE', #162, #238, #90, .T. ) ;
#43 = CARTESIAN_POINT ( 'NONE',  ( 0.0000000000000000000, 0.0000000000000000000, 0.4330709999999999837 ) ) ;
#44 = ADVANCED_BREP_SHAPE_REPRESENTATION ( 'Micro_DMM-040-490', ( #83, #187 ), #202 ) ;
#45 = AXIS2_PLACEMENT_3D ( 'NONE', #84, #182, #57 ) ;
#46 = STYLED_ITEM ( 'NONE', ( #18 ), #44 ) ;
#47 = UNCERTAINTY_MEASURE_WITH_UNIT (LENGTH_MEASURE( 1.000000000000000082E-05 ), #99, 'distance_accuracy_value', 'NONE');
#48 = LENGTH_MEASURE_WITH_UNIT ( LENGTH_MEASURE( 0.02539999999999999897 ), #132 );
#49 = EDGE_CURVE ( 'NONE', #61, #293, #325, .T. ) ;
#50 = AXIS2_PLACEMENT_3D ( 'NONE', #1, #229, #51 ) ;
#51 = DIRECTION ( 'NONE',  ( -1.000000000000000000, 0.0000000000000000000, 0.0000000000000000000 ) ) ;
#52 = VECTOR ( 'NONE', #28, 39.37007874015748143 ) ;
#53 = LINE ( 'NONE', #157, #200 ) ;
#54 = DIMENSIONAL_EXPONENTS ( 1.000000000000000000, 0.0000000000000000000, 0.0000000000000000000, 0.0000000000000000000, 0.0000000000000000000, 0.0000000000000000000, 0.0000000000000000000 ) ;
#55 = CARTESIAN_POINT ( 'NONE',  ( 0.0000000000000000000, 0.0000000000000000000, 1.953504000000000129 ) ) ;
#56 = DIRECTION ( 'NONE',  ( -0.0000000000000000000, -0.0000000000000000000, -1.000000000000000000 ) ) ;
#57 = DIRECTION ( 'NONE',  ( -1.000000000000000000, 0.0000000000000000000, 0.0000000000000000000 ) ) ;
#58 = ORIENTED_EDGE ( 'NONE', *, *, #130, .F. ) ;
#59 = AXIS2_PLACEMENT_3D ( 'NONE', #112, #56, #10 ) ;
#60 = AXIS2_PLACEMENT_3D ( 'NONE', #233, #4, #278 ) ;
#61 = VERTEX_POINT ( 'NONE', #234 ) ;
#62 =( GEOMETRIC_REPRESENTATION_CONTEXT ( 3 ) GLOBAL_UNCERTAINTY_ASSIGNED_CONTEXT ( ( #146 ) ) GLOBAL_UNIT_ASSIGNED_CONTEXT ( ( #228, #198, #326 ) ) REPRESENTATION_CONTEXT ( 'NONE', 'WORKASPACE' ) );
#63 = DIRECTION ( 'NONE',  ( 0.0000000000000000000, 0.0000000000000000000, 1.000000000000000000 ) ) ;
#64 = VERTEX_POINT ( 'NONE', #8 ) ;
#65 = DIRECTION ( 'NONE',  ( -1.000000000000000000, 0.0000000000000000000, 0.0000000000000000000 ) ) ;
#66 = VERTEX_POINT ( 'NONE', #213 ) ;
#67 = CARTESIAN_POINT ( 'NONE',  ( 0.0000000000000000000, 0.0000000000000000000, 1.953504000000000129 ) ) ;
#68 = CIRCLE ( 'NONE', #172, 0.07869000000000000994 ) ;
#69 = CARTESIAN_POINT ( 'NONE',  ( 0.0000000000000000000, 0.0000000000000000000, 1.968503999999999809 ) ) ;
#70 = CARTESIAN_POINT ( 'NONE',  ( -0.07874000000000000443, 0.0000000000000000000, 1.968503999999999809 ) ) ;
#71 = EDGE_CURVE ( 'NONE', #162, #14, #310, .T. ) ;
#72 = CONICAL_SURFACE ( 'NONE', #201, 0.06374000000000018540, 0.7853981633974522758 ) ;
#73 = MECHANICAL_DESIGN_GEOMETRIC_PRESENTATION_REPRESENTATION (  '', ( #46 ), #62 ) ;
#74 = PRODUCT ( 'Micro_DMM-040-490', 'Micro_DMM-040-490', '', ( #79 ) ) ;
#75 = ADVANCED_FACE ( 'NONE', ( #322 ), #92, .T. ) ;
#76 = LINE ( 'NONE', #208, #178 ) ;
#77 = ORIENTED_EDGE ( 'NONE', *, *, #49, .T. ) ;
#78 = CLOSED_SHELL ( 'NONE', ( #135, #302, #249, #75, #126, #152, #273, #263, #323, #100, #206 ) ) ;
#79 = PRODUCT_CONTEXT ( 'NONE', #318, 'mechanical' ) ;
#80 = CARTESIAN_POINT ( 'NONE',  ( 0.0000000000000000000, 0.0000000000000000000, 0.4330709999999999837 ) ) ;
#81 = DIRECTION ( 'NONE',  ( -0.0000000000000000000, -0.0000000000000000000, -1.000000000000000000 ) ) ;
#82 =( CONVERSION_BASED_UNIT ( 'INCH', #140 ) LENGTH_UNIT ( ) NAMED_UNIT ( #54 ) );
#83 = MANIFOLD_SOLID_BREP ( 'Cut-Revolve4', #78 ) ;
#84 = CARTESIAN_POINT ( 'NONE',  ( 0.0000000000000000000, 0.0000000000000000000, 0.0000000000000000000 ) ) ;
#85 = ORIENTED_EDGE ( 'NONE', *, *, #155, .F. ) ;
#86 =( NAMED_UNIT ( * ) SI_UNIT ( $, .STERADIAN. ) SOLID_ANGLE_UNIT ( ) );
#87 = DIRECTION ( 'NONE',  ( 1.000000000000000000, 0.0000000000000000000, 0.0000000000000000000 ) ) ;
#88 = EDGE_CURVE ( 'NONE', #293, #162, #76, .T. ) ;
#89 = ORIENTED_EDGE ( 'NONE', *, *, #269, .F. ) ;
#90 = CIRCLE ( 'NONE', #298, 0.07874000000000000443 ) ;
#91 = DIRECTION ( 'NONE',  ( -1.000000000000000000, 0.0000000000000000000, 0.0000000000000000000 ) ) ;
#92 = CYLINDRICAL_SURFACE ( 'NONE', #328, 0.07874000000000000443 ) ;
#93 = CARTESIAN_POINT ( 'NONE',  ( 0.07869000000000006545, 9.636745662490529768E-18, 0.4330709999999999837 ) ) ;
#94 = EDGE_LOOP ( 'NONE', ( #230, #250, #118, #167 ) ) ;
#95 = DIRECTION ( 'NONE',  ( -1.000000000000000000, 0.0000000000000000000, 0.0000000000000000000 ) ) ;
#96 = CARTESIAN_POINT ( 'NONE',  ( 0.007499999999999999722, 0.0000000000000000000, 1.707404996040164512E-17 ) ) ;
#97 = CARTESIAN_POINT ( 'NONE',  ( 0.07869000000000000994, 0.0000000000000000000, 0.07118999999999972572 ) ) ;
#98 = AXIS2_PLACEMENT_3D ( 'NONE', #133, #231, #91 ) ;
#99 =( CONVERSION_BASED_UNIT ( 'INCH', #48 ) LENGTH_UNIT ( ) NAMED_UNIT ( #225 ) );
#100 = ADVANCED_FACE ( 'NONE', ( #255 ), #204, .T. ) ;
#101 = CIRCLE ( 'NONE', #232, 0.007499999999999999722 ) ;
#102 = APPLICATION_PROTOCOL_DEFINITION ( 'draft international standard', 'automotive_design', 1998, #318 ) ;
#103 = PRODUCT_RELATED_PRODUCT_CATEGORY ( 'part', '', ( #74 ) ) ;
#104 = CIRCLE ( 'NONE', #22, 0.07869000000000006545 ) ;
#105 = DIRECTION ( 'NONE',  ( 1.000000000000000000, 0.0000000000000000000, 0.0000000000000000000 ) ) ;
#106 = DIRECTION ( 'NONE',  ( -0.0000000000000000000, -0.0000000000000000000, -1.000000000000000000 ) ) ;
#107 = EDGE_CURVE ( 'NONE', #141, #66, #31, .T. ) ;
#108 = VERTEX_POINT ( 'NONE', #306 ) ;
#109 = AXIS2_PLACEMENT_3D ( 'NONE', #67, #241, #292 ) ;
#110 = SURFACE_STYLE_FILL_AREA ( #288 ) ;
#111 = CARTESIAN_POINT ( 'NONE',  ( 0.0000000000000000000, 0.0000000000000000000, 1.968503999999999809 ) ) ;
#112 = CARTESIAN_POINT ( 'NONE',  ( 0.0000000000000000000, 0.0000000000000000000, 0.4330709999999999837 ) ) ;
#113 = FACE_BOUND ( 'NONE', #257, .T. ) ;
#114 = ORIENTED_EDGE ( 'NONE', *, *, #148, .F. ) ;
#115 = EDGE_LOOP ( 'NONE', ( #116, #13, #158, #240 ) ) ;
#116 = ORIENTED_EDGE ( 'NONE', *, *, #226, .F. ) ;
#117 = CARTESIAN_POINT ( 'NONE',  ( 0.0000000000000000000, 0.0000000000000000000, 0.0000000000000000000 ) ) ;
#118 = ORIENTED_EDGE ( 'NONE', *, *, #107, .T. ) ;
#119 = MECHANICAL_DESIGN_GEOMETRIC_PRESENTATION_REPRESENTATION (  '', ( #185 ), #15 ) ;
#120 = DIRECTION ( 'NONE',  ( 1.000000000000000000, 0.0000000000000000000, 0.0000000000000000000 ) ) ;
#121 = DIRECTION ( 'NONE',  ( 1.000000000000000000, 0.0000000000000000000, -0.0000000000000000000 ) ) ;
#122 = CARTESIAN_POINT ( 'NONE',  ( -0.007499999999999999722, 5.277615380925519009E-18, 1.707404996040164512E-17 ) ) ;
#123 = DIRECTION ( 'NONE',  ( -0.7071067811865502373, 0.0000000000000000000, -0.7071067811865446862 ) ) ;
#124 = PRODUCT_DEFINITION ( 'UNKNOWN', '', #247, #143 ) ;
#125 = PLANE ( 'NONE',  #153 ) ;
#126 = ADVANCED_FACE ( 'NONE', ( #311 ), #281, .T. ) ;
#127 = PRODUCT_DEFINITION_SHAPE ( 'NONE', 'NONE',  #124 ) ;
#128 = COLOUR_RGB ( '',0.7921568627450980005, 0.8196078431372548767, 0.9333333333333333481 ) ;
#129 = CONICAL_SURFACE ( 'NONE', #299, 0.007499999999999999722, 0.7853981633974503884 ) ;
#130 = EDGE_CURVE ( 'NONE', #262, #108, #101, .T. ) ;
#131 = ORIENTED_EDGE ( 'NONE', *, *, #189, .F. ) ;
#132 =( LENGTH_UNIT ( ) NAMED_UNIT ( * ) SI_UNIT ( $, .METRE. ) );
#133 = CARTESIAN_POINT ( 'NONE',  ( 0.0000000000000000000, 0.0000000000000000000, 1.968503999999999809 ) ) ;
#134 = CIRCLE ( 'NONE', #280, 0.06374000000000018540 ) ;
#135 = ADVANCED_FACE ( 'NONE', ( #34 ), #9, .T. ) ;
#136 = DIRECTION ( 'NONE',  ( 0.0000000000000000000, 0.0000000000000000000, -1.000000000000000000 ) ) ;
#137 = ORIENTED_EDGE ( 'NONE', *, *, #312, .T. ) ;
#138 = AXIS2_PLACEMENT_3D ( 'NONE', #254, #106, #203 ) ;
#139 = DIRECTION ( 'NONE',  ( 1.000000000000000000, 0.0000000000000000000, 0.0000000000000000000 ) ) ;
#140 = LENGTH_MEASURE_WITH_UNIT ( LENGTH_MEASURE( 0.02539999999999999897 ), #190 );
#141 = VERTEX_POINT ( 'NONE', #222 ) ;
#142 = DIRECTION ( 'NONE',  ( -0.0000000000000000000, -0.0000000000000000000, -1.000000000000000000 ) ) ;
#143 = PRODUCT_DEFINITION_CONTEXT ( 'detailed design', #294, 'design' ) ;
#144 = ORIENTED_EDGE ( 'NONE', *, *, #148, .T. ) ;
#145 = CARTESIAN_POINT ( 'NONE',  ( -0.06374000000000018540, 0.0000000000000000000, 1.968503999999999809 ) ) ;
#146 = UNCERTAINTY_MEASURE_WITH_UNIT (LENGTH_MEASURE( 1.000000000000000082E-05 ), #228, 'distance_accuracy_value', 'NONE');
#147 = DIRECTION ( 'NONE',  ( 0.0000000000000000000, 0.0000000000000000000, 1.000000000000000000 ) ) ;
#148 = EDGE_CURVE ( 'NONE', #293, #61, #134, .T. ) ;
#149 = AXIS2_PLACEMENT_3D ( 'NONE', #80, #235, #65 ) ;
#150 =( NAMED_UNIT ( * ) SI_UNIT ( $, .STERADIAN. ) SOLID_ANGLE_UNIT ( ) );
#151 = VERTEX_POINT ( 'NONE', #93 ) ;
#152 = ADVANCED_FACE ( 'NONE', ( #265 ), #41, .T. ) ;
#153 = AXIS2_PLACEMENT_3D ( 'NONE', #117, #16, #40 ) ;
#154 = AXIS2_PLACEMENT_3D ( 'NONE', #35, #261, #139 ) ;
#155 = EDGE_CURVE ( 'NONE', #238, #162, #289, .T. ) ;
#156 = EDGE_CURVE ( 'NONE', #108, #218, #220, .T. ) ;
#157 = CARTESIAN_POINT ( 'NONE',  ( 0.07869000000000003769, 9.636745662490528228E-18, 0.0000000000000000000 ) ) ;
#158 = ORIENTED_EDGE ( 'NONE', *, *, #156, .T. ) ;
#159 = ORIENTED_EDGE ( 'NONE', *, *, #27, .T. ) ;
#160 = CARTESIAN_POINT ( 'NONE',  ( 0.0000000000000000000, 0.0000000000000000000, 1.968503999999999809 ) ) ;
#161 = FACE_OUTER_BOUND ( 'NONE', #163, .T. ) ;
#162 = VERTEX_POINT ( 'NONE', #300 ) ;
#163 = EDGE_LOOP ( 'NONE', ( #58, #239, #214, #287 ) ) ;
#164 = CIRCLE ( 'NONE', #3, 0.007499999999999999722 ) ;
#165 = SURFACE_STYLE_USAGE ( .BOTH. , #258 ) ;
#166 = PRESENTATION_STYLE_ASSIGNMENT (( #165 ) ) ;
#167 = ORIENTED_EDGE ( 'NONE', *, *, #5, .F. ) ;
#168 = EDGE_CURVE ( 'NONE', #238, #64, #296, .T. ) ;
#169 = CARTESIAN_POINT ( 'NONE',  ( 0.0000000000000000000, 0.0000000000000000000, 0.4330709999999999837 ) ) ;
#170 = VECTOR ( 'NONE', #184, 39.37007874015748143 ) ;
#171 = DIRECTION ( 'NONE',  ( 0.0000000000000000000, 0.0000000000000000000, 1.000000000000000000 ) ) ;
#172 = AXIS2_PLACEMENT_3D ( 'NONE', #219, #316, #179 ) ;
#173 = SURFACE_STYLE_FILL_AREA ( #197 ) ;
#174 = CIRCLE ( 'NONE', #209, 0.07869000000000006545 ) ;
#175 = COLOUR_RGB ( '',0.7921568627450980005, 0.8196078431372548767, 0.9333333333333333481 ) ;
#176 = SHAPE_DEFINITION_REPRESENTATION ( #127, #44 ) ;
#177 = DIRECTION ( 'NONE',  ( 0.7071067811865502373, 8.659560562354966138E-17, -0.7071067811865446862 ) ) ;
#178 = VECTOR ( 'NONE', #177, 39.37007874015748854 ) ;
#179 = DIRECTION ( 'NONE',  ( -1.000000000000000000, 0.0000000000000000000, 0.0000000000000000000 ) ) ;
#180 = CARTESIAN_POINT ( 'NONE',  ( 0.0000000000000000000, 0.0000000000000000000, 1.707404996040164512E-17 ) ) ;
#181 = CARTESIAN_POINT ( 'NONE',  ( 0.0000000000000000000, 0.0000000000000000000, 1.707404996040164512E-17 ) ) ;
#182 = DIRECTION ( 'NONE',  ( -0.0000000000000000000, -0.0000000000000000000, -1.000000000000000000 ) ) ;
#183 = EDGE_LOOP ( 'NONE', ( #290, #314, #38, #39 ) ) ;
#184 = DIRECTION ( 'NONE',  ( -0.0000000000000000000, -0.0000000000000000000, -1.000000000000000000 ) ) ;
#185 = STYLED_ITEM ( 'NONE', ( #166 ), #83 ) ;
#186 = ORIENTED_EDGE ( 'NONE', *, *, #107, .F. ) ;
#187 = AXIS2_PLACEMENT_3D ( 'NONE', #195, #308, #105 ) ;
#188 = DIRECTION ( 'NONE',  ( -0.0000000000000000000, -0.0000000000000000000, -1.000000000000000000 ) ) ;
#189 = EDGE_CURVE ( 'NONE', #151, #141, #104, .T. ) ;
#190 =( LENGTH_UNIT ( ) NAMED_UNIT ( * ) SI_UNIT ( $, .METRE. ) );
#191 = DIRECTION ( 'NONE',  ( 0.7071067811865490160, 0.0000000000000000000, 0.7071067811865460184 ) ) ;
#192 = FACE_OUTER_BOUND ( 'NONE', #266, .T. ) ;
#193 = EDGE_CURVE ( 'NONE', #141, #151, #174, .T. ) ;
#194 =( NAMED_UNIT ( * ) PLANE_ANGLE_UNIT ( ) SI_UNIT ( $, .RADIAN. ) );
#195 = CARTESIAN_POINT ( 'NONE',  ( 0.0000000000000000000, 0.0000000000000000000, 0.0000000000000000000 ) ) ;
#196 = DIRECTION ( 'NONE',  ( -0.7071067811865490160, 8.659560562354951347E-17, 0.7071067811865460184 ) ) ;
#197 = FILL_AREA_STYLE ('',( #244 ) ) ;
#198 =( NAMED_UNIT ( * ) PLANE_ANGLE_UNIT ( ) SI_UNIT ( $, .RADIAN. ) );
#199 = ORIENTED_EDGE ( 'NONE', *, *, #216, .T. ) ;
#200 = VECTOR ( 'NONE', #29, 39.37007874015748143 ) ;
#201 = AXIS2_PLACEMENT_3D ( 'NONE', #307, #212, #237 ) ;
#202 =( GEOMETRIC_REPRESENTATION_CONTEXT ( 3 ) GLOBAL_UNCERTAINTY_ASSIGNED_CONTEXT ( ( #47 ) ) GLOBAL_UNIT_ASSIGNED_CONTEXT ( ( #99, #194, #150 ) ) REPRESENTATION_CONTEXT ( 'NONE', 'WORKASPACE' ) );
#203 = DIRECTION ( 'NONE',  ( -1.000000000000000000, 0.0000000000000000000, 0.0000000000000000000 ) ) ;
#204 = CYLINDRICAL_SURFACE ( 'NONE', #60, 0.07869000000000003769 ) ;
#205 = FACE_OUTER_BOUND ( 'NONE', #321, .T. ) ;
#206 = ADVANCED_FACE ( 'NONE', ( #192 ), #125, .F. ) ;
#207 = ORIENTED_EDGE ( 'NONE', *, *, #49, .F. ) ;
#208 = CARTESIAN_POINT ( 'NONE',  ( 0.06374000000000018540, 7.805898697765251255E-18, 1.968503999999999809 ) ) ;
#209 = AXIS2_PLACEMENT_3D ( 'NONE', #169, #17, #268 ) ;
#210 = CARTESIAN_POINT ( 'NONE',  ( 0.07874000000000000443, 9.642868896486258509E-18, 0.4330709999999999837 ) ) ;
#211 = ORIENTED_EDGE ( 'NONE', *, *, #155, .T. ) ;
#212 = DIRECTION ( 'NONE',  ( 0.0000000000000000000, 0.0000000000000000000, -1.000000000000000000 ) ) ;
#213 = CARTESIAN_POINT ( 'NONE',  ( -0.07869000000000000994, 9.636745662490523605E-18, 0.07118999999999972572 ) ) ;
#214 = ORIENTED_EDGE ( 'NONE', *, *, #269, .T. ) ;
#215 = DIRECTION ( 'NONE',  ( 0.0000000000000000000, 0.0000000000000000000, 1.000000000000000000 ) ) ;
#216 = EDGE_CURVE ( 'NONE', #61, #238, #324, .T. ) ;
#217 = AXIS2_PLACEMENT_3D ( 'NONE', #160, #215, #36 ) ;
#218 = VERTEX_POINT ( 'NONE', #97 ) ;
#219 = CARTESIAN_POINT ( 'NONE',  ( 0.0000000000000000000, 0.0000000000000000000, 0.07118999999999972572 ) ) ;
#220 = LINE ( 'NONE', #96, #20 ) ;
#221 = FACE_OUTER_BOUND ( 'NONE', #11, .T. ) ;
#222 = CARTESIAN_POINT ( 'NONE',  ( -0.07869000000000006545, 0.0000000000000000000, 0.4330709999999999837 ) ) ;
#223 = CIRCLE ( 'NONE', #59, 0.07874000000000000443 ) ;
#224 = SURFACE_STYLE_USAGE ( .BOTH. , #327 ) ;
#225 = DIMENSIONAL_EXPONENTS ( 1.000000000000000000, 0.0000000000000000000, 0.0000000000000000000, 0.0000000000000000000, 0.0000000000000000000, 0.0000000000000000000, 0.0000000000000000000 ) ;
#226 = EDGE_CURVE ( 'NONE', #262, #66, #297, .T. ) ;
#227 = ORIENTED_EDGE ( 'NONE', *, *, #42, .F. ) ;
#228 =( CONVERSION_BASED_UNIT ( 'INCH', #25 ) LENGTH_UNIT ( ) NAMED_UNIT ( #304 ) );
#229 = DIRECTION ( 'NONE',  ( -0.0000000000000000000, 0.0000000000000000000, -1.000000000000000000 ) ) ;
#230 = ORIENTED_EDGE ( 'NONE', *, *, #272, .F. ) ;
#231 = DIRECTION ( 'NONE',  ( 0.0000000000000000000, 0.0000000000000000000, -1.000000000000000000 ) ) ;
#232 = AXIS2_PLACEMENT_3D ( 'NONE', #180, #283, #259 ) ;
#233 = CARTESIAN_POINT ( 'NONE',  ( 0.0000000000000000000, 0.0000000000000000000, 0.0000000000000000000 ) ) ;
#234 = CARTESIAN_POINT ( 'NONE',  ( -0.06374000000000018540, 0.0000000000000000000, 1.968503999999999809 ) ) ;
#235 = DIRECTION ( 'NONE',  ( -0.0000000000000000000, -0.0000000000000000000, -1.000000000000000000 ) ) ;
#236 = CONICAL_SURFACE ( 'NONE', #98, 0.06374000000000018540, 0.7853981633974522758 ) ;
#237 = DIRECTION ( 'NONE',  ( -1.000000000000000000, 0.0000000000000000000, 0.0000000000000000000 ) ) ;
#238 = VERTEX_POINT ( 'NONE', #248 ) ;
#239 = ORIENTED_EDGE ( 'NONE', *, *, #226, .T. ) ;
#240 = ORIENTED_EDGE ( 'NONE', *, *, #5, .T. ) ;
#241 = DIRECTION ( 'NONE',  ( 0.0000000000000000000, 0.0000000000000000000, -1.000000000000000000 ) ) ;
#242 = AXIS2_PLACEMENT_3D ( 'NONE', #111, #81, #313 ) ;
#243 = CARTESIAN_POINT ( 'NONE',  ( 0.0000000000000000000, 0.0000000000000000000, 1.968503999999999809 ) ) ;
#244 = FILL_AREA_STYLE_COLOUR ( '', #175 ) ;
#245 = CONICAL_SURFACE ( 'NONE', #154, 0.007499999999999999722, 0.7853981633974503884 ) ;
#246 = PLANE ( 'NONE',  #50 ) ;
#247 = PRODUCT_DEFINITION_FORMATION_WITH_SPECIFIED_SOURCE ( 'ANY', '', #74, .NOT_KNOWN. ) ;
#248 = CARTESIAN_POINT ( 'NONE',  ( -0.07874000000000000443, 0.0000000000000000000, 1.953504000000000129 ) ) ;
#249 = ADVANCED_FACE ( 'NONE', ( #26 ), #236, .T. ) ;
#250 = ORIENTED_EDGE ( 'NONE', *, *, #189, .T. ) ;
#251 = PRESENTATION_LAYER_ASSIGNMENT (  '', '', ( #185 ) ) ;
#252 = ORIENTED_EDGE ( 'NONE', *, *, #88, .F. ) ;
#253 = CARTESIAN_POINT ( 'NONE',  ( -0.07869000000000003769, 0.0000000000000000000, 0.0000000000000000000 ) ) ;
#254 = CARTESIAN_POINT ( 'NONE',  ( 0.0000000000000000000, 0.0000000000000000000, 0.07118999999999972572 ) ) ;
#255 = FACE_OUTER_BOUND ( 'NONE', #94, .T. ) ;
#256 = ORIENTED_EDGE ( 'NONE', *, *, #286, .T. ) ;
#257 = EDGE_LOOP ( 'NONE', ( #37, #131 ) ) ;
#258 = SURFACE_SIDE_STYLE ('',( #110 ) ) ;
#259 = DIRECTION ( 'NONE',  ( -1.000000000000000000, 0.0000000000000000000, 0.0000000000000000000 ) ) ;
#260 = ORIENTED_EDGE ( 'NONE', *, *, #216, .F. ) ;
#261 = DIRECTION ( 'NONE',  ( 0.0000000000000000000, 0.0000000000000000000, 1.000000000000000000 ) ) ;
#262 = VERTEX_POINT ( 'NONE', #122 ) ;
#263 = ADVANCED_FACE ( 'NONE', ( #113, #221 ), #246, .T. ) ;
#264 = EDGE_LOOP ( 'NONE', ( #211, #33, #12, #319 ) ) ;
#265 = FACE_OUTER_BOUND ( 'NONE', #317, .T. ) ;
#266 = EDGE_LOOP ( 'NONE', ( #137, #277 ) ) ;
#267 = ORIENTED_EDGE ( 'NONE', *, *, #193, .T. ) ;
#268 = DIRECTION ( 'NONE',  ( -1.000000000000000000, 0.0000000000000000000, 0.0000000000000000000 ) ) ;
#269 = EDGE_CURVE ( 'NONE', #66, #218, #276, .T. ) ;
#270 = AXIS2_PLACEMENT_3D ( 'NONE', #69, #147, #121 ) ;
#271 = UNCERTAINTY_MEASURE_WITH_UNIT (LENGTH_MEASURE( 1.000000000000000082E-05 ), #82, 'distance_accuracy_value', 'NONE');
#272 = EDGE_CURVE ( 'NONE', #151, #218, #53, .T. ) ;
#273 = ADVANCED_FACE ( 'NONE', ( #205 ), #72, .T. ) ;
#274 = DIRECTION ( 'NONE',  ( -1.000000000000000000, 0.0000000000000000000, 0.0000000000000000000 ) ) ;
#275 = FACE_OUTER_BOUND ( 'NONE', #115, .T. ) ;
#276 = CIRCLE ( 'NONE', #138, 0.07869000000000000994 ) ;
#277 = ORIENTED_EDGE ( 'NONE', *, *, #130, .T. ) ;
#278 = DIRECTION ( 'NONE',  ( -1.000000000000000000, 0.0000000000000000000, 0.0000000000000000000 ) ) ;
#279 = APPLICATION_PROTOCOL_DEFINITION ( 'draft international standard', 'automotive_design', 1998, #294 ) ;
#280 = AXIS2_PLACEMENT_3D ( 'NONE', #243, #63, #87 ) ;
#281 = CYLINDRICAL_SURFACE ( 'NONE', #242, 0.07874000000000000443 ) ;
#282 = CARTESIAN_POINT ( 'NONE',  ( 0.0000000000000000000, 0.0000000000000000000, 1.968503999999999809 ) ) ;
#283 = DIRECTION ( 'NONE',  ( -0.0000000000000000000, -0.0000000000000000000, -1.000000000000000000 ) ) ;
#284 = DIRECTION ( 'NONE',  ( -0.0000000000000000000, -0.0000000000000000000, -1.000000000000000000 ) ) ;
#285 =( NAMED_UNIT ( * ) PLANE_ANGLE_UNIT ( ) SI_UNIT ( $, .RADIAN. ) );
#286 = EDGE_CURVE ( 'NONE', #14, #64, #223, .T. ) ;
#287 = ORIENTED_EDGE ( 'NONE', *, *, #156, .F. ) ;
#288 = FILL_AREA_STYLE ('',( #291 ) ) ;
#289 = CIRCLE ( 'NONE', #109, 0.07874000000000000443 ) ;
#290 = ORIENTED_EDGE ( 'NONE', *, *, #71, .F. ) ;
#291 = FILL_AREA_STYLE_COLOUR ( '', #128 ) ;
#292 = DIRECTION ( 'NONE',  ( 1.000000000000000000, 0.0000000000000000000, 0.0000000000000000000 ) ) ;
#293 = VERTEX_POINT ( 'NONE', #315 ) ;
#294 = APPLICATION_CONTEXT ( 'automotive_design' ) ;
#295 = EDGE_LOOP ( 'NONE', ( #114, #21, #85, #260 ) ) ;
#296 = LINE ( 'NONE', #70, #170 ) ;
#297 = LINE ( 'NONE', #301, #320 ) ;
#298 = AXIS2_PLACEMENT_3D ( 'NONE', #55, #136, #120 ) ;
#299 = AXIS2_PLACEMENT_3D ( 'NONE', #329, #171, #305 ) ;
#300 = CARTESIAN_POINT ( 'NONE',  ( 0.07874000000000000443, 9.642868896486258509E-18, 1.953504000000000129 ) ) ;
#301 = CARTESIAN_POINT ( 'NONE',  ( -0.007499999999999999722, 9.184850993605147975E-19, 1.707404996040164512E-17 ) ) ;
#302 = ADVANCED_FACE ( 'NONE', ( #161 ), #245, .T. ) ;
#303 =( LENGTH_UNIT ( ) NAMED_UNIT ( * ) SI_UNIT ( $, .METRE. ) );
#304 = DIMENSIONAL_EXPONENTS ( 1.000000000000000000, 0.0000000000000000000, 0.0000000000000000000, 0.0000000000000000000, 0.0000000000000000000, 0.0000000000000000000, 0.0000000000000000000 ) ;
#305 = DIRECTION ( 'NONE',  ( 1.000000000000000000, 0.0000000000000000000, 0.0000000000000000000 ) ) ;
#306 = CARTESIAN_POINT ( 'NONE',  ( 0.007499999999999999722, 0.0000000000000000000, 1.707404996040164512E-17 ) ) ;
#307 = CARTESIAN_POINT ( 'NONE',  ( 0.0000000000000000000, 0.0000000000000000000, 1.968503999999999809 ) ) ;
#308 = DIRECTION ( 'NONE',  ( 0.0000000000000000000, 0.0000000000000000000, 1.000000000000000000 ) ) ;
#309 = VECTOR ( 'NONE', #30, 39.37007874015748143 ) ;
#310 = LINE ( 'NONE', #6, #309 ) ;
#311 = FACE_OUTER_BOUND ( 'NONE', #183, .T. ) ;
#312 = EDGE_CURVE ( 'NONE', #108, #262, #164, .T. ) ;
#313 = DIRECTION ( 'NONE',  ( -1.000000000000000000, 0.0000000000000000000, 0.0000000000000000000 ) ) ;
#314 = ORIENTED_EDGE ( 'NONE', *, *, #42, .T. ) ;
#315 = CARTESIAN_POINT ( 'NONE',  ( 0.06374000000000018540, 8.724383797125754882E-18, 1.968503999999999809 ) ) ;
#316 = DIRECTION ( 'NONE',  ( -0.0000000000000000000, -0.0000000000000000000, -1.000000000000000000 ) ) ;
#317 = EDGE_LOOP ( 'NONE', ( #77, #144 ) ) ;
#318 = APPLICATION_CONTEXT ( 'automotive_design' ) ;
#319 = ORIENTED_EDGE ( 'NONE', *, *, #168, .F. ) ;
#320 = VECTOR ( 'NONE', #196, 39.37007874015748143 ) ;
#321 = EDGE_LOOP ( 'NONE', ( #252, #207, #199, #227 ) ) ;
#322 = FACE_OUTER_BOUND ( 'NONE', #264, .T. ) ;
#323 = ADVANCED_FACE ( 'NONE', ( #275 ), #129, .T. ) ;
#324 = LINE ( 'NONE', #145, #7 ) ;
#325 = CIRCLE ( 'NONE', #217, 0.06374000000000018540 ) ;
#326 =( NAMED_UNIT ( * ) SI_UNIT ( $, .STERADIAN. ) SOLID_ANGLE_UNIT ( ) );
#327 = SURFACE_SIDE_STYLE ('',( #173 ) ) ;
#328 = AXIS2_PLACEMENT_3D ( 'NONE', #282, #188, #95 ) ;
#329 = CARTESIAN_POINT ( 'NONE',  ( 0.0000000000000000000, 0.0000000000000000000, 1.707404996040164512E-17 ) ) ;
ENDSEC;
END-ISO-10303-21;
