ISO-10303-21;
HEADER;
FILE_DESCRIPTION (( 'STEP AP214' ),
    '1' );
FILE_NAME ('Micro_RME-018-2.STEP',
    '2021-09-01T22:41:09',
    ( '' ),
    ( '' ),
    'SwSTEP 2.0',
    'SolidWorks 2020',
    '' );
FILE_SCHEMA (( 'AUTOMOTIVE_DESIGN' ));
ENDSEC;

DATA;
#1 = FILL_AREA_STYLE ('',( #273 ) ) ;
#2 = ADVANCED_FACE ( 'NONE', ( #30 ), #107, .T. ) ;
#3 = AXIS2_PLACEMENT_3D ( 'NONE', #126, #124, #9 ) ;
#4 = CARTESIAN_POINT ( 'NONE',  ( -0.008990999999999998993, 0.0000000000000000000, 1.101079937113385289E-18 ) ) ;
#5 = ORIENTED_EDGE ( 'NONE', *, *, #120, .T. ) ;
#6 = DIRECTION ( 'NONE',  ( -1.224646799147353454E-16, -0.0000000000000000000, -1.000000000000000000 ) ) ;
#7 = ORIENTED_EDGE ( 'NONE', *, *, #139, .T. ) ;
#8 = STYLED_ITEM ( 'NONE', ( #205 ), #251 ) ;
#9 = DIRECTION ( 'NONE',  ( -1.000000000000000000, 0.0000000000000000000, 1.224646799147353454E-16 ) ) ;
#10 = VERTEX_POINT ( 'NONE', #57 ) ;
#11 = CARTESIAN_POINT ( 'NONE',  ( 0.0000000000000000000, 0.0000000000000000000, 1.500000000000000222 ) ) ;
#12 = FACE_OUTER_BOUND ( 'NONE', #23, .T. ) ;
#13 = VECTOR ( 'NONE', #267, 39.37007874015748143 ) ;
#14 = CARTESIAN_POINT ( 'NONE',  ( 0.0000000000000000000, 0.0000000000000000000, 0.0000000000000000000 ) ) ;
#15 = CARTESIAN_POINT ( 'NONE',  ( 6.613092715395708853E-18, 0.0000000000000000000, 0.05399999999999999939 ) ) ;
#16 = FACE_OUTER_BOUND ( 'NONE', #166, .T. ) ;
#17 = AXIS2_PLACEMENT_3D ( 'NONE', #285, #243, #78 ) ;
#18 = FACE_OUTER_BOUND ( 'NONE', #288, .T. ) ;
#19 = ADVANCED_FACE ( 'NONE', ( #127 ), #220, .T. ) ;
#20 = AXIS2_PLACEMENT_3D ( 'NONE', #249, #39, #230 ) ;
#21 =( NAMED_UNIT ( * ) PLANE_ANGLE_UNIT ( ) SI_UNIT ( $, .RADIAN. ) );
#22 = SURFACE_STYLE_FILL_AREA ( #252 ) ;
#23 = EDGE_LOOP ( 'NONE', ( #259, #56, #7, #261 ) ) ;
#24 = VECTOR ( 'NONE', #211, 39.37007874015748143 ) ;
#25 = VERTEX_POINT ( 'NONE', #71 ) ;
#26 = DIRECTION ( 'NONE',  ( 1.000000000000000000, 0.0000000000000000000, -0.0000000000000000000 ) ) ;
#27 = DIRECTION ( 'NONE',  ( 0.0000000000000000000, 0.0000000000000000000, 1.000000000000000000 ) ) ;
#28 = EDGE_LOOP ( 'NONE', ( #51, #5 ) ) ;
#29 = SURFACE_STYLE_USAGE ( .BOTH. , #165 ) ;
#30 = FACE_OUTER_BOUND ( 'NONE', #159, .T. ) ;
#31 = AXIS2_PLACEMENT_3D ( 'NONE', #242, #27, #260 ) ;
#32 = CONICAL_SURFACE ( 'NONE', #168, 0.04750000000000064587, 0.7853981633974466137 ) ;
#33 = ORIENTED_EDGE ( 'NONE', *, *, #96, .T. ) ;
#34 = ORIENTED_EDGE ( 'NONE', *, *, #269, .T. ) ;
#35 =( LENGTH_UNIT ( ) NAMED_UNIT ( * ) SI_UNIT ( $, .METRE. ) );
#36 = DIRECTION ( 'NONE',  ( -1.000000000000000000, 0.0000000000000000000, 1.224646799147353454E-16 ) ) ;
#37 = DIMENSIONAL_EXPONENTS ( 1.000000000000000000, 0.0000000000000000000, 0.0000000000000000000, 0.0000000000000000000, 0.0000000000000000000, 0.0000000000000000000, 0.0000000000000000000 ) ;
#38 = LINE ( 'NONE', #132, #77 ) ;
#39 = DIRECTION ( 'NONE',  ( -1.224646799147353454E-16, -0.0000000000000000000, -1.000000000000000000 ) ) ;
#40 = CIRCLE ( 'NONE', #20, 0.06250000000000002776 ) ;
#41 = ADVANCED_BREP_SHAPE_REPRESENTATION ( 'Micro_RME-018-2', ( #251, #31 ), #213 ) ;
#42 = VECTOR ( 'NONE', #284, 39.37007874015747433 ) ;
#43 = PRODUCT_DEFINITION_CONTEXT ( 'detailed design', #191, 'design' ) ;
#44 = DIRECTION ( 'NONE',  ( -1.000000000000000000, 0.0000000000000000000, 1.224646799147353454E-16 ) ) ;
#45 = EDGE_CURVE ( 'NONE', #186, #171, #258, .T. ) ;
#46 = ORIENTED_EDGE ( 'NONE', *, *, #129, .F. ) ;
#47 = AXIS2_PLACEMENT_3D ( 'NONE', #11, #283, #79 ) ;
#48 = EDGE_CURVE ( 'NONE', #263, #187, #76, .T. ) ;
#49 = FACE_OUTER_BOUND ( 'NONE', #143, .T. ) ;
#50 = CARTESIAN_POINT ( 'NONE',  ( 4.377679013270735668E-17, 0.0000000000000000000, 0.3574646188859224583 ) ) ;
#51 = ORIENTED_EDGE ( 'NONE', *, *, #238, .T. ) ;
#52 = AXIS2_PLACEMENT_3D ( 'NONE', #133, #293, #88 ) ;
#53 =( NAMED_UNIT ( * ) SI_UNIT ( $, .STERADIAN. ) SOLID_ANGLE_UNIT ( ) );
#54 = CARTESIAN_POINT ( 'NONE',  ( -0.008990999999999992054, 1.101079937113385097E-18, 0.05399999999999999939 ) ) ;
#55 = CLOSED_SHELL ( 'NONE', ( #80, #2, #130, #290, #241, #154, #19, #116, #282, #109 ) ) ;
#56 = ORIENTED_EDGE ( 'NONE', *, *, #250, .T. ) ;
#57 = CARTESIAN_POINT ( 'NONE',  ( 0.008991000000000005932, 0.0000000000000000000, 0.05399999999999999939 ) ) ;
#58 = ORIENTED_EDGE ( 'NONE', *, *, #129, .T. ) ;
#59 = EDGE_CURVE ( 'NONE', #104, #25, #278, .T. ) ;
#60 = ORIENTED_EDGE ( 'NONE', *, *, #48, .T. ) ;
#61 = CARTESIAN_POINT ( 'NONE',  ( 6.613092715395708853E-18, 0.0000000000000000000, 0.05399999999999999939 ) ) ;
#62 = DIMENSIONAL_EXPONENTS ( 1.000000000000000000, 0.0000000000000000000, 0.0000000000000000000, 0.0000000000000000000, 0.0000000000000000000, 0.0000000000000000000, 0.0000000000000000000 ) ;
#63 = CYLINDRICAL_SURFACE ( 'NONE', #264, 0.008990999999999998993 ) ;
#64 = AXIS2_PLACEMENT_3D ( 'NONE', #15, #227, #128 ) ;
#65 = PRODUCT_RELATED_PRODUCT_CATEGORY ( 'part', '', ( #183 ) ) ;
#66 = CARTESIAN_POINT ( 'NONE',  ( 0.0000000000000000000, 0.0000000000000000000, 1.500000000000000222 ) ) ;
#67 = AXIS2_PLACEMENT_3D ( 'NONE', #216, #6, #222 ) ;
#68 = LINE ( 'NONE', #245, #152 ) ;
#69 = AXIS2_PLACEMENT_3D ( 'NONE', #286, #160, #198 ) ;
#70 = PRODUCT_CONTEXT ( 'NONE', #174, 'mechanical' ) ;
#71 = CARTESIAN_POINT ( 'NONE',  ( 0.008990999999999997258, 1.101079937113385097E-18, 0.0000000000000000000 ) ) ;
#72 = CARTESIAN_POINT ( 'NONE',  ( -0.04750000000000064587, 0.0000000000000000000, 1.500000000000000222 ) ) ;
#73 = MECHANICAL_DESIGN_GEOMETRIC_PRESENTATION_REPRESENTATION (  '', ( #207 ), #162 ) ;
#74 = PRODUCT_DEFINITION ( 'UNKNOWN', '', #246, #43 ) ;
#75 = EDGE_CURVE ( 'NONE', #218, #263, #68, .T. ) ;
#76 = LINE ( 'NONE', #144, #208 ) ;
#77 = VECTOR ( 'NONE', #110, 39.37007874015748143 ) ;
#78 = DIRECTION ( 'NONE',  ( 1.000000000000000000, 0.0000000000000000000, 0.0000000000000000000 ) ) ;
#79 = DIRECTION ( 'NONE',  ( -1.000000000000000000, 0.0000000000000000000, 0.0000000000000000000 ) ) ;
#80 = ADVANCED_FACE ( 'NONE', ( #173 ), #63, .T. ) ;
#81 = SURFACE_STYLE_USAGE ( .BOTH. , #262 ) ;
#82 = ORIENTED_EDGE ( 'NONE', *, *, #75, .T. ) ;
#83 = AXIS2_PLACEMENT_3D ( 'NONE', #254, #161, #106 ) ;
#84 = CYLINDRICAL_SURFACE ( 'NONE', #297, 0.06250000000000002776 ) ;
#85 = CARTESIAN_POINT ( 'NONE',  ( 0.0000000000000000000, 0.0000000000000000000, 0.0000000000000000000 ) ) ;
#86 = DIRECTION ( 'NONE',  ( 0.7071067811865462405, 8.659560562354916834E-17, -0.7071067811865486830 ) ) ;
#87 =( NAMED_UNIT ( * ) PLANE_ANGLE_UNIT ( ) SI_UNIT ( $, .RADIAN. ) );
#88 = DIRECTION ( 'NONE',  ( -1.000000000000000000, 0.0000000000000000000, 0.0000000000000000000 ) ) ;
#89 = DIRECTION ( 'NONE',  ( -0.7071067811865462405, 0.0000000000000000000, -0.7071067811865486830 ) ) ;
#90 = DIRECTION ( 'NONE',  ( -1.224646799147353454E-16, -0.0000000000000000000, -1.000000000000000000 ) ) ;
#91 = VECTOR ( 'NONE', #289, 39.37007874015748143 ) ;
#92 = EDGE_CURVE ( 'NONE', #232, #263, #271, .T. ) ;
#93 = PRESENTATION_STYLE_ASSIGNMENT (( #29 ) ) ;
#94 = CONICAL_SURFACE ( 'NONE', #131, 0.008990999999999998993, 0.1745329251994338915 ) ;
#95 = DIRECTION ( 'NONE',  ( -0.0000000000000000000, -0.0000000000000000000, -1.000000000000000000 ) ) ;
#96 = EDGE_CURVE ( 'NONE', #25, #104, #140, .T. ) ;
#97 = EDGE_CURVE ( 'NONE', #186, #10, #181, .T. ) ;
#98 = ORIENTED_EDGE ( 'NONE', *, *, #179, .T. ) ;
#99 = CARTESIAN_POINT ( 'NONE',  ( 0.04750000000000064587, 6.735557395310483192E-18, 1.500000000000000222 ) ) ;
#100 = ORIENTED_EDGE ( 'NONE', *, *, #59, .T. ) ;
#101 = COLOUR_RGB ( '',0.7921568627450980005, 0.8196078431372548767, 0.9333333333333333481 ) ;
#102 = CARTESIAN_POINT ( 'NONE',  ( -0.06249999999999997918, 0.0000000000000000000, 0.3574646188859224583 ) ) ;
#103 = LENGTH_MEASURE_WITH_UNIT ( LENGTH_MEASURE( 0.02539999999999999897 ), #180 );
#104 = VERTEX_POINT ( 'NONE', #151 ) ;
#105 = ORIENTED_EDGE ( 'NONE', *, *, #75, .F. ) ;
#106 = DIRECTION ( 'NONE',  ( 1.000000000000000000, 0.0000000000000000000, 0.0000000000000000000 ) ) ;
#107 = CONICAL_SURFACE ( 'NONE', #17, 0.008990999999999998993, 0.1745329251994338915 ) ;
#108 = CARTESIAN_POINT ( 'NONE',  ( 0.0000000000000000000, 0.0000000000000000000, 1.500000000000000222 ) ) ;
#109 = ADVANCED_FACE ( 'NONE', ( #197 ), #176, .F. ) ;
#110 = DIRECTION ( 'NONE',  ( -0.0000000000000000000, -0.0000000000000000000, -1.000000000000000000 ) ) ;
#111 = CYLINDRICAL_SURFACE ( 'NONE', #52, 0.06250000000000002776 ) ;
#112 = EDGE_CURVE ( 'NONE', #10, #25, #195, .T. ) ;
#113 = DIRECTION ( 'NONE',  ( 0.0000000000000000000, 0.0000000000000000000, -1.000000000000000000 ) ) ;
#114 = CARTESIAN_POINT ( 'NONE',  ( 0.0000000000000000000, 0.0000000000000000000, 1.500000000000000222 ) ) ;
#115 = CIRCLE ( 'NONE', #69, 0.06250000000000002776 ) ;
#116 = ADVANCED_FACE ( 'NONE', ( #18 ), #94, .T. ) ;
#117 = SHAPE_DEFINITION_REPRESENTATION ( #141, #41 ) ;
#118 = ORIENTED_EDGE ( 'NONE', *, *, #275, .F. ) ;
#119 = AXIS2_PLACEMENT_3D ( 'NONE', #66, #158, #26 ) ;
#120 = EDGE_CURVE ( 'NONE', #218, #212, #164, .T. ) ;
#121 =( CONVERSION_BASED_UNIT ( 'INCH', #103 ) LENGTH_UNIT ( ) NAMED_UNIT ( #291 ) );
#122 = ORIENTED_EDGE ( 'NONE', *, *, #194, .T. ) ;
#123 = ORIENTED_EDGE ( 'NONE', *, *, #92, .F. ) ;
#124 = DIRECTION ( 'NONE',  ( -1.224646799147353454E-16, -0.0000000000000000000, -1.000000000000000000 ) ) ;
#125 = MECHANICAL_DESIGN_GEOMETRIC_PRESENTATION_REPRESENTATION (  '', ( #8 ), #200 ) ;
#126 = CARTESIAN_POINT ( 'NONE',  ( 1.348434020591276327E-34, 0.0000000000000000000, 1.101079937113385097E-18 ) ) ;
#127 = FACE_OUTER_BOUND ( 'NONE', #217, .T. ) ;
#128 = DIRECTION ( 'NONE',  ( -1.000000000000000000, 0.0000000000000000000, 0.0000000000000000000 ) ) ;
#129 = EDGE_CURVE ( 'NONE', #212, #232, #221, .T. ) ;
#130 = ADVANCED_FACE ( 'NONE', ( #299 ), #32, .T. ) ;
#131 = AXIS2_PLACEMENT_3D ( 'NONE', #61, #136, #204 ) ;
#132 = CARTESIAN_POINT ( 'NONE',  ( -0.06250000000000002776, 0.0000000000000000000, 1.500000000000000222 ) ) ;
#133 = CARTESIAN_POINT ( 'NONE',  ( 0.0000000000000000000, 0.0000000000000000000, 1.500000000000000222 ) ) ;
#134 = CARTESIAN_POINT ( 'NONE',  ( 0.06250000000000006939, 7.654042494670963708E-18, 0.3574646188859224583 ) ) ;
#135 = UNCERTAINTY_MEASURE_WITH_UNIT (LENGTH_MEASURE( 1.000000000000000082E-05 ), #121, 'distance_accuracy_value', 'NONE');
#136 = DIRECTION ( 'NONE',  ( 1.224646799147353454E-16, 0.0000000000000000000, 1.000000000000000000 ) ) ;
#137 = ORIENTED_EDGE ( 'NONE', *, *, #179, .F. ) ;
#138 = UNCERTAINTY_MEASURE_WITH_UNIT (LENGTH_MEASURE( 1.000000000000000082E-05 ), #228, 'distance_accuracy_value', 'NONE');
#139 = EDGE_CURVE ( 'NONE', #232, #171, #38, .T. ) ;
#140 = CIRCLE ( 'NONE', #188, 0.008990999999999997258 ) ;
#141 = PRODUCT_DEFINITION_SHAPE ( 'NONE', 'NONE',  #74 ) ;
#142 = DIRECTION ( 'NONE',  ( 1.000000000000000000, 0.0000000000000000000, 0.0000000000000000000 ) ) ;
#143 = EDGE_LOOP ( 'NONE', ( #287, #122, #210, #184 ) ) ;
#144 = CARTESIAN_POINT ( 'NONE',  ( 0.06250000000000002776, 7.654042494670959086E-18, 1.500000000000000222 ) ) ;
#145 = ORIENTED_EDGE ( 'NONE', *, *, #97, .T. ) ;
#146 = ORIENTED_EDGE ( 'NONE', *, *, #45, .T. ) ;
#147 = CARTESIAN_POINT ( 'NONE',  ( 0.0000000000000000000, 0.0000000000000000000, 1.500000000000000222 ) ) ;
#148 = ORIENTED_EDGE ( 'NONE', *, *, #45, .F. ) ;
#149 = DIRECTION ( 'NONE',  ( 0.0000000000000000000, 0.0000000000000000000, 1.000000000000000000 ) ) ;
#150 = PRESENTATION_LAYER_ASSIGNMENT (  '', '', ( #207 ) ) ;
#151 = CARTESIAN_POINT ( 'NONE',  ( -0.008990999999999997258, 0.0000000000000000000, 2.202159874226770194E-18 ) ) ;
#152 = VECTOR ( 'NONE', #86, 39.37007874015748854 ) ;
#153 = CARTESIAN_POINT ( 'NONE',  ( 0.0000000000000000000, 0.0000000000000000000, 0.0000000000000000000 ) ) ;
#154 = ADVANCED_FACE ( 'NONE', ( #199 ), #294, .T. ) ;
#155 = AXIS2_PLACEMENT_3D ( 'NONE', #50, #182, #270 ) ;
#156 = CARTESIAN_POINT ( 'NONE',  ( -0.06250000000000002776, 0.0000000000000000000, 1.485000000000000764 ) ) ;
#157 = FILL_AREA_STYLE_COLOUR ( '', #255 ) ;
#158 = DIRECTION ( 'NONE',  ( 0.0000000000000000000, 0.0000000000000000000, 1.000000000000000000 ) ) ;
#159 = EDGE_LOOP ( 'NONE', ( #244, #146, #237, #137 ) ) ;
#160 = DIRECTION ( 'NONE',  ( 0.0000000000000000000, 0.0000000000000000000, -1.000000000000000000 ) ) ;
#161 = DIRECTION ( 'NONE',  ( 0.0000000000000000000, 0.0000000000000000000, -1.000000000000000000 ) ) ;
#162 =( GEOMETRIC_REPRESENTATION_CONTEXT ( 3 ) GLOBAL_UNCERTAINTY_ASSIGNED_CONTEXT ( ( #135 ) ) GLOBAL_UNIT_ASSIGNED_CONTEXT ( ( #121, #233, #53 ) ) REPRESENTATION_CONTEXT ( 'NONE', 'WORKASPACE' ) );
#163 = LINE ( 'NONE', #4, #13 ) ;
#164 = CIRCLE ( 'NONE', #253, 0.04750000000000064587 ) ;
#165 = SURFACE_SIDE_STYLE ('',( #22 ) ) ;
#166 = EDGE_LOOP ( 'NONE', ( #170, #60, #118, #277 ) ) ;
#167 = ORIENTED_EDGE ( 'NONE', *, *, #225, .F. ) ;
#168 = AXIS2_PLACEMENT_3D ( 'NONE', #177, #113, #247 ) ;
#169 = EDGE_LOOP ( 'NONE', ( #100, #33 ) ) ;
#170 = ORIENTED_EDGE ( 'NONE', *, *, #92, .T. ) ;
#171 = VERTEX_POINT ( 'NONE', #102 ) ;
#172 = CARTESIAN_POINT ( 'NONE',  ( 0.008990999999999998993, 1.101079937113385097E-18, -1.101079937113385289E-18 ) ) ;
#173 = FACE_OUTER_BOUND ( 'NONE', #265, .T. ) ;
#174 = APPLICATION_CONTEXT ( 'automotive_design' ) ;
#175 = CARTESIAN_POINT ( 'NONE',  ( 0.06250000000000002776, 7.654042494670959086E-18, 1.485000000000000764 ) ) ;
#176 = PLANE ( 'NONE',  #231 ) ;
#177 = CARTESIAN_POINT ( 'NONE',  ( 0.0000000000000000000, 0.0000000000000000000, 1.500000000000000222 ) ) ;
#178 = AXIS2_PLACEMENT_3D ( 'NONE', #114, #280, #142 ) ;
#179 = EDGE_CURVE ( 'NONE', #10, #187, #272, .T. ) ;
#180 =( LENGTH_UNIT ( ) NAMED_UNIT ( * ) SI_UNIT ( $, .METRE. ) );
#181 = CIRCLE ( 'NONE', #64, 0.008990999999999998993 ) ;
#182 = DIRECTION ( 'NONE',  ( -1.224646799147353454E-16, -0.0000000000000000000, -1.000000000000000000 ) ) ;
#183 = PRODUCT ( 'Micro_RME-018-2', 'Micro_RME-018-2', '', ( #70 ) ) ;
#184 = ORIENTED_EDGE ( 'NONE', *, *, #96, .F. ) ;
#185 = DIRECTION ( 'NONE',  ( -1.000000000000000000, 0.0000000000000000000, 0.0000000000000000000 ) ) ;
#186 = VERTEX_POINT ( 'NONE', #192 ) ;
#187 = VERTEX_POINT ( 'NONE', #134 ) ;
#188 = AXIS2_PLACEMENT_3D ( 'NONE', #266, #268, #36 ) ;
#189 = APPLICATION_PROTOCOL_DEFINITION ( 'draft international standard', 'automotive_design', 1998, #191 ) ;
#190 = ORIENTED_EDGE ( 'NONE', *, *, #194, .F. ) ;
#191 = APPLICATION_CONTEXT ( 'automotive_design' ) ;
#192 = CARTESIAN_POINT ( 'NONE',  ( -0.008990999999999992054, 4.377561215892172573E-18, 0.05399999999999999939 ) ) ;
#193 = EDGE_LOOP ( 'NONE', ( #209, #82, #123, #46 ) ) ;
#194 = EDGE_CURVE ( 'NONE', #10, #186, #196, .T. ) ;
#195 = LINE ( 'NONE', #172, #91 ) ;
#196 = CIRCLE ( 'NONE', #67, 0.008990999999999998993 ) ;
#197 = FACE_OUTER_BOUND ( 'NONE', #169, .T. ) ;
#198 = DIRECTION ( 'NONE',  ( 1.000000000000000000, 0.0000000000000000000, 0.0000000000000000000 ) ) ;
#199 = FACE_OUTER_BOUND ( 'NONE', #28, .T. ) ;
#200 =( GEOMETRIC_REPRESENTATION_CONTEXT ( 3 ) GLOBAL_UNCERTAINTY_ASSIGNED_CONTEXT ( ( #138 ) ) GLOBAL_UNIT_ASSIGNED_CONTEXT ( ( #228, #87, #223 ) ) REPRESENTATION_CONTEXT ( 'NONE', 'WORKASPACE' ) );
#201 = CARTESIAN_POINT ( 'NONE',  ( 0.008991000000000005932, 0.0000000000000000000, 0.05399999999999999939 ) ) ;
#202 = CIRCLE ( 'NONE', #178, 0.04750000000000064587 ) ;
#203 = APPLICATION_PROTOCOL_DEFINITION ( 'draft international standard', 'automotive_design', 1998, #174 ) ;
#204 = DIRECTION ( 'NONE',  ( 1.000000000000000000, 0.0000000000000000000, 0.0000000000000000000 ) ) ;
#205 = PRESENTATION_STYLE_ASSIGNMENT (( #81 ) ) ;
#206 = ORIENTED_EDGE ( 'NONE', *, *, #238, .F. ) ;
#207 = STYLED_ITEM ( 'NONE', ( #93 ), #41 ) ;
#208 = VECTOR ( 'NONE', #239, 39.37007874015748143 ) ;
#209 = ORIENTED_EDGE ( 'NONE', *, *, #120, .F. ) ;
#210 = ORIENTED_EDGE ( 'NONE', *, *, #225, .T. ) ;
#211 = DIRECTION ( 'NONE',  ( 0.1736481776669313859, 0.0000000000000000000, 0.9848077530122077983 ) ) ;
#212 = VERTEX_POINT ( 'NONE', #72 ) ;
#213 =( GEOMETRIC_REPRESENTATION_CONTEXT ( 3 ) GLOBAL_UNCERTAINTY_ASSIGNED_CONTEXT ( ( #298 ) ) GLOBAL_UNIT_ASSIGNED_CONTEXT ( ( #281, #21, #224 ) ) REPRESENTATION_CONTEXT ( 'NONE', 'WORKASPACE' ) );
#214 = ORIENTED_EDGE ( 'NONE', *, *, #112, .T. ) ;
#215 = PRESENTATION_LAYER_ASSIGNMENT (  '', '', ( #8 ) ) ;
#216 = CARTESIAN_POINT ( 'NONE',  ( 6.613092715395708853E-18, 0.0000000000000000000, 0.05399999999999999939 ) ) ;
#217 = EDGE_LOOP ( 'NONE', ( #105, #206, #58, #240 ) ) ;
#218 = VERTEX_POINT ( 'NONE', #99 ) ;
#219 = DIRECTION ( 'NONE',  ( 0.0000000000000000000, 0.0000000000000000000, 1.000000000000000000 ) ) ;
#220 = CONICAL_SURFACE ( 'NONE', #47, 0.04750000000000064587, 0.7853981633974466137 ) ;
#221 = LINE ( 'NONE', #292, #236 ) ;
#222 = DIRECTION ( 'NONE',  ( -1.000000000000000000, 0.0000000000000000000, 0.0000000000000000000 ) ) ;
#223 =( NAMED_UNIT ( * ) SI_UNIT ( $, .STERADIAN. ) SOLID_ANGLE_UNIT ( ) );
#224 =( NAMED_UNIT ( * ) SI_UNIT ( $, .STERADIAN. ) SOLID_ANGLE_UNIT ( ) );
#225 = EDGE_CURVE ( 'NONE', #186, #104, #163, .T. ) ;
#226 = DIRECTION ( 'NONE',  ( -1.000000000000000000, 0.0000000000000000000, 1.224646799147353454E-16 ) ) ;
#227 = DIRECTION ( 'NONE',  ( -1.224646799147353454E-16, -0.0000000000000000000, -1.000000000000000000 ) ) ;
#228 =( CONVERSION_BASED_UNIT ( 'INCH', #295 ) LENGTH_UNIT ( ) NAMED_UNIT ( #37 ) );
#229 = CIRCLE ( 'NONE', #155, 0.06250000000000002776 ) ;
#230 = DIRECTION ( 'NONE',  ( 1.000000000000000000, 0.0000000000000000000, 0.0000000000000000000 ) ) ;
#231 = AXIS2_PLACEMENT_3D ( 'NONE', #85, #219, #279 ) ;
#232 = VERTEX_POINT ( 'NONE', #156 ) ;
#233 =( NAMED_UNIT ( * ) PLANE_ANGLE_UNIT ( ) SI_UNIT ( $, .RADIAN. ) );
#234 = ORIENTED_EDGE ( 'NONE', *, *, #59, .F. ) ;
#235 = AXIS2_PLACEMENT_3D ( 'NONE', #153, #256, #226 ) ;
#236 = VECTOR ( 'NONE', #89, 39.37007874015748854 ) ;
#237 = ORIENTED_EDGE ( 'NONE', *, *, #275, .T. ) ;
#238 = EDGE_CURVE ( 'NONE', #212, #218, #202, .T. ) ;
#239 = DIRECTION ( 'NONE',  ( -0.0000000000000000000, -0.0000000000000000000, -1.000000000000000000 ) ) ;
#240 = ORIENTED_EDGE ( 'NONE', *, *, #250, .F. ) ;
#241 = ADVANCED_FACE ( 'NONE', ( #12 ), #84, .T. ) ;
#242 = CARTESIAN_POINT ( 'NONE',  ( 0.0000000000000000000, 0.0000000000000000000, 0.0000000000000000000 ) ) ;
#243 = DIRECTION ( 'NONE',  ( 1.224646799147353454E-16, 0.0000000000000000000, 1.000000000000000000 ) ) ;
#244 = ORIENTED_EDGE ( 'NONE', *, *, #97, .F. ) ;
#245 = CARTESIAN_POINT ( 'NONE',  ( 0.04750000000000064587, 5.817072295950006528E-18, 1.500000000000000222 ) ) ;
#246 = PRODUCT_DEFINITION_FORMATION_WITH_SPECIFIED_SOURCE ( 'ANY', '', #183, .NOT_KNOWN. ) ;
#247 = DIRECTION ( 'NONE',  ( -1.000000000000000000, 0.0000000000000000000, 0.0000000000000000000 ) ) ;
#248 =( LENGTH_UNIT ( ) NAMED_UNIT ( * ) SI_UNIT ( $, .METRE. ) );
#249 = CARTESIAN_POINT ( 'NONE',  ( 4.377679013270735668E-17, 0.0000000000000000000, 0.3574646188859224583 ) ) ;
#250 = EDGE_CURVE ( 'NONE', #263, #232, #115, .T. ) ;
#251 = MANIFOLD_SOLID_BREP ( 'Cut-Revolve1', #55 ) ;
#252 = FILL_AREA_STYLE ('',( #157 ) ) ;
#253 = AXIS2_PLACEMENT_3D ( 'NONE', #108, #149, #276 ) ;
#254 = CARTESIAN_POINT ( 'NONE',  ( 0.0000000000000000000, 0.0000000000000000000, 1.485000000000000764 ) ) ;
#255 = COLOUR_RGB ( '',0.7921568627450980005, 0.8196078431372548767, 0.9333333333333333481 ) ;
#256 = DIRECTION ( 'NONE',  ( -1.224646799147353454E-16, -0.0000000000000000000, -1.000000000000000000 ) ) ;
#257 = SURFACE_STYLE_FILL_AREA ( #1 ) ;
#258 = LINE ( 'NONE', #54, #42 ) ;
#259 = ORIENTED_EDGE ( 'NONE', *, *, #48, .F. ) ;
#260 = DIRECTION ( 'NONE',  ( 1.000000000000000000, 0.0000000000000000000, 0.0000000000000000000 ) ) ;
#261 = ORIENTED_EDGE ( 'NONE', *, *, #269, .F. ) ;
#262 = SURFACE_SIDE_STYLE ('',( #257 ) ) ;
#263 = VERTEX_POINT ( 'NONE', #175 ) ;
#264 = AXIS2_PLACEMENT_3D ( 'NONE', #14, #90, #44 ) ;
#265 = EDGE_LOOP ( 'NONE', ( #145, #214, #234, #167 ) ) ;
#266 = CARTESIAN_POINT ( 'NONE',  ( 1.348434020591276327E-34, 0.0000000000000000000, 1.101079937113385097E-18 ) ) ;
#267 = DIRECTION ( 'NONE',  ( -1.224646799147353454E-16, -0.0000000000000000000, -1.000000000000000000 ) ) ;
#268 = DIRECTION ( 'NONE',  ( -1.224646799147353454E-16, -0.0000000000000000000, -1.000000000000000000 ) ) ;
#269 = EDGE_CURVE ( 'NONE', #187, #171, #40, .T. ) ;
#270 = DIRECTION ( 'NONE',  ( 1.000000000000000000, 0.0000000000000000000, 0.0000000000000000000 ) ) ;
#271 = CIRCLE ( 'NONE', #83, 0.06250000000000002776 ) ;
#272 = LINE ( 'NONE', #201, #24 ) ;
#273 = FILL_AREA_STYLE_COLOUR ( '', #101 ) ;
#274 = LENGTH_MEASURE_WITH_UNIT ( LENGTH_MEASURE( 0.02539999999999999897 ), #248 );
#275 = EDGE_CURVE ( 'NONE', #171, #187, #229, .T. ) ;
#276 = DIRECTION ( 'NONE',  ( 1.000000000000000000, 0.0000000000000000000, 0.0000000000000000000 ) ) ;
#277 = ORIENTED_EDGE ( 'NONE', *, *, #139, .F. ) ;
#278 = CIRCLE ( 'NONE', #3, 0.008990999999999997258 ) ;
#279 = DIRECTION ( 'NONE',  ( 1.000000000000000000, 0.0000000000000000000, -0.0000000000000000000 ) ) ;
#280 = DIRECTION ( 'NONE',  ( 0.0000000000000000000, 0.0000000000000000000, 1.000000000000000000 ) ) ;
#281 =( CONVERSION_BASED_UNIT ( 'INCH', #274 ) LENGTH_UNIT ( ) NAMED_UNIT ( #62 ) );
#282 = ADVANCED_FACE ( 'NONE', ( #49 ), #296, .T. ) ;
#283 = DIRECTION ( 'NONE',  ( 0.0000000000000000000, 0.0000000000000000000, -1.000000000000000000 ) ) ;
#284 = DIRECTION ( 'NONE',  ( -0.1736481776669311916, 2.126576849575783316E-17, 0.9848077530122080203 ) ) ;
#285 = CARTESIAN_POINT ( 'NONE',  ( 6.613092715395708853E-18, 0.0000000000000000000, 0.05399999999999999939 ) ) ;
#286 = CARTESIAN_POINT ( 'NONE',  ( 0.0000000000000000000, 0.0000000000000000000, 1.485000000000000764 ) ) ;
#287 = ORIENTED_EDGE ( 'NONE', *, *, #112, .F. ) ;
#288 = EDGE_LOOP ( 'NONE', ( #148, #190, #98, #34 ) ) ;
#289 = DIRECTION ( 'NONE',  ( -1.224646799147353454E-16, -0.0000000000000000000, -1.000000000000000000 ) ) ;
#290 = ADVANCED_FACE ( 'NONE', ( #16 ), #111, .T. ) ;
#291 = DIMENSIONAL_EXPONENTS ( 1.000000000000000000, 0.0000000000000000000, 0.0000000000000000000, 0.0000000000000000000, 0.0000000000000000000, 0.0000000000000000000, 0.0000000000000000000 ) ;
#292 = CARTESIAN_POINT ( 'NONE',  ( -0.04750000000000064587, 0.0000000000000000000, 1.500000000000000222 ) ) ;
#293 = DIRECTION ( 'NONE',  ( -0.0000000000000000000, -0.0000000000000000000, -1.000000000000000000 ) ) ;
#294 = PLANE ( 'NONE',  #119 ) ;
#295 = LENGTH_MEASURE_WITH_UNIT ( LENGTH_MEASURE( 0.02539999999999999897 ), #35 );
#296 = CYLINDRICAL_SURFACE ( 'NONE', #235, 0.008990999999999998993 ) ;
#297 = AXIS2_PLACEMENT_3D ( 'NONE', #147, #95, #185 ) ;
#298 = UNCERTAINTY_MEASURE_WITH_UNIT (LENGTH_MEASURE( 1.000000000000000082E-05 ), #281, 'distance_accuracy_value', 'NONE');
#299 = FACE_OUTER_BOUND ( 'NONE', #193, .T. ) ;
ENDSEC;
END-ISO-10303-21;
