ISO-10303-21;
HEADER;
FILE_DESCRIPTION (( 'STEP AP214' ),
    '1' );
FILE_NAME ('07036.STEP',
    '2023-07-12T13:05:29',
    ( '' ),
    ( '' ),
    'SwSTEP 2.0',
    'SolidWorks 2023',
    '' );
FILE_SCHEMA (( 'AUTOMOTIVE_DESIGN' ));
ENDSEC;

DATA;
#1 = APPLICATION_PROTOCOL_DEFINITION ( 'draft international standard', 'automotive_design', 1998, #249 ) ;
#2 = CONICAL_SURFACE ( 'NONE', #282, 0.04499999999999999833, 1.047197551196600074 ) ;
#3 = ORIENTED_EDGE ( 'NONE', *, *, #154, .F. ) ;
#4 = SURFACE_STYLE_USAGE ( .BOTH. , #137 ) ;
#5 = ORIENTED_EDGE ( 'NONE', *, *, #87, .T. ) ;
#6 = ORIENTED_EDGE ( 'NONE', *, *, #136, .T. ) ;
#7 = AXIS2_PLACEMENT_3D ( 'NONE', #172, #272, #195 ) ;
#8 = UNCERTAINTY_MEASURE_WITH_UNIT (LENGTH_MEASURE( 1.000000000000000082E-05 ), #208, 'distance_accuracy_value', 'NONE');
#9 = DIRECTION ( 'NONE',  ( 1.877709007212652660E-17, 1.000000000000000000, 0.000000000000000000 ) ) ;
#10 = DIRECTION ( 'NONE',  ( -1.445235866196893338E-16, 1.000000000000000000, -0.000000000000000000 ) ) ;
#11 = DIMENSIONAL_EXPONENTS ( 1.000000000000000000, 0.000000000000000000, 0.000000000000000000, 0.000000000000000000, 0.000000000000000000, 0.000000000000000000, 0.000000000000000000 ) ;
#12 = CARTESIAN_POINT ( 'NONE',  ( 0.3125000000000000000, 3.000000000000000444, 3.827021247335478926E-17 ) ) ;
#13 = DIRECTION ( 'NONE',  ( 1.000000000000000000, -1.877709007212652660E-17, 0.000000000000000000 ) ) ;
#14 = AXIS2_PLACEMENT_3D ( 'NONE', #19, #265, #234 ) ;
#15 = FACE_OUTER_BOUND ( 'NONE', #187, .T. ) ;
#16 =( LENGTH_UNIT ( ) NAMED_UNIT ( * ) SI_UNIT ( $, .METRE. ) );
#17 = EDGE_CURVE ( 'NONE', #257, #290, #72, .T. ) ;
#18 =( NAMED_UNIT ( * ) SI_UNIT ( $, .STERADIAN. ) SOLID_ANGLE_UNIT ( ) );
#19 = CARTESIAN_POINT ( 'NONE',  ( 3.500180241882337064E-16, 0.1544411970082242846, 0.000000000000000000 ) ) ;
#20 = CIRCLE ( 'NONE', #287, 0.04499999999999999833 ) ;
#21 = COLOUR_RGB ( '',1.000000000000000000, 0.000000000000000000, 0.000000000000000000 ) ;
#22 = SHAPE_DEFINITION_REPRESENTATION ( #253, #25 ) ;
#23 = FACE_OUTER_BOUND ( 'NONE', #209, .T. ) ;
#24 =( NAMED_UNIT ( * ) SI_UNIT ( $, .STERADIAN. ) SOLID_ANGLE_UNIT ( ) );
#25 = ADVANCED_BREP_SHAPE_REPRESENTATION ( '07036', ( #239, #48, #46 ), #111 ) ;
#26 = ORIENTED_EDGE ( 'NONE', *, *, #151, .T. ) ;
#27 = ORIENTED_EDGE ( 'NONE', *, *, #179, .F. ) ;
#28 = PRESENTATION_STYLE_ASSIGNMENT (( #97 ) ) ;
#29 = DIMENSIONAL_EXPONENTS ( 1.000000000000000000, 0.000000000000000000, 0.000000000000000000, 0.000000000000000000, 0.000000000000000000, 0.000000000000000000, 0.000000000000000000 ) ;
#30 = PLANE ( 'NONE',  #155 ) ;
#31 = CARTESIAN_POINT ( 'NONE',  ( -0.3124999999999999445, 3.000000000000000444, 0.000000000000000000 ) ) ;
#32 = DIRECTION ( 'NONE',  ( -1.877709007212652660E-17, -1.000000000000000000, -0.000000000000000000 ) ) ;
#33 =( NAMED_UNIT ( * ) PLANE_ANGLE_UNIT ( ) SI_UNIT ( $, .RADIAN. ) );
#34 = EDGE_CURVE ( 'NONE', #255, #257, #132, .T. ) ;
#35 = PRESENTATION_LAYER_ASSIGNMENT (  '', '', ( #177 ) ) ;
#36 = MECHANICAL_DESIGN_GEOMETRIC_PRESENTATION_REPRESENTATION (  '', ( #227 ), #243 ) ;
#37 = PLANE ( 'NONE',  #52 ) ;
#38 = UNCERTAINTY_MEASURE_WITH_UNIT (LENGTH_MEASURE( 1.000000000000000082E-05 ), #116, 'distance_accuracy_value', 'NONE');
#39 = EDGE_CURVE ( 'NONE', #257, #255, #20, .T. ) ;
#40 = SURFACE_STYLE_FILL_AREA ( #78 ) ;
#41 = COLOUR_RGB ( '',0.7921568627450980005, 0.8196078431372548767, 0.9333333333333333481 ) ;
#42 = CARTESIAN_POINT ( 'NONE',  ( -0.3125000000000001665, 3.000000000000000444, 0.000000000000000000 ) ) ;
#43 = CARTESIAN_POINT ( 'NONE',  ( -0.3124999999999993339, 0.1544411970082242569, 0.000000000000000000 ) ) ;
#44 = ORIENTED_EDGE ( 'NONE', *, *, #39, .F. ) ;
#45 = AXIS2_PLACEMENT_3D ( 'NONE', #102, #194, #298 ) ;
#46 = AXIS2_PLACEMENT_3D ( 'NONE', #183, #202, #251 ) ;
#47 = DIRECTION ( 'NONE',  ( 1.877709007212652660E-17, 1.000000000000000000, 0.000000000000000000 ) ) ;
#48 = MANIFOLD_SOLID_BREP ( 'Revolve - Tool Body (Tipped Off)', #127 ) ;
#49 = EDGE_CURVE ( 'NONE', #142, #290, #60, .T. ) ;
#50 = FILL_AREA_STYLE_COLOUR ( '', #225 ) ;
#51 = ORIENTED_EDGE ( 'NONE', *, *, #39, .T. ) ;
#52 = AXIS2_PLACEMENT_3D ( 'NONE', #148, #77, #13 ) ;
#53 = LINE ( 'NONE', #31, #301 ) ;
#54 = ADVANCED_FACE ( 'NONE', ( #15 ), #300, .T. ) ;
#55 = MECHANICAL_DESIGN_GEOMETRIC_PRESENTATION_REPRESENTATION (  '', ( #178 ), #185 ) ;
#56 = SURFACE_SIDE_STYLE ('',( #246 ) ) ;
#57 = UNCERTAINTY_MEASURE_WITH_UNIT (LENGTH_MEASURE( 1.000000000000000082E-05 ), #271, 'distance_accuracy_value', 'NONE');
#58 =( NAMED_UNIT ( * ) PLANE_ANGLE_UNIT ( ) SI_UNIT ( $, .RADIAN. ) );
#59 = DIRECTION ( 'NONE',  ( -1.445235866196893338E-16, 1.000000000000000000, -0.000000000000000000 ) ) ;
#60 = CIRCLE ( 'NONE', #145, 0.3125000000000000000 ) ;
#61 = PRESENTATION_LAYER_ASSIGNMENT (  '', '', ( #277 ) ) ;
#62 = FACE_OUTER_BOUND ( 'NONE', #66, .T. ) ;
#63 = CARTESIAN_POINT ( 'NONE',  ( 2.899956267070461337E-18, 0.1544411970082240904, 0.000000000000000000 ) ) ;
#64 = CARTESIAN_POINT ( 'NONE',  ( -6.123233995736770966E-17, 3.000000000000000444, 0.000000000000000000 ) ) ;
#65 = STYLED_ITEM ( 'NONE', ( #107 ), #54 ) ;
#66 = EDGE_LOOP ( 'NONE', ( #309, #5 ) ) ;
#67 = SURFACE_STYLE_FILL_AREA ( #207 ) ;
#68 = CIRCLE ( 'NONE', #85, 0.3125000000000000555 ) ;
#69 = STYLED_ITEM ( 'NONE', ( #231 ), #196 ) ;
#70 = ORIENTED_EDGE ( 'NONE', *, *, #34, .T. ) ;
#71 = CARTESIAN_POINT ( 'NONE',  ( 0.3125000000000000000, 0.1544411970082243124, 3.827021247335478926E-17 ) ) ;
#72 = LINE ( 'NONE', #264, #166 ) ;
#73 = DIRECTION ( 'NONE',  ( -1.445235866196893338E-16, 1.000000000000000000, -0.000000000000000000 ) ) ;
#74 = PRODUCT_DEFINITION_CONTEXT ( 'detailed design', #93, 'design' ) ;
#75 = FILL_AREA_STYLE_COLOUR ( '', #289 ) ;
#76 =( NAMED_UNIT ( * ) SI_UNIT ( $, .STERADIAN. ) SOLID_ANGLE_UNIT ( ) );
#77 = DIRECTION ( 'NONE',  ( -1.877709007212652660E-17, -1.000000000000000000, 0.000000000000000000 ) ) ;
#78 = FILL_AREA_STYLE ('',( #147 ) ) ;
#79 = DIRECTION ( 'NONE',  ( 1.445235866196893338E-16, -1.000000000000000000, 0.000000000000000000 ) ) ;
#80 = DIRECTION ( 'NONE',  ( -1.445235866196893338E-16, 1.000000000000000000, -0.000000000000000000 ) ) ;
#81 = PRESENTATION_STYLE_ASSIGNMENT (( #103 ) ) ;
#82 = CARTESIAN_POINT ( 'NONE',  ( 1.586606002095386470E-35, 8.449690532456936238E-19, 0.000000000000000000 ) ) ;
#83 =( NAMED_UNIT ( * ) SI_UNIT ( $, .STERADIAN. ) SOLID_ANGLE_UNIT ( ) );
#84 = DIRECTION ( 'NONE',  ( -1.445235866196893338E-16, 1.000000000000000000, -0.000000000000000000 ) ) ;
#85 = AXIS2_PLACEMENT_3D ( 'NONE', #170, #80, #217 ) ;
#86 = COLOUR_RGB ( '',1.000000000000000000, 0.000000000000000000, 0.000000000000000000 ) ;
#87 = EDGE_CURVE ( 'NONE', #92, #139, #68, .T. ) ;
#88 = PRESENTATION_LAYER_ASSIGNMENT (  '', '', ( #65 ) ) ;
#89 = PRESENTATION_LAYER_ASSIGNMENT (  '', '', ( #69 ) ) ;
#90 = ORIENTED_EDGE ( 'NONE', *, *, #269, .F. ) ;
#91 = CARTESIAN_POINT ( 'NONE',  ( -6.123233995736772199E-17, 3.000000000000000444, 0.000000000000000000 ) ) ;
#92 = VERTEX_POINT ( 'NONE', #12 ) ;
#93 = APPLICATION_CONTEXT ( 'automotive_design' ) ;
#94 = AXIS2_PLACEMENT_3D ( 'NONE', #280, #47, #114 ) ;
#95 = ORIENTED_EDGE ( 'NONE', *, *, #140, .F. ) ;
#96 = DIRECTION ( 'NONE',  ( -1.445235866196893338E-16, 1.000000000000000000, -0.000000000000000000 ) ) ;
#97 = SURFACE_STYLE_USAGE ( .BOTH. , #138 ) ;
#98 = FILL_AREA_STYLE ('',( #50 ) ) ;
#99 = DIMENSIONAL_EXPONENTS ( 1.000000000000000000, 0.000000000000000000, 0.000000000000000000, 0.000000000000000000, 0.000000000000000000, 0.000000000000000000, 0.000000000000000000 ) ;
#100 =( GEOMETRIC_REPRESENTATION_CONTEXT ( 3 ) GLOBAL_UNCERTAINTY_ASSIGNED_CONTEXT ( ( #38 ) ) GLOBAL_UNIT_ASSIGNED_CONTEXT ( ( #116, #158, #76 ) ) REPRESENTATION_CONTEXT ( 'NONE', 'WORKASPACE' ) );
#101 = DIRECTION ( 'NONE',  ( 1.000000000000000000, -1.877709007212652660E-17, 0.000000000000000000 ) ) ;
#102 = CARTESIAN_POINT ( 'NONE',  ( 1.586606002095386470E-35, 8.449690532456936238E-19, 0.000000000000000000 ) ) ;
#103 = SURFACE_STYLE_USAGE ( .BOTH. , #56 ) ;
#104 = ADVANCED_FACE ( 'NONE', ( #190 ), #168, .F. ) ;
#105 = SURFACE_STYLE_USAGE ( .BOTH. , #302 ) ;
#106 = SURFACE_STYLE_USAGE ( .BOTH. , #242 ) ;
#107 = PRESENTATION_STYLE_ASSIGNMENT (( #105 ) ) ;
#108 =( LENGTH_UNIT ( ) NAMED_UNIT ( * ) SI_UNIT ( $, .METRE. ) );
#109 = DIRECTION ( 'NONE',  ( -1.445235866196893338E-16, 1.000000000000000000, -0.000000000000000000 ) ) ;
#110 = PRODUCT ( '07036', '07036', '', ( #230 ) ) ;
#111 =( GEOMETRIC_REPRESENTATION_CONTEXT ( 3 ) GLOBAL_UNCERTAINTY_ASSIGNED_CONTEXT ( ( #8 ) ) GLOBAL_UNIT_ASSIGNED_CONTEXT ( ( #208, #283, #24 ) ) REPRESENTATION_CONTEXT ( 'NONE', 'WORKASPACE' ) );
#112 = EDGE_LOOP ( 'NONE', ( #90, #266 ) ) ;
#113 = EDGE_CURVE ( 'NONE', #139, #92, #258, .T. ) ;
#114 = DIRECTION ( 'NONE',  ( -1.000000000000000000, 1.877709007212652660E-17, 0.000000000000000000 ) ) ;
#115 = ORIENTED_EDGE ( 'NONE', *, *, #179, .T. ) ;
#116 =( CONVERSION_BASED_UNIT ( 'INCH', #291 ) LENGTH_UNIT ( ) NAMED_UNIT ( #164 ) );
#117 = DIRECTION ( 'NONE',  ( -1.877709007212652660E-17, -1.000000000000000000, -0.000000000000000000 ) ) ;
#118 = CYLINDRICAL_SURFACE ( 'NONE', #146, 0.3124999999999998890 ) ;
#119 = DIMENSIONAL_EXPONENTS ( 1.000000000000000000, 0.000000000000000000, 0.000000000000000000, 0.000000000000000000, 0.000000000000000000, 0.000000000000000000, 0.000000000000000000 ) ;
#120 = AXIS2_PLACEMENT_3D ( 'NONE', #64, #109, #152 ) ;
#121 = PRESENTATION_LAYER_ASSIGNMENT (  '', '', ( #178 ) ) ;
#122 = FILL_AREA_STYLE ('',( #124 ) ) ;
#123 = FILL_AREA_STYLE_COLOUR ( '', #86 ) ;
#124 = FILL_AREA_STYLE_COLOUR ( '', #141 ) ;
#125 = LENGTH_MEASURE_WITH_UNIT ( LENGTH_MEASURE( 0.02539999999999999897 ), #108 );
#126 =( NAMED_UNIT ( * ) PLANE_ANGLE_UNIT ( ) SI_UNIT ( $, .RADIAN. ) );
#127 = CLOSED_SHELL ( 'NONE', ( #235, #104, #203, #252 ) ) ;
#128 = AXIS2_PLACEMENT_3D ( 'NONE', #216, #10, #162 ) ;
#129 = CARTESIAN_POINT ( 'NONE',  ( 0.3124999999999998335, 3.000000000000000444, 3.827021247335477078E-17 ) ) ;
#130 = LENGTH_MEASURE_WITH_UNIT ( LENGTH_MEASURE( 0.02539999999999999897 ), #254 );
#131 = ORIENTED_EDGE ( 'NONE', *, *, #269, .T. ) ;
#132 = CIRCLE ( 'NONE', #224, 0.04499999999999999833 ) ;
#133 = ORIENTED_EDGE ( 'NONE', *, *, #113, .F. ) ;
#134 =( GEOMETRIC_REPRESENTATION_CONTEXT ( 3 ) GLOBAL_UNCERTAINTY_ASSIGNED_CONTEXT ( ( #214 ) ) GLOBAL_UNIT_ASSIGNED_CONTEXT ( ( #238, #58, #244 ) ) REPRESENTATION_CONTEXT ( 'NONE', 'WORKASPACE' ) );
#135 = MECHANICAL_DESIGN_GEOMETRIC_PRESENTATION_REPRESENTATION (  '', ( #277 ), #205 ) ;
#136 = EDGE_CURVE ( 'NONE', #255, #142, #250, .T. ) ;
#137 = SURFACE_SIDE_STYLE ('',( #67 ) ) ;
#138 = SURFACE_SIDE_STYLE ('',( #263 ) ) ;
#139 = VERTEX_POINT ( 'NONE', #42 ) ;
#140 = EDGE_CURVE ( 'NONE', #212, #92, #306, .T. ) ;
#141 = COLOUR_RGB ( '',1.000000000000000000, 0.000000000000000000, 0.000000000000000000 ) ;
#142 = VERTEX_POINT ( 'NONE', #176 ) ;
#143 =( NAMED_UNIT ( * ) PLANE_ANGLE_UNIT ( ) SI_UNIT ( $, .RADIAN. ) );
#144 = DIRECTION ( 'NONE',  ( 1.000000000000000000, 1.445235866196893338E-16, 0.000000000000000000 ) ) ;
#145 = AXIS2_PLACEMENT_3D ( 'NONE', #63, #192, #296 ) ;
#146 = AXIS2_PLACEMENT_3D ( 'NONE', #91, #96, #167 ) ;
#147 = FILL_AREA_STYLE_COLOUR ( '', #41 ) ;
#148 = CARTESIAN_POINT ( 'NONE',  ( 7.933030010476932351E-36, 4.224845266228468119E-19, 0.000000000000000000 ) ) ;
#149 = DIMENSIONAL_EXPONENTS ( 1.000000000000000000, 0.000000000000000000, 0.000000000000000000, 0.000000000000000000, 0.000000000000000000, 0.000000000000000000, 0.000000000000000000 ) ;
#150 = CARTESIAN_POINT ( 'NONE',  ( 3.500180241882337064E-16, 0.1544411970082242846, 0.000000000000000000 ) ) ;
#151 = EDGE_CURVE ( 'NONE', #212, #292, #200, .T. ) ;
#152 = DIRECTION ( 'NONE',  ( -1.000000000000000000, 0.000000000000000000, 0.000000000000000000 ) ) ;
#153 = ORIENTED_EDGE ( 'NONE', *, *, #140, .T. ) ;
#154 = EDGE_CURVE ( 'NONE', #292, #139, #53, .T. ) ;
#155 = AXIS2_PLACEMENT_3D ( 'NONE', #299, #79, #144 ) ;
#156 = EDGE_LOOP ( 'NONE', ( #27, #180 ) ) ;
#157 = EDGE_LOOP ( 'NONE', ( #51, #70 ) ) ;
#158 =( NAMED_UNIT ( * ) PLANE_ANGLE_UNIT ( ) SI_UNIT ( $, .RADIAN. ) );
#159 = VECTOR ( 'NONE', #84, 39.37007874015748143 ) ;
#160 = PRESENTATION_LAYER_ASSIGNMENT (  '', '', ( #227 ) ) ;
#161 = ORIENTED_EDGE ( 'NONE', *, *, #34, .F. ) ;
#162 = DIRECTION ( 'NONE',  ( -1.000000000000000000, 0.000000000000000000, 0.000000000000000000 ) ) ;
#163 = EDGE_LOOP ( 'NONE', ( #131, #153, #133, #3 ) ) ;
#164 = DIMENSIONAL_EXPONENTS ( 1.000000000000000000, 0.000000000000000000, 0.000000000000000000, 0.000000000000000000, 0.000000000000000000, 0.000000000000000000, 0.000000000000000000 ) ;
#165 = DIRECTION ( 'NONE',  ( -0.8660254037844397068, 0.4999999999999979461, 0.000000000000000000 ) ) ;
#166 = VECTOR ( 'NONE', #165, 39.37007874015748854 ) ;
#167 = DIRECTION ( 'NONE',  ( -1.000000000000000000, 0.000000000000000000, 0.000000000000000000 ) ) ;
#168 = PLANE ( 'NONE',  #7 ) ;
#169 = DIRECTION ( 'NONE',  ( -1.000000000000000000, -1.092739197465706397E-16, 0.000000000000000000 ) ) ;
#170 = CARTESIAN_POINT ( 'NONE',  ( -6.123233995736770966E-17, 3.000000000000000444, 0.000000000000000000 ) ) ;
#171 = FACE_OUTER_BOUND ( 'NONE', #157, .T. ) ;
#172 = CARTESIAN_POINT ( 'NONE',  ( 3.500180241882337064E-16, 0.1544411970082240904, 0.000000000000000000 ) ) ;
#173 = FILL_AREA_STYLE ('',( #123 ) ) ;
#174 =( LENGTH_UNIT ( ) NAMED_UNIT ( * ) SI_UNIT ( $, .METRE. ) );
#175 =( CONVERSION_BASED_UNIT ( 'INCH', #303 ) LENGTH_UNIT ( ) NAMED_UNIT ( #191 ) );
#176 = CARTESIAN_POINT ( 'NONE',  ( 0.3125000000000000000, 0.1544411970082240904, 3.827021247335478926E-17 ) ) ;
#177 = STYLED_ITEM ( 'NONE', ( #220 ), #48 ) ;
#178 = STYLED_ITEM ( 'NONE', ( #304 ), #262 ) ;
#179 = EDGE_CURVE ( 'NONE', #290, #142, #270, .T. ) ;
#180 = ORIENTED_EDGE ( 'NONE', *, *, #49, .F. ) ;
#181 = AXIS2_PLACEMENT_3D ( 'NONE', #150, #59, #169 ) ;
#182 =( NAMED_UNIT ( * ) SI_UNIT ( $, .STERADIAN. ) SOLID_ANGLE_UNIT ( ) );
#183 = CARTESIAN_POINT ( 'NONE',  ( 0.000000000000000000, 0.000000000000000000, 0.000000000000000000 ) ) ;
#184 = DIRECTION ( 'NONE',  ( -1.000000000000000000, 1.877709007212652660E-17, 0.000000000000000000 ) ) ;
#185 =( GEOMETRIC_REPRESENTATION_CONTEXT ( 3 ) GLOBAL_UNCERTAINTY_ASSIGNED_CONTEXT ( ( #57 ) ) GLOBAL_UNIT_ASSIGNED_CONTEXT ( ( #271, #33, #18 ) ) REPRESENTATION_CONTEXT ( 'NONE', 'WORKASPACE' ) );
#186 =( CONVERSION_BASED_UNIT ( 'INCH', #267 ) LENGTH_UNIT ( ) NAMED_UNIT ( #119 ) );
#187 = EDGE_LOOP ( 'NONE', ( #161, #6, #261, #210 ) ) ;
#188 = DIRECTION ( 'NONE',  ( -1.877709007212652660E-17, -1.000000000000000000, -0.000000000000000000 ) ) ;
#189 = PRODUCT_DEFINITION_FORMATION_WITH_SPECIFIED_SOURCE ( 'ANY', '', #110, .NOT_KNOWN. ) ;
#190 = FACE_OUTER_BOUND ( 'NONE', #112, .T. ) ;
#191 = DIMENSIONAL_EXPONENTS ( 1.000000000000000000, 0.000000000000000000, 0.000000000000000000, 0.000000000000000000, 0.000000000000000000, 0.000000000000000000, 0.000000000000000000 ) ;
#192 = DIRECTION ( 'NONE',  ( -1.877709007212652660E-17, -1.000000000000000000, -0.000000000000000000 ) ) ;
#193 =( NAMED_UNIT ( * ) PLANE_ANGLE_UNIT ( ) SI_UNIT ( $, .RADIAN. ) );
#194 = DIRECTION ( 'NONE',  ( 1.877709007212652660E-17, 1.000000000000000000, 0.000000000000000000 ) ) ;
#195 = DIRECTION ( 'NONE',  ( -1.000000000000000000, -1.445235866196893338E-16, 0.000000000000000000 ) ) ;
#196 = ADVANCED_FACE ( 'NONE', ( #23 ), #2, .T. ) ;
#197 = CARTESIAN_POINT ( 'NONE',  ( 0.04499999999999999833, 0.000000000000000000, 2.189056153475893941E-17 ) ) ;
#198 = FILL_AREA_STYLE_COLOUR ( '', #21 ) ;
#199 = CARTESIAN_POINT ( 'NONE',  ( 0.04499999999999999833, 0.000000000000000000, 5.510910596163089556E-18 ) ) ;
#200 = CIRCLE ( 'NONE', #14, 0.3124999999999996669 ) ;
#201 = ORIENTED_EDGE ( 'NONE', *, *, #87, .F. ) ;
#202 = DIRECTION ( 'NONE',  ( 0.000000000000000000, 0.000000000000000000, 1.000000000000000000 ) ) ;
#203 = ADVANCED_FACE ( 'NONE', ( #288 ), #118, .T. ) ;
#204 = MECHANICAL_DESIGN_GEOMETRIC_PRESENTATION_REPRESENTATION (  '', ( #177 ), #295 ) ;
#205 =( GEOMETRIC_REPRESENTATION_CONTEXT ( 3 ) GLOBAL_UNCERTAINTY_ASSIGNED_CONTEXT ( ( #293 ) ) GLOBAL_UNIT_ASSIGNED_CONTEXT ( ( #186, #193, #83 ) ) REPRESENTATION_CONTEXT ( 'NONE', 'WORKASPACE' ) );
#206 = EDGE_LOOP ( 'NONE', ( #95, #26, #229, #201 ) ) ;
#207 = FILL_AREA_STYLE ('',( #75 ) ) ;
#208 =( CONVERSION_BASED_UNIT ( 'INCH', #130 ) LENGTH_UNIT ( ) NAMED_UNIT ( #29 ) );
#209 = EDGE_LOOP ( 'NONE', ( #215, #44, #233, #115 ) ) ;
#210 = ORIENTED_EDGE ( 'NONE', *, *, #17, .F. ) ;
#211 =( LENGTH_UNIT ( ) NAMED_UNIT ( * ) SI_UNIT ( $, .METRE. ) );
#212 = VERTEX_POINT ( 'NONE', #71 ) ;
#213 = CARTESIAN_POINT ( 'NONE',  ( 1.586606002095386470E-35, 8.449690532456936238E-19, 0.000000000000000000 ) ) ;
#214 = UNCERTAINTY_MEASURE_WITH_UNIT (LENGTH_MEASURE( 1.000000000000000082E-05 ), #238, 'distance_accuracy_value', 'NONE');
#215 = ORIENTED_EDGE ( 'NONE', *, *, #136, .F. ) ;
#216 = CARTESIAN_POINT ( 'NONE',  ( -6.123233995736772199E-17, 3.000000000000000444, 0.000000000000000000 ) ) ;
#217 = DIRECTION ( 'NONE',  ( -1.000000000000000000, 0.000000000000000000, 0.000000000000000000 ) ) ;
#218 = UNCERTAINTY_MEASURE_WITH_UNIT (LENGTH_MEASURE( 1.000000000000000082E-05 ), #245, 'distance_accuracy_value', 'NONE');
#219 = CIRCLE ( 'NONE', #181, 0.3124999999999996669 ) ;
#220 = PRESENTATION_STYLE_ASSIGNMENT (( #278 ) ) ;
#221 = CARTESIAN_POINT ( 'NONE',  ( -0.04499999999999999833, 1.689938106491387248E-18, 0.000000000000000000 ) ) ;
#222 = SURFACE_SIDE_STYLE ('',( #40 ) ) ;
#223 = SURFACE_STYLE_FILL_AREA ( #122 ) ;
#224 = AXIS2_PLACEMENT_3D ( 'NONE', #236, #117, #101 ) ;
#225 = COLOUR_RGB ( '',0.7921568627450980005, 0.8196078431372548767, 0.9333333333333333481 ) ;
#226 = DIRECTION ( 'NONE',  ( 0.8660254037844397068, 0.4999999999999979461, 1.060575238724908024E-16 ) ) ;
#227 = STYLED_ITEM ( 'NONE', ( #81 ), #284 ) ;
#228 = CARTESIAN_POINT ( 'NONE',  ( 2.899956267070461337E-18, 0.1544411970082240904, 0.000000000000000000 ) ) ;
#229 = ORIENTED_EDGE ( 'NONE', *, *, #154, .T. ) ;
#230 = PRODUCT_CONTEXT ( 'NONE', #249, 'mechanical' ) ;
#231 = PRESENTATION_STYLE_ASSIGNMENT (( #4 ) ) ;
#232 = CARTESIAN_POINT ( 'NONE',  ( -0.3125000000000000000, 0.1544411970082240904, 0.000000000000000000 ) ) ;
#233 = ORIENTED_EDGE ( 'NONE', *, *, #17, .T. ) ;
#234 = DIRECTION ( 'NONE',  ( -1.000000000000000000, -1.092739197465706397E-16, 0.000000000000000000 ) ) ;
#235 = ADVANCED_FACE ( 'NONE', ( #237 ), #294, .T. ) ;
#236 = CARTESIAN_POINT ( 'NONE',  ( 1.586606002095386470E-35, 8.449690532456936238E-19, 0.000000000000000000 ) ) ;
#237 = FACE_OUTER_BOUND ( 'NONE', #163, .T. ) ;
#238 =( CONVERSION_BASED_UNIT ( 'INCH', #247 ) LENGTH_UNIT ( ) NAMED_UNIT ( #99 ) );
#239 = MANIFOLD_SOLID_BREP ( 'Revolve - Cutting Edge', #281 ) ;
#240 = SURFACE_STYLE_FILL_AREA ( #275 ) ;
#241 = DIRECTION ( 'NONE',  ( 1.000000000000000000, -1.877709007212652660E-17, 0.000000000000000000 ) ) ;
#242 = SURFACE_SIDE_STYLE ('',( #240 ) ) ;
#243 =( GEOMETRIC_REPRESENTATION_CONTEXT ( 3 ) GLOBAL_UNCERTAINTY_ASSIGNED_CONTEXT ( ( #276 ) ) GLOBAL_UNIT_ASSIGNED_CONTEXT ( ( #175, #126, #182 ) ) REPRESENTATION_CONTEXT ( 'NONE', 'WORKASPACE' ) );
#244 =( NAMED_UNIT ( * ) SI_UNIT ( $, .STERADIAN. ) SOLID_ANGLE_UNIT ( ) );
#245 =( CONVERSION_BASED_UNIT ( 'INCH', #279 ) LENGTH_UNIT ( ) NAMED_UNIT ( #11 ) );
#246 = SURFACE_STYLE_FILL_AREA ( #173 ) ;
#247 = LENGTH_MEASURE_WITH_UNIT ( LENGTH_MEASURE( 0.02539999999999999897 ), #16 );
#248 = FACE_OUTER_BOUND ( 'NONE', #156, .T. ) ;
#249 = APPLICATION_CONTEXT ( 'automotive_design' ) ;
#250 = LINE ( 'NONE', #199, #307 ) ;
#251 = DIRECTION ( 'NONE',  ( 1.000000000000000000, 0.000000000000000000, 0.000000000000000000 ) ) ;
#252 = ADVANCED_FACE ( 'NONE', ( #62 ), #30, .F. ) ;
#253 = PRODUCT_DEFINITION_SHAPE ( 'NONE', 'NONE',  #286 ) ;
#254 =( LENGTH_UNIT ( ) NAMED_UNIT ( * ) SI_UNIT ( $, .METRE. ) );
#255 = VERTEX_POINT ( 'NONE', #197 ) ;
#256 = APPLICATION_PROTOCOL_DEFINITION ( 'draft international standard', 'automotive_design', 1998, #93 ) ;
#257 = VERTEX_POINT ( 'NONE', #221 ) ;
#258 = CIRCLE ( 'NONE', #120, 0.3125000000000000555 ) ;
#259 = DIRECTION ( 'NONE',  ( 1.000000000000000000, 0.000000000000000000, 0.000000000000000000 ) ) ;
#260 = MECHANICAL_DESIGN_GEOMETRIC_PRESENTATION_REPRESENTATION (  '', ( #69 ), #100 ) ;
#261 = ORIENTED_EDGE ( 'NONE', *, *, #49, .T. ) ;
#262 = ADVANCED_FACE ( 'NONE', ( #171 ), #37, .T. ) ;
#263 = SURFACE_STYLE_FILL_AREA ( #98 ) ;
#264 = CARTESIAN_POINT ( 'NONE',  ( -0.04499999999999999833, 1.689938106491387248E-18, 0.000000000000000000 ) ) ;
#265 = DIRECTION ( 'NONE',  ( -1.445235866196893338E-16, 1.000000000000000000, -0.000000000000000000 ) ) ;
#266 = ORIENTED_EDGE ( 'NONE', *, *, #151, .F. ) ;
#267 = LENGTH_MEASURE_WITH_UNIT ( LENGTH_MEASURE( 0.02539999999999999897 ), #211 );
#268 = MECHANICAL_DESIGN_GEOMETRIC_PRESENTATION_REPRESENTATION (  '', ( #65 ), #134 ) ;
#269 = EDGE_CURVE ( 'NONE', #292, #212, #219, .T. ) ;
#270 = CIRCLE ( 'NONE', #308, 0.3125000000000000000 ) ;
#271 =( CONVERSION_BASED_UNIT ( 'INCH', #125 ) LENGTH_UNIT ( ) NAMED_UNIT ( #149 ) );
#272 = DIRECTION ( 'NONE',  ( -1.445235866196893338E-16, 1.000000000000000000, 0.000000000000000000 ) ) ;
#273 = PLANE ( 'NONE',  #94 ) ;
#274 =( NAMED_UNIT ( * ) SI_UNIT ( $, .STERADIAN. ) SOLID_ANGLE_UNIT ( ) );
#275 = FILL_AREA_STYLE ('',( #198 ) ) ;
#276 = UNCERTAINTY_MEASURE_WITH_UNIT (LENGTH_MEASURE( 1.000000000000000082E-05 ), #175, 'distance_accuracy_value', 'NONE');
#277 = STYLED_ITEM ( 'NONE', ( #28 ), #239 ) ;
#278 = SURFACE_STYLE_USAGE ( .BOTH. , #222 ) ;
#279 = LENGTH_MEASURE_WITH_UNIT ( LENGTH_MEASURE( 0.02539999999999999897 ), #174 );
#280 = CARTESIAN_POINT ( 'NONE',  ( 2.899956267070461723E-18, 0.1544411970082241181, 0.000000000000000000 ) ) ;
#281 = CLOSED_SHELL ( 'NONE', ( #54, #284, #196, #262 ) ) ;
#282 = AXIS2_PLACEMENT_3D ( 'NONE', #213, #9, #184 ) ;
#283 =( NAMED_UNIT ( * ) PLANE_ANGLE_UNIT ( ) SI_UNIT ( $, .RADIAN. ) );
#284 = ADVANCED_FACE ( 'NONE', ( #248 ), #273, .T. ) ;
#285 =( LENGTH_UNIT ( ) NAMED_UNIT ( * ) SI_UNIT ( $, .METRE. ) );
#286 = PRODUCT_DEFINITION ( 'UNKNOWN', '', #189, #74 ) ;
#287 = AXIS2_PLACEMENT_3D ( 'NONE', #82, #32, #241 ) ;
#288 = FACE_OUTER_BOUND ( 'NONE', #206, .T. ) ;
#289 = COLOUR_RGB ( '',1.000000000000000000, 0.000000000000000000, 0.000000000000000000 ) ;
#290 = VERTEX_POINT ( 'NONE', #232 ) ;
#291 = LENGTH_MEASURE_WITH_UNIT ( LENGTH_MEASURE( 0.02539999999999999897 ), #285 );
#292 = VERTEX_POINT ( 'NONE', #43 ) ;
#293 = UNCERTAINTY_MEASURE_WITH_UNIT (LENGTH_MEASURE( 1.000000000000000082E-05 ), #186, 'distance_accuracy_value', 'NONE');
#294 = CYLINDRICAL_SURFACE ( 'NONE', #128, 0.3124999999999998890 ) ;
#295 =( GEOMETRIC_REPRESENTATION_CONTEXT ( 3 ) GLOBAL_UNCERTAINTY_ASSIGNED_CONTEXT ( ( #218 ) ) GLOBAL_UNIT_ASSIGNED_CONTEXT ( ( #245, #143, #274 ) ) REPRESENTATION_CONTEXT ( 'NONE', 'WORKASPACE' ) );
#296 = DIRECTION ( 'NONE',  ( 1.000000000000000000, 0.000000000000000000, 0.000000000000000000 ) ) ;
#297 =( LENGTH_UNIT ( ) NAMED_UNIT ( * ) SI_UNIT ( $, .METRE. ) );
#298 = DIRECTION ( 'NONE',  ( -1.000000000000000000, 1.877709007212652660E-17, 0.000000000000000000 ) ) ;
#299 = CARTESIAN_POINT ( 'NONE',  ( 0.3125000000000000000, 3.000000000000000444, 0.000000000000000000 ) ) ;
#300 = CONICAL_SURFACE ( 'NONE', #45, 0.04499999999999999833, 1.047197551196600074 ) ;
#301 = VECTOR ( 'NONE', #73, 39.37007874015748143 ) ;
#302 = SURFACE_SIDE_STYLE ('',( #223 ) ) ;
#303 = LENGTH_MEASURE_WITH_UNIT ( LENGTH_MEASURE( 0.02539999999999999897 ), #297 );
#304 = PRESENTATION_STYLE_ASSIGNMENT (( #106 ) ) ;
#305 = PRODUCT_RELATED_PRODUCT_CATEGORY ( 'part', '', ( #110 ) ) ;
#306 = LINE ( 'NONE', #129, #159 ) ;
#307 = VECTOR ( 'NONE', #226, 39.37007874015748854 ) ;
#308 = AXIS2_PLACEMENT_3D ( 'NONE', #228, #188, #259 ) ;
#309 = ORIENTED_EDGE ( 'NONE', *, *, #113, .T. ) ;
ENDSEC;
END-ISO-10303-21;
