ISO-10303-21;
HEADER;
FILE_DESCRIPTION (( 'STEP AP214' ),
    '1' );
FILE_NAME ('Micro_SHRM-060-4.STEP',
    '2021-09-02T09:05:28',
    ( '' ),
    ( '' ),
    'SwSTEP 2.0',
    'SolidWorks 2020',
    '' );
FILE_SCHEMA (( 'AUTOMOTIVE_DESIGN' ));
ENDSEC;

DATA;
#1 = AXIS2_PLACEMENT_3D ( 'NONE', #30, #5, #167 ) ;
#2 = PRODUCT_DEFINITION_FORMATION_WITH_SPECIFIED_SOURCE ( 'ANY', '', #115, .NOT_KNOWN. ) ;
#3 = DIRECTION ( 'NONE',  ( 0.0000000000000000000, 0.0000000000000000000, -1.000000000000000000 ) ) ;
#4 = CYLINDRICAL_SURFACE ( 'NONE', #128, 0.1181100000000000344 ) ;
#5 = DIRECTION ( 'NONE',  ( 0.0000000000000000000, 0.0000000000000000000, 1.000000000000000000 ) ) ;
#6 =( LENGTH_UNIT ( ) NAMED_UNIT ( * ) SI_UNIT ( $, .METRE. ) );
#7 = EDGE_CURVE ( 'NONE', #204, #153, #87, .T. ) ;
#8 = PLANE ( 'NONE',  #1 ) ;
#9 = AXIS2_PLACEMENT_3D ( 'NONE', #296, #139, #237 ) ;
#10 = CARTESIAN_POINT ( 'NONE',  ( 0.0000000000000000000, 0.0000000000000000000, 2.244094000000000033 ) ) ;
#11 = CLOSED_SHELL ( 'NONE', ( #33, #257, #174, #238, #147, #163, #63, #62, #131, #113 ) ) ;
#12 = ORIENTED_EDGE ( 'NONE', *, *, #288, .F. ) ;
#13 = UNCERTAINTY_MEASURE_WITH_UNIT (LENGTH_MEASURE( 1.000000000000000082E-05 ), #277, 'distance_accuracy_value', 'NONE');
#14 = ORIENTED_EDGE ( 'NONE', *, *, #42, .T. ) ;
#15 = VECTOR ( 'NONE', #52, 39.37007874015748854 ) ;
#16 = DIRECTION ( 'NONE',  ( 1.000000000000000000, 0.0000000000000000000, 0.0000000000000000000 ) ) ;
#17 = ORIENTED_EDGE ( 'NONE', *, *, #7, .F. ) ;
#18 = ORIENTED_EDGE ( 'NONE', *, *, #202, .F. ) ;
#19 = CONICAL_SURFACE ( 'NONE', #9, 0.1031100000000002709, 0.7853981633974318477 ) ;
#20 = SURFACE_SIDE_STYLE ('',( #93 ) ) ;
#21 = CARTESIAN_POINT ( 'NONE',  ( -0.1031100000000002709, 0.0000000000000000000, 2.244094000000000033 ) ) ;
#22 = DIRECTION ( 'NONE',  ( 1.000000000000000000, 0.0000000000000000000, 0.0000000000000000000 ) ) ;
#23 = VECTOR ( 'NONE', #283, 39.37007874015748854 ) ;
#24 = CARTESIAN_POINT ( 'NONE',  ( 7.714307363656999460E-17, 0.0000000000000000000, 0.6299209999999999532 ) ) ;
#25 = MANIFOLD_SOLID_BREP ( 'Cut-Revolve1', #11 ) ;
#26 = FACE_OUTER_BOUND ( 'NONE', #291, .T. ) ;
#27 = DIRECTION ( 'NONE',  ( -1.000000000000000000, 0.0000000000000000000, 1.224646799147352961E-16 ) ) ;
#28 = VECTOR ( 'NONE', #170, 39.37007874015748854 ) ;
#29 = FACE_OUTER_BOUND ( 'NONE', #59, .T. ) ;
#30 = CARTESIAN_POINT ( 'NONE',  ( 0.0000000000000000000, 0.0000000000000000000, 0.0000000000000000000 ) ) ;
#31 = CARTESIAN_POINT ( 'NONE',  ( 0.1031100000000002709, 1.262733314600839129E-17, 2.244094000000000033 ) ) ;
#32 = UNCERTAINTY_MEASURE_WITH_UNIT (LENGTH_MEASURE( 1.000000000000000082E-05 ), #56, 'distance_accuracy_value', 'NONE');
#33 = ADVANCED_FACE ( 'NONE', ( #272 ), #66, .T. ) ;
#34 = DIRECTION ( 'NONE',  ( 1.000000000000000000, 0.0000000000000000000, 0.0000000000000000000 ) ) ;
#35 = COLOUR_RGB ( '',0.7921568627450980005, 0.8196078431372548767, 0.9333333333333333481 ) ;
#36 = ORIENTED_EDGE ( 'NONE', *, *, #125, .F. ) ;
#37 = EDGE_LOOP ( 'NONE', ( #200, #273, #231, #17 ) ) ;
#38 = AXIS2_PLACEMENT_3D ( 'NONE', #214, #297, #183 ) ;
#39 = EDGE_LOOP ( 'NONE', ( #209, #108, #205, #43 ) ) ;
#40 = EDGE_CURVE ( 'NONE', #178, #228, #144, .T. ) ;
#41 = DIRECTION ( 'NONE',  ( 0.0000000000000000000, 0.0000000000000000000, 1.000000000000000000 ) ) ;
#42 = EDGE_CURVE ( 'NONE', #293, #252, #172, .T. ) ;
#43 = ORIENTED_EDGE ( 'NONE', *, *, #76, .F. ) ;
#44 = AXIS2_PLACEMENT_3D ( 'NONE', #171, #117, #299 ) ;
#45 = LINE ( 'NONE', #281, #15 ) ;
#46 = EDGE_CURVE ( 'NONE', #86, #204, #185, .T. ) ;
#47 =( NAMED_UNIT ( * ) SI_UNIT ( $, .STERADIAN. ) SOLID_ANGLE_UNIT ( ) );
#48 = ORIENTED_EDGE ( 'NONE', *, *, #136, .T. ) ;
#49 = DIRECTION ( 'NONE',  ( -1.224646799147353207E-16, -0.0000000000000000000, -1.000000000000000000 ) ) ;
#50 = CARTESIAN_POINT ( 'NONE',  ( -0.1031100000000002709, 0.0000000000000000000, 2.244094000000000033 ) ) ;
#51 = CARTESIAN_POINT ( 'NONE',  ( 0.0000000000000000000, 0.0000000000000000000, 0.0000000000000000000 ) ) ;
#52 = DIRECTION ( 'NONE',  ( 0.1736481776669317190, 0.0000000000000000000, 0.9848077530122077983 ) ) ;
#53 = AXIS2_PLACEMENT_3D ( 'NONE', #55, #260, #196 ) ;
#54 = DIRECTION ( 'NONE',  ( 1.000000000000000000, 0.0000000000000000000, 0.0000000000000000000 ) ) ;
#55 = CARTESIAN_POINT ( 'NONE',  ( 7.714307363656999460E-17, 0.0000000000000000000, 0.6299209999999999532 ) ) ;
#56 =( CONVERSION_BASED_UNIT ( 'INCH', #264 ) LENGTH_UNIT ( ) NAMED_UNIT ( #91 ) );
#57 =( NAMED_UNIT ( * ) PLANE_ANGLE_UNIT ( ) SI_UNIT ( $, .RADIAN. ) );
#58 = CIRCLE ( 'NONE', #192, 0.1179918899999999882 ) ;
#59 = EDGE_LOOP ( 'NONE', ( #112, #251, #226, #206 ) ) ;
#60 = ORIENTED_EDGE ( 'NONE', *, *, #84, .T. ) ;
#61 = ORIENTED_EDGE ( 'NONE', *, *, #242, .T. ) ;
#62 = ADVANCED_FACE ( 'NONE', ( #68 ), #78, .T. ) ;
#63 = ADVANCED_FACE ( 'NONE', ( #134 ), #19, .T. ) ;
#64 = AXIS2_PLACEMENT_3D ( 'NONE', #188, #213, #164 ) ;
#65 = ORIENTED_EDGE ( 'NONE', *, *, #286, .T. ) ;
#66 = CYLINDRICAL_SURFACE ( 'NONE', #64, 0.1179918900000000159 ) ;
#67 = ORIENTED_EDGE ( 'NONE', *, *, #7, .T. ) ;
#68 = FACE_OUTER_BOUND ( 'NONE', #74, .T. ) ;
#69 = AXIS2_PLACEMENT_3D ( 'NONE', #162, #232, #186 ) ;
#70 = AXIS2_PLACEMENT_3D ( 'NONE', #278, #148, #121 ) ;
#71 =( GEOMETRIC_REPRESENTATION_CONTEXT ( 3 ) GLOBAL_UNCERTAINTY_ASSIGNED_CONTEXT ( ( #32 ) ) GLOBAL_UNIT_ASSIGNED_CONTEXT ( ( #56, #57, #248 ) ) REPRESENTATION_CONTEXT ( 'NONE', 'WORKASPACE' ) );
#72 =( NAMED_UNIT ( * ) PLANE_ANGLE_UNIT ( ) SI_UNIT ( $, .RADIAN. ) );
#73 =( LENGTH_UNIT ( ) NAMED_UNIT ( * ) SI_UNIT ( $, .METRE. ) );
#74 = EDGE_LOOP ( 'NONE', ( #250, #89, #60, #67 ) ) ;
#75 = EDGE_CURVE ( 'NONE', #152, #158, #58, .T. ) ;
#76 = EDGE_CURVE ( 'NONE', #86, #266, #98, .T. ) ;
#77 = LINE ( 'NONE', #220, #259 ) ;
#78 = CONICAL_SURFACE ( 'NONE', #249, 0.1179918899999999882, 0.1745329251994342801 ) ;
#79 = CARTESIAN_POINT ( 'NONE',  ( -0.1179918899999999049, 1.444983904138465938E-17, 0.6299209999999999532 ) ) ;
#80 = DIRECTION ( 'NONE',  ( 1.000000000000000000, 0.0000000000000000000, -0.0000000000000000000 ) ) ;
#81 = CARTESIAN_POINT ( 'NONE',  ( 0.1031100000000002709, 1.354581824536889030E-17, 2.244094000000000033 ) ) ;
#82 = DIRECTION ( 'NONE',  ( -0.0000000000000000000, -0.0000000000000000000, -1.000000000000000000 ) ) ;
#83 = CIRCLE ( 'NONE', #166, 0.1031100000000002709 ) ;
#84 = EDGE_CURVE ( 'NONE', #152, #204, #45, .T. ) ;
#85 = PRODUCT_CONTEXT ( 'NONE', #149, 'mechanical' ) ;
#86 = VERTEX_POINT ( 'NONE', #103 ) ;
#87 = CIRCLE ( 'NONE', #69, 0.1181100000000000344 ) ;
#88 = EDGE_CURVE ( 'NONE', #153, #204, #92, .T. ) ;
#89 = ORIENTED_EDGE ( 'NONE', *, *, #75, .F. ) ;
#90 = ORIENTED_EDGE ( 'NONE', *, *, #168, .T. ) ;
#91 = DIMENSIONAL_EXPONENTS ( 1.000000000000000000, 0.0000000000000000000, 0.0000000000000000000, 0.0000000000000000000, 0.0000000000000000000, 0.0000000000000000000, 0.0000000000000000000 ) ;
#92 = CIRCLE ( 'NONE', #110, 0.1181100000000000344 ) ;
#93 = SURFACE_STYLE_FILL_AREA ( #253 ) ;
#94 = DIRECTION ( 'NONE',  ( -0.0000000000000000000, -0.0000000000000000000, -1.000000000000000000 ) ) ;
#95 = CARTESIAN_POINT ( 'NONE',  ( 0.1179918900000000159, 1.444983904138465938E-17, -1.444983904138465938E-17 ) ) ;
#96 = FACE_OUTER_BOUND ( 'NONE', #37, .T. ) ;
#97 = LINE ( 'NONE', #31, #23 ) ;
#98 = CIRCLE ( 'NONE', #38, 0.1181100000000000344 ) ;
#99 = FILL_AREA_STYLE ('',( #215 ) ) ;
#100 = LINE ( 'NONE', #198, #180 ) ;
#101 = DIRECTION ( 'NONE',  ( -0.0000000000000000000, -0.0000000000000000000, -1.000000000000000000 ) ) ;
#102 = UNCERTAINTY_MEASURE_WITH_UNIT (LENGTH_MEASURE( 1.000000000000000082E-05 ), #229, 'distance_accuracy_value', 'NONE');
#103 = CARTESIAN_POINT ( 'NONE',  ( 0.1181100000000000344, 1.446430334472939084E-17, 2.229093999999999465 ) ) ;
#104 = APPLICATION_PROTOCOL_DEFINITION ( 'draft international standard', 'automotive_design', 1998, #149 ) ;
#105 = DIRECTION ( 'NONE',  ( -1.000000000000000000, 0.0000000000000000000, 0.0000000000000000000 ) ) ;
#106 = CIRCLE ( 'NONE', #236, 0.1181100000000000344 ) ;
#107 = EDGE_LOOP ( 'NONE', ( #90, #61, #18, #36 ) ) ;
#108 = ORIENTED_EDGE ( 'NONE', *, *, #294, .F. ) ;
#109 = ORIENTED_EDGE ( 'NONE', *, *, #88, .T. ) ;
#110 = AXIS2_PLACEMENT_3D ( 'NONE', #145, #119, #34 ) ;
#111 = ORIENTED_EDGE ( 'NONE', *, *, #75, .T. ) ;
#112 = ORIENTED_EDGE ( 'NONE', *, *, #124, .T. ) ;
#113 = ADVANCED_FACE ( 'NONE', ( #193 ), #8, .F. ) ;
#114 = CARTESIAN_POINT ( 'NONE',  ( 0.1181100000000000344, 1.446430334472939084E-17, 2.244094000000000033 ) ) ;
#115 = PRODUCT ( 'Micro_SHRM-060-4', 'Micro_SHRM-060-4', '', ( #85 ) ) ;
#116 = DIRECTION ( 'NONE',  ( -1.224646799147353207E-16, -0.0000000000000000000, -1.000000000000000000 ) ) ;
#117 = DIRECTION ( 'NONE',  ( 0.0000000000000000000, 0.0000000000000000000, -1.000000000000000000 ) ) ;
#118 = LINE ( 'NONE', #50, #211 ) ;
#119 = DIRECTION ( 'NONE',  ( -1.224646799147353207E-16, -0.0000000000000000000, -1.000000000000000000 ) ) ;
#120 = CONICAL_SURFACE ( 'NONE', #44, 0.1031100000000002709, 0.7853981633974318477 ) ;
#121 = DIRECTION ( 'NONE',  ( 1.000000000000000000, 0.0000000000000000000, 0.0000000000000000000 ) ) ;
#122 = FACE_OUTER_BOUND ( 'NONE', #181, .T. ) ;
#123 = CYLINDRICAL_SURFACE ( 'NONE', #275, 0.1179918900000000159 ) ;
#124 = EDGE_CURVE ( 'NONE', #266, #86, #106, .T. ) ;
#125 = EDGE_CURVE ( 'NONE', #158, #228, #100, .T. ) ;
#126 = ORIENTED_EDGE ( 'NONE', *, *, #40, .T. ) ;
#127 = ORIENTED_EDGE ( 'NONE', *, *, #242, .F. ) ;
#128 = AXIS2_PLACEMENT_3D ( 'NONE', #10, #246, #105 ) ;
#129 = ORIENTED_EDGE ( 'NONE', *, *, #84, .F. ) ;
#130 = ORIENTED_EDGE ( 'NONE', *, *, #42, .F. ) ;
#131 = ADVANCED_FACE ( 'NONE', ( #245 ), #123, .T. ) ;
#132 = DIRECTION ( 'NONE',  ( -1.000000000000000000, 0.0000000000000000000, 1.224646799147352961E-16 ) ) ;
#133 = AXIS2_PLACEMENT_3D ( 'NONE', #256, #137, #132 ) ;
#134 = FACE_OUTER_BOUND ( 'NONE', #39, .T. ) ;
#135 = PRESENTATION_STYLE_ASSIGNMENT (( #233 ) ) ;
#136 = EDGE_CURVE ( 'NONE', #158, #153, #141, .T. ) ;
#137 = DIRECTION ( 'NONE',  ( -1.224646799147353207E-16, -0.0000000000000000000, -1.000000000000000000 ) ) ;
#138 =( GEOMETRIC_REPRESENTATION_CONTEXT ( 3 ) GLOBAL_UNCERTAINTY_ASSIGNED_CONTEXT ( ( #102 ) ) GLOBAL_UNIT_ASSIGNED_CONTEXT ( ( #229, #176, #207 ) ) REPRESENTATION_CONTEXT ( 'NONE', 'WORKASPACE' ) );
#139 = DIRECTION ( 'NONE',  ( 0.0000000000000000000, 0.0000000000000000000, -1.000000000000000000 ) ) ;
#140 = CARTESIAN_POINT ( 'NONE',  ( 0.1181100000000001177, 1.446430334472940009E-17, 0.6305908350957152297 ) ) ;
#141 = LINE ( 'NONE', #79, #28 ) ;
#142 = APPLICATION_CONTEXT ( 'automotive_design' ) ;
#143 = STYLED_ITEM ( 'NONE', ( #135 ), #25 ) ;
#144 = CIRCLE ( 'NONE', #133, 0.1179918900000000159 ) ;
#145 = CARTESIAN_POINT ( 'NONE',  ( 7.722510477716241708E-17, 0.0000000000000000000, 0.6305908350957152297 ) ) ;
#146 = CARTESIAN_POINT ( 'NONE',  ( 1.769594913022618379E-33, 0.0000000000000000000, 1.444983904138465938E-17 ) ) ;
#147 = ADVANCED_FACE ( 'NONE', ( #96 ), #195, .T. ) ;
#148 = DIRECTION ( 'NONE',  ( 1.224646799147353207E-16, 0.0000000000000000000, 1.000000000000000000 ) ) ;
#149 = APPLICATION_CONTEXT ( 'automotive_design' ) ;
#150 = STYLED_ITEM ( 'NONE', ( #208 ), #223 ) ;
#151 = ORIENTED_EDGE ( 'NONE', *, *, #202, .T. ) ;
#152 = VERTEX_POINT ( 'NONE', #263 ) ;
#153 = VERTEX_POINT ( 'NONE', #261 ) ;
#154 = VECTOR ( 'NONE', #94, 39.37007874015748143 ) ;
#155 = EDGE_LOOP ( 'NONE', ( #127, #111, #230, #184 ) ) ;
#156 = LENGTH_MEASURE_WITH_UNIT ( LENGTH_MEASURE( 0.02539999999999999897 ), #290 );
#157 = ORIENTED_EDGE ( 'NONE', *, *, #124, .F. ) ;
#158 = VERTEX_POINT ( 'NONE', #191 ) ;
#159 = ORIENTED_EDGE ( 'NONE', *, *, #294, .T. ) ;
#160 = DIRECTION ( 'NONE',  ( -1.000000000000000000, 0.0000000000000000000, 0.0000000000000000000 ) ) ;
#161 = CIRCLE ( 'NONE', #227, 0.1179918900000000159 ) ;
#162 = CARTESIAN_POINT ( 'NONE',  ( 7.722510477716241708E-17, 0.0000000000000000000, 0.6305908350957152297 ) ) ;
#163 = ADVANCED_FACE ( 'NONE', ( #122 ), #241, .T. ) ;
#164 = DIRECTION ( 'NONE',  ( -1.000000000000000000, 0.0000000000000000000, 1.224646799147352961E-16 ) ) ;
#165 = DIRECTION ( 'NONE',  ( 1.224646799147353207E-16, 0.0000000000000000000, 1.000000000000000000 ) ) ;
#166 = AXIS2_PLACEMENT_3D ( 'NONE', #287, #175, #54 ) ;
#167 = DIRECTION ( 'NONE',  ( 1.000000000000000000, 0.0000000000000000000, -0.0000000000000000000 ) ) ;
#168 = EDGE_CURVE ( 'NONE', #158, #152, #177, .T. ) ;
#169 = DIMENSIONAL_EXPONENTS ( 1.000000000000000000, 0.0000000000000000000, 0.0000000000000000000, 0.0000000000000000000, 0.0000000000000000000, 0.0000000000000000000, 0.0000000000000000000 ) ;
#170 = DIRECTION ( 'NONE',  ( -0.1736481776669314969, 2.126576849575787322E-17, 0.9848077530122077983 ) ) ;
#171 = CARTESIAN_POINT ( 'NONE',  ( 0.0000000000000000000, 0.0000000000000000000, 2.244094000000000033 ) ) ;
#172 = CIRCLE ( 'NONE', #267, 0.1031100000000002709 ) ;
#173 = CARTESIAN_POINT ( 'NONE',  ( 0.0000000000000000000, 0.0000000000000000000, 2.229093999999999465 ) ) ;
#174 = ADVANCED_FACE ( 'NONE', ( #26 ), #120, .T. ) ;
#175 = DIRECTION ( 'NONE',  ( 0.0000000000000000000, 0.0000000000000000000, 1.000000000000000000 ) ) ;
#176 =( NAMED_UNIT ( * ) PLANE_ANGLE_UNIT ( ) SI_UNIT ( $, .RADIAN. ) );
#177 = CIRCLE ( 'NONE', #53, 0.1179918899999999882 ) ;
#178 = VERTEX_POINT ( 'NONE', #262 ) ;
#179 = CARTESIAN_POINT ( 'NONE',  ( 0.0000000000000000000, 0.0000000000000000000, 0.0000000000000000000 ) ) ;
#180 = VECTOR ( 'NONE', #219, 39.37007874015748143 ) ;
#181 = EDGE_LOOP ( 'NONE', ( #159, #14 ) ) ;
#182 = EDGE_CURVE ( 'NONE', #266, #153, #77, .T. ) ;
#183 = DIRECTION ( 'NONE',  ( 1.000000000000000000, 0.0000000000000000000, 0.0000000000000000000 ) ) ;
#184 = ORIENTED_EDGE ( 'NONE', *, *, #40, .F. ) ;
#185 = LINE ( 'NONE', #114, #154 ) ;
#186 = DIRECTION ( 'NONE',  ( 1.000000000000000000, 0.0000000000000000000, 0.0000000000000000000 ) ) ;
#187 = PRESENTATION_LAYER_ASSIGNMENT (  '', '', ( #143 ) ) ;
#188 = CARTESIAN_POINT ( 'NONE',  ( 0.0000000000000000000, 0.0000000000000000000, 0.0000000000000000000 ) ) ;
#189 = CARTESIAN_POINT ( 'NONE',  ( 7.714307363656999460E-17, 0.0000000000000000000, 0.6299209999999999532 ) ) ;
#190 = DIRECTION ( 'NONE',  ( -1.224646799147353207E-16, -0.0000000000000000000, -1.000000000000000000 ) ) ;
#191 = CARTESIAN_POINT ( 'NONE',  ( -0.1179918899999999049, 1.445707119305702665E-17, 0.6299209999999999532 ) ) ;
#192 = AXIS2_PLACEMENT_3D ( 'NONE', #24, #116, #160 ) ;
#193 = FACE_OUTER_BOUND ( 'NONE', #270, .T. ) ;
#194 = SURFACE_STYLE_USAGE ( .BOTH. , #280 ) ;
#195 = CYLINDRICAL_SURFACE ( 'NONE', #224, 0.1181100000000000344 ) ;
#196 = DIRECTION ( 'NONE',  ( -1.000000000000000000, 0.0000000000000000000, 0.0000000000000000000 ) ) ;
#197 = CARTESIAN_POINT ( 'NONE',  ( -0.1181100000000000344, 0.0000000000000000000, 2.229093999999999465 ) ) ;
#198 = CARTESIAN_POINT ( 'NONE',  ( -0.1179918900000000159, 0.0000000000000000000, 1.444983904138465938E-17 ) ) ;
#199 = PRODUCT_DEFINITION_CONTEXT ( 'detailed design', #142, 'design' ) ;
#200 = ORIENTED_EDGE ( 'NONE', *, *, #46, .F. ) ;
#201 = SHAPE_DEFINITION_REPRESENTATION ( #210, #223 ) ;
#202 = EDGE_CURVE ( 'NONE', #228, #178, #161, .T. ) ;
#203 = PRODUCT_DEFINITION ( 'UNKNOWN', '', #2, #199 ) ;
#204 = VERTEX_POINT ( 'NONE', #140 ) ;
#205 = ORIENTED_EDGE ( 'NONE', *, *, #288, .T. ) ;
#206 = ORIENTED_EDGE ( 'NONE', *, *, #182, .F. ) ;
#207 =( NAMED_UNIT ( * ) SI_UNIT ( $, .STERADIAN. ) SOLID_ANGLE_UNIT ( ) );
#208 = PRESENTATION_STYLE_ASSIGNMENT (( #194 ) ) ;
#209 = ORIENTED_EDGE ( 'NONE', *, *, #286, .F. ) ;
#210 = PRODUCT_DEFINITION_SHAPE ( 'NONE', 'NONE',  #203 ) ;
#211 = VECTOR ( 'NONE', #221, 39.37007874015748854 ) ;
#212 = FACE_OUTER_BOUND ( 'NONE', #225, .T. ) ;
#213 = DIRECTION ( 'NONE',  ( -1.224646799147353207E-16, -0.0000000000000000000, -1.000000000000000000 ) ) ;
#214 = CARTESIAN_POINT ( 'NONE',  ( 0.0000000000000000000, 0.0000000000000000000, 2.229093999999999465 ) ) ;
#215 = FILL_AREA_STYLE_COLOUR ( '', #35 ) ;
#216 = DIRECTION ( 'NONE',  ( 0.0000000000000000000, 0.0000000000000000000, 1.000000000000000000 ) ) ;
#217 = CARTESIAN_POINT ( 'NONE',  ( -0.1179918900000000159, 0.0000000000000000000, 2.889967808276931875E-17 ) ) ;
#218 = VECTOR ( 'NONE', #190, 39.37007874015748143 ) ;
#219 = DIRECTION ( 'NONE',  ( -1.224646799147353207E-16, -0.0000000000000000000, -1.000000000000000000 ) ) ;
#220 = CARTESIAN_POINT ( 'NONE',  ( -0.1181100000000000344, 0.0000000000000000000, 2.244094000000000033 ) ) ;
#221 = DIRECTION ( 'NONE',  ( -0.7071067811865358044, 0.0000000000000000000, -0.7071067811865590080 ) ) ;
#222 = DIRECTION ( 'NONE',  ( -1.000000000000000000, 0.0000000000000000000, 1.224646799147352961E-16 ) ) ;
#223 = ADVANCED_BREP_SHAPE_REPRESENTATION ( 'Micro_SHRM-060-4', ( #25, #255 ), #71 ) ;
#224 = AXIS2_PLACEMENT_3D ( 'NONE', #282, #101, #239 ) ;
#225 = EDGE_LOOP ( 'NONE', ( #269, #48, #109, #129 ) ) ;
#226 = ORIENTED_EDGE ( 'NONE', *, *, #88, .F. ) ;
#227 = AXIS2_PLACEMENT_3D ( 'NONE', #146, #247, #222 ) ;
#228 = VERTEX_POINT ( 'NONE', #217 ) ;
#229 =( CONVERSION_BASED_UNIT ( 'INCH', #156 ) LENGTH_UNIT ( ) NAMED_UNIT ( #240 ) );
#230 = ORIENTED_EDGE ( 'NONE', *, *, #125, .T. ) ;
#231 = ORIENTED_EDGE ( 'NONE', *, *, #182, .T. ) ;
#232 = DIRECTION ( 'NONE',  ( -1.224646799147353207E-16, -0.0000000000000000000, -1.000000000000000000 ) ) ;
#233 = SURFACE_STYLE_USAGE ( .BOTH. , #20 ) ;
#234 = LENGTH_MEASURE_WITH_UNIT ( LENGTH_MEASURE( 0.02539999999999999897 ), #73 );
#235 = CARTESIAN_POINT ( 'NONE',  ( 0.0000000000000000000, 0.0000000000000000000, 2.244094000000000033 ) ) ;
#236 = AXIS2_PLACEMENT_3D ( 'NONE', #173, #3, #284 ) ;
#237 = DIRECTION ( 'NONE',  ( -1.000000000000000000, 0.0000000000000000000, 0.0000000000000000000 ) ) ;
#238 = ADVANCED_FACE ( 'NONE', ( #29 ), #4, .T. ) ;
#239 = DIRECTION ( 'NONE',  ( -1.000000000000000000, 0.0000000000000000000, 0.0000000000000000000 ) ) ;
#240 = DIMENSIONAL_EXPONENTS ( 1.000000000000000000, 0.0000000000000000000, 0.0000000000000000000, 0.0000000000000000000, 0.0000000000000000000, 0.0000000000000000000, 0.0000000000000000000 ) ;
#241 = PLANE ( 'NONE',  #271 ) ;
#242 = EDGE_CURVE ( 'NONE', #152, #178, #289, .T. ) ;
#243 = MECHANICAL_DESIGN_GEOMETRIC_PRESENTATION_REPRESENTATION (  '', ( #150 ), #138 ) ;
#244 =( GEOMETRIC_REPRESENTATION_CONTEXT ( 3 ) GLOBAL_UNCERTAINTY_ASSIGNED_CONTEXT ( ( #13 ) ) GLOBAL_UNIT_ASSIGNED_CONTEXT ( ( #277, #72, #47 ) ) REPRESENTATION_CONTEXT ( 'NONE', 'WORKASPACE' ) );
#245 = FACE_OUTER_BOUND ( 'NONE', #155, .T. ) ;
#246 = DIRECTION ( 'NONE',  ( -0.0000000000000000000, -0.0000000000000000000, -1.000000000000000000 ) ) ;
#247 = DIRECTION ( 'NONE',  ( -1.224646799147353207E-16, -0.0000000000000000000, -1.000000000000000000 ) ) ;
#248 =( NAMED_UNIT ( * ) SI_UNIT ( $, .STERADIAN. ) SOLID_ANGLE_UNIT ( ) );
#249 = AXIS2_PLACEMENT_3D ( 'NONE', #189, #165, #258 ) ;
#250 = ORIENTED_EDGE ( 'NONE', *, *, #136, .F. ) ;
#251 = ORIENTED_EDGE ( 'NONE', *, *, #46, .T. ) ;
#252 = VERTEX_POINT ( 'NONE', #21 ) ;
#253 = FILL_AREA_STYLE ('',( #276 ) ) ;
#254 = PRESENTATION_LAYER_ASSIGNMENT (  '', '', ( #150 ) ) ;
#255 = AXIS2_PLACEMENT_3D ( 'NONE', #179, #41, #16 ) ;
#256 = CARTESIAN_POINT ( 'NONE',  ( 1.769594913022618379E-33, 0.0000000000000000000, 1.444983904138465938E-17 ) ) ;
#257 = ADVANCED_FACE ( 'NONE', ( #212 ), #292, .T. ) ;
#258 = DIRECTION ( 'NONE',  ( 1.000000000000000000, 0.0000000000000000000, 0.0000000000000000000 ) ) ;
#259 = VECTOR ( 'NONE', #82, 39.37007874015748143 ) ;
#260 = DIRECTION ( 'NONE',  ( -1.224646799147353207E-16, -0.0000000000000000000, -1.000000000000000000 ) ) ;
#261 = CARTESIAN_POINT ( 'NONE',  ( -0.1181099999999999373, 0.0000000000000000000, 0.6305908350957152297 ) ) ;
#262 = CARTESIAN_POINT ( 'NONE',  ( 0.1179918900000000159, 1.444983904138465938E-17, 0.0000000000000000000 ) ) ;
#263 = CARTESIAN_POINT ( 'NONE',  ( 0.1179918900000000853, 0.0000000000000000000, 0.6299209999999999532 ) ) ;
#264 = LENGTH_MEASURE_WITH_UNIT ( LENGTH_MEASURE( 0.02539999999999999897 ), #6 );
#265 = PRODUCT_RELATED_PRODUCT_CATEGORY ( 'part', '', ( #115 ) ) ;
#266 = VERTEX_POINT ( 'NONE', #197 ) ;
#267 = AXIS2_PLACEMENT_3D ( 'NONE', #235, #295, #22 ) ;
#268 = APPLICATION_PROTOCOL_DEFINITION ( 'draft international standard', 'automotive_design', 1998, #142 ) ;
#269 = ORIENTED_EDGE ( 'NONE', *, *, #168, .F. ) ;
#270 = EDGE_LOOP ( 'NONE', ( #151, #126 ) ) ;
#271 = AXIS2_PLACEMENT_3D ( 'NONE', #279, #216, #80 ) ;
#272 = FACE_OUTER_BOUND ( 'NONE', #107, .T. ) ;
#273 = ORIENTED_EDGE ( 'NONE', *, *, #76, .T. ) ;
#274 = COLOUR_RGB ( '',0.7921568627450980005, 0.8196078431372548767, 0.9333333333333333481 ) ;
#275 = AXIS2_PLACEMENT_3D ( 'NONE', #51, #49, #27 ) ;
#276 = FILL_AREA_STYLE_COLOUR ( '', #274 ) ;
#277 =( CONVERSION_BASED_UNIT ( 'INCH', #234 ) LENGTH_UNIT ( ) NAMED_UNIT ( #169 ) );
#278 = CARTESIAN_POINT ( 'NONE',  ( 7.714307363656999460E-17, 0.0000000000000000000, 0.6299209999999999532 ) ) ;
#279 = CARTESIAN_POINT ( 'NONE',  ( 0.0000000000000000000, 0.0000000000000000000, 2.244094000000000033 ) ) ;
#280 = SURFACE_SIDE_STYLE ('',( #298 ) ) ;
#281 = CARTESIAN_POINT ( 'NONE',  ( 0.1179918900000000853, 0.0000000000000000000, 0.6299209999999999532 ) ) ;
#282 = CARTESIAN_POINT ( 'NONE',  ( 0.0000000000000000000, 0.0000000000000000000, 2.244094000000000033 ) ) ;
#283 = DIRECTION ( 'NONE',  ( 0.7071067811865358044, 8.659560562354788645E-17, -0.7071067811865590080 ) ) ;
#284 = DIRECTION ( 'NONE',  ( 1.000000000000000000, 0.0000000000000000000, 0.0000000000000000000 ) ) ;
#285 = MECHANICAL_DESIGN_GEOMETRIC_PRESENTATION_REPRESENTATION (  '', ( #143 ), #244 ) ;
#286 = EDGE_CURVE ( 'NONE', #293, #86, #97, .T. ) ;
#287 = CARTESIAN_POINT ( 'NONE',  ( 0.0000000000000000000, 0.0000000000000000000, 2.244094000000000033 ) ) ;
#288 = EDGE_CURVE ( 'NONE', #252, #266, #118, .T. ) ;
#289 = LINE ( 'NONE', #95, #218 ) ;
#290 =( LENGTH_UNIT ( ) NAMED_UNIT ( * ) SI_UNIT ( $, .METRE. ) );
#291 = EDGE_LOOP ( 'NONE', ( #130, #65, #157, #12 ) ) ;
#292 = CONICAL_SURFACE ( 'NONE', #70, 0.1179918899999999882, 0.1745329251994342801 ) ;
#293 = VERTEX_POINT ( 'NONE', #81 ) ;
#294 = EDGE_CURVE ( 'NONE', #252, #293, #83, .T. ) ;
#295 = DIRECTION ( 'NONE',  ( 0.0000000000000000000, 0.0000000000000000000, 1.000000000000000000 ) ) ;
#296 = CARTESIAN_POINT ( 'NONE',  ( 0.0000000000000000000, 0.0000000000000000000, 2.244094000000000033 ) ) ;
#297 = DIRECTION ( 'NONE',  ( 0.0000000000000000000, 0.0000000000000000000, -1.000000000000000000 ) ) ;
#298 = SURFACE_STYLE_FILL_AREA ( #99 ) ;
#299 = DIRECTION ( 'NONE',  ( -1.000000000000000000, 0.0000000000000000000, 0.0000000000000000000 ) ) ;
ENDSEC;
END-ISO-10303-21;
