ISO-10303-21;
HEADER;
FILE_DESCRIPTION (( 'STEP AP214' ),
    '1' );
FILE_NAME ('Micro_RNC-500-2.STEP',
    '2021-09-03T17:38:48',
    ( '' ),
    ( '' ),
    'SwSTEP 2.0',
    'SolidWorks 2020',
    '' );
FILE_SCHEMA (( 'AUTOMOTIVE_DESIGN' ));
ENDSEC;

DATA;
#1 = DIRECTION ( 'NONE',  ( 0.0000000000000000000, 0.0000000000000000000, 1.000000000000000000 ) ) ;
#2 = DIRECTION ( 'NONE',  ( -0.7071067811865490160, -8.659560562354951347E-17, -0.7071067811865460184 ) ) ;
#3 = DIRECTION ( 'NONE',  ( 0.0000000000000000000, 0.0000000000000000000, 1.000000000000000000 ) ) ;
#4 = DIRECTION ( 'NONE',  ( 0.0000000000000000000, 0.0000000000000000000, -1.000000000000000000 ) ) ;
#5 = MECHANICAL_DESIGN_GEOMETRIC_PRESENTATION_REPRESENTATION (  '', ( #188 ), #16 ) ;
#6 = CARTESIAN_POINT ( 'NONE',  ( 0.003999999999999999216, 0.0000000000000000000, 3.000000000000000444 ) ) ;
#7 = DIRECTION ( 'NONE',  ( 1.000000000000000000, 0.0000000000000000000, 0.0000000000000000000 ) ) ;
#8 = LINE ( 'NONE', #29, #216 ) ;
#9 = APPLICATION_CONTEXT ( 'automotive_design' ) ;
#10 = DIRECTION ( 'NONE',  ( 0.0000000000000000000, 0.0000000000000000000, 1.000000000000000000 ) ) ;
#11 = DIRECTION ( 'NONE',  ( 0.7071067811865490160, 0.0000000000000000000, -0.7071067811865460184 ) ) ;
#12 = EDGE_CURVE ( 'NONE', #167, #80, #89, .T. ) ;
#13 = AXIS2_PLACEMENT_3D ( 'NONE', #96, #17, #69 ) ;
#14 = LENGTH_MEASURE_WITH_UNIT ( LENGTH_MEASURE( 0.02539999999999999897 ), #128 );
#15 = ADVANCED_FACE ( 'NONE', ( #217 ), #102, .T. ) ;
#16 =( GEOMETRIC_REPRESENTATION_CONTEXT ( 3 ) GLOBAL_UNCERTAINTY_ASSIGNED_CONTEXT ( ( #152 ) ) GLOBAL_UNIT_ASSIGNED_CONTEXT ( ( #65, #49, #138 ) ) REPRESENTATION_CONTEXT ( 'NONE', 'WORKASPACE' ) );
#17 = DIRECTION ( 'NONE',  ( -0.0000000000000000000, -0.0000000000000000000, -1.000000000000000000 ) ) ;
#18 =( GEOMETRIC_REPRESENTATION_CONTEXT ( 3 ) GLOBAL_UNCERTAINTY_ASSIGNED_CONTEXT ( ( #76 ) ) GLOBAL_UNIT_ASSIGNED_CONTEXT ( ( #208, #95, #144 ) ) REPRESENTATION_CONTEXT ( 'NONE', 'WORKASPACE' ) );
#19 = EDGE_CURVE ( 'NONE', #41, #134, #104, .T. ) ;
#20 = CARTESIAN_POINT ( 'NONE',  ( -0.2500000000000000000, 0.0000000000000000000, 0.2459999999999989695 ) ) ;
#21 = VERTEX_POINT ( 'NONE', #113 ) ;
#22 = APPLICATION_CONTEXT ( 'automotive_design' ) ;
#23 = ORIENTED_EDGE ( 'NONE', *, *, #19, .F. ) ;
#24 = DIRECTION ( 'NONE',  ( -0.0000000000000000000, -0.0000000000000000000, -1.000000000000000000 ) ) ;
#25 = DIMENSIONAL_EXPONENTS ( 1.000000000000000000, 0.0000000000000000000, 0.0000000000000000000, 0.0000000000000000000, 0.0000000000000000000, 0.0000000000000000000, 0.0000000000000000000 ) ;
#26 = CYLINDRICAL_SURFACE ( 'NONE', #66, 0.2500000000000000000 ) ;
#27 = ADVANCED_FACE ( 'NONE', ( #130 ), #154, .F. ) ;
#28 = AXIS2_PLACEMENT_3D ( 'NONE', #204, #219, #30 ) ;
#29 = CARTESIAN_POINT ( 'NONE',  ( 0.003999999999999999216, 0.0000000000000000000, 0.0000000000000000000 ) ) ;
#30 = DIRECTION ( 'NONE',  ( -1.000000000000000000, 0.0000000000000000000, 0.0000000000000000000 ) ) ;
#31 = CARTESIAN_POINT ( 'NONE',  ( -0.003999999999999999216, 4.898587196589411612E-19, 0.0000000000000000000 ) ) ;
#32 = AXIS2_PLACEMENT_3D ( 'NONE', #141, #222, #187 ) ;
#33 = DIRECTION ( 'NONE',  ( 0.7071067811865490160, 0.0000000000000000000, 0.7071067811865460184 ) ) ;
#34 = ADVANCED_BREP_SHAPE_REPRESENTATION ( 'Micro_RNC-500-2', ( #54, #92 ), #189 ) ;
#35 =( NAMED_UNIT ( * ) PLANE_ANGLE_UNIT ( ) SI_UNIT ( $, .RADIAN. ) );
#36 = MECHANICAL_DESIGN_GEOMETRIC_PRESENTATION_REPRESENTATION (  '', ( #233 ), #18 ) ;
#37 = EDGE_CURVE ( 'NONE', #134, #82, #243, .T. ) ;
#38 = DIRECTION ( 'NONE',  ( -0.0000000000000000000, -0.0000000000000000000, -1.000000000000000000 ) ) ;
#39 = CIRCLE ( 'NONE', #32, 0.003999999999999999216 ) ;
#40 = ORIENTED_EDGE ( 'NONE', *, *, #37, .T. ) ;
#41 = VERTEX_POINT ( 'NONE', #85 ) ;
#42 = DIRECTION ( 'NONE',  ( -1.000000000000000000, 0.0000000000000000000, 0.0000000000000000000 ) ) ;
#43 = VERTEX_POINT ( 'NONE', #20 ) ;
#44 = CONICAL_SURFACE ( 'NONE', #245, 0.003999999999999999216, 0.7853981633974503884 ) ;
#45 = CARTESIAN_POINT ( 'NONE',  ( -0.003999999999999999216, -4.898587196589411612E-19, 3.000000000000000444 ) ) ;
#46 = PRESENTATION_STYLE_ASSIGNMENT (( #91 ) ) ;
#47 = CARTESIAN_POINT ( 'NONE',  ( 0.0000000000000000000, 0.0000000000000000000, 0.2459999999999989695 ) ) ;
#48 = DIRECTION ( 'NONE',  ( 1.000000000000000000, 0.0000000000000000000, 0.0000000000000000000 ) ) ;
#49 =( NAMED_UNIT ( * ) PLANE_ANGLE_UNIT ( ) SI_UNIT ( $, .RADIAN. ) );
#50 = CONICAL_SURFACE ( 'NONE', #177, 0.003999999999999999216, 0.7853981633974503884 ) ;
#51 = SURFACE_SIDE_STYLE ('',( #224 ) ) ;
#52 = CONICAL_SURFACE ( 'NONE', #203, 0.003999999999999999216, 0.7853981633974503884 ) ;
#53 =( CONVERSION_BASED_UNIT ( 'INCH', #164 ) LENGTH_UNIT ( ) NAMED_UNIT ( #25 ) );
#54 = MANIFOLD_SOLID_BREP ( 'Mirror1', #151 ) ;
#55 = CARTESIAN_POINT ( 'NONE',  ( 0.0000000000000000000, 0.0000000000000000000, 0.0000000000000000000 ) ) ;
#56 = VERTEX_POINT ( 'NONE', #201 ) ;
#57 = PRESENTATION_LAYER_ASSIGNMENT (  '', '', ( #233 ) ) ;
#58 = ORIENTED_EDGE ( 'NONE', *, *, #181, .T. ) ;
#59 = EDGE_LOOP ( 'NONE', ( #129, #248, #195, #193 ) ) ;
#60 = ORIENTED_EDGE ( 'NONE', *, *, #100, .T. ) ;
#61 = ADVANCED_FACE ( 'NONE', ( #182 ), #50, .T. ) ;
#62 = COLOUR_RGB ( '',0.7921568627450980005, 0.8196078431372548767, 0.9333333333333333481 ) ;
#63 = ORIENTED_EDGE ( 'NONE', *, *, #114, .T. ) ;
#64 = CARTESIAN_POINT ( 'NONE',  ( 0.0000000000000000000, 0.0000000000000000000, 3.000000000000000444 ) ) ;
#65 =( CONVERSION_BASED_UNIT ( 'INCH', #122 ) LENGTH_UNIT ( ) NAMED_UNIT ( #125 ) );
#66 = AXIS2_PLACEMENT_3D ( 'NONE', #218, #186, #158 ) ;
#67 = DIRECTION ( 'NONE',  ( -0.0000000000000000000, -0.0000000000000000000, -1.000000000000000000 ) ) ;
#68 = DIRECTION ( 'NONE',  ( -0.0000000000000000000, -0.0000000000000000000, -1.000000000000000000 ) ) ;
#69 = DIRECTION ( 'NONE',  ( -1.000000000000000000, 0.0000000000000000000, 0.0000000000000000000 ) ) ;
#70 = CONICAL_SURFACE ( 'NONE', #172, 0.003999999999999999216, 0.7853981633974503884 ) ;
#71 = UNCERTAINTY_MEASURE_WITH_UNIT (LENGTH_MEASURE( 1.000000000000000082E-05 ), #53, 'distance_accuracy_value', 'NONE');
#72 = ADVANCED_FACE ( 'NONE', ( #180 ), #26, .T. ) ;
#73 =( NAMED_UNIT ( * ) SI_UNIT ( $, .STERADIAN. ) SOLID_ANGLE_UNIT ( ) );
#74 = AXIS2_PLACEMENT_3D ( 'NONE', #116, #3, #174 ) ;
#75 = AXIS2_PLACEMENT_3D ( 'NONE', #64, #179, #184 ) ;
#76 = UNCERTAINTY_MEASURE_WITH_UNIT (LENGTH_MEASURE( 1.000000000000000082E-05 ), #208, 'distance_accuracy_value', 'NONE');
#77 = LINE ( 'NONE', #244, #162 ) ;
#78 = ORIENTED_EDGE ( 'NONE', *, *, #170, .T. ) ;
#79 = FILL_AREA_STYLE_COLOUR ( '', #62 ) ;
#80 = VERTEX_POINT ( 'NONE', #120 ) ;
#81 = SHAPE_DEFINITION_REPRESENTATION ( #239, #34 ) ;
#82 = VERTEX_POINT ( 'NONE', #221 ) ;
#83 = DIRECTION ( 'NONE',  ( -1.000000000000000000, 0.0000000000000000000, 0.0000000000000000000 ) ) ;
#84 = ADVANCED_FACE ( 'NONE', ( #220 ), #70, .T. ) ;
#85 = CARTESIAN_POINT ( 'NONE',  ( -0.003999999999999999216, -1.555301434917138211E-17, 3.000000000000000444 ) ) ;
#86 = DIMENSIONAL_EXPONENTS ( 1.000000000000000000, 0.0000000000000000000, 0.0000000000000000000, 0.0000000000000000000, 0.0000000000000000000, 0.0000000000000000000, 0.0000000000000000000 ) ;
#87 = FACE_OUTER_BOUND ( 'NONE', #225, .T. ) ;
#88 = CARTESIAN_POINT ( 'NONE',  ( -0.003999999999999999216, 1.555301434917138211E-17, 0.0000000000000000000 ) ) ;
#89 = CIRCLE ( 'NONE', #191, 0.003999999999999999216 ) ;
#90 = CARTESIAN_POINT ( 'NONE',  ( 0.0000000000000000000, 0.0000000000000000000, 0.0000000000000000000 ) ) ;
#91 = SURFACE_STYLE_USAGE ( .BOTH. , #140 ) ;
#92 = AXIS2_PLACEMENT_3D ( 'NONE', #55, #1, #97 ) ;
#93 = DIRECTION ( 'NONE',  ( -0.0000000000000000000, -0.0000000000000000000, -1.000000000000000000 ) ) ;
#94 = EDGE_CURVE ( 'NONE', #43, #21, #211, .T. ) ;
#95 =( NAMED_UNIT ( * ) PLANE_ANGLE_UNIT ( ) SI_UNIT ( $, .RADIAN. ) );
#96 = CARTESIAN_POINT ( 'NONE',  ( 0.0000000000000000000, 0.0000000000000000000, 0.2459999999999989695 ) ) ;
#97 = DIRECTION ( 'NONE',  ( 1.000000000000000000, 0.0000000000000000000, 0.0000000000000000000 ) ) ;
#98 = ORIENTED_EDGE ( 'NONE', *, *, #12, .T. ) ;
#99 = ORIENTED_EDGE ( 'NONE', *, *, #114, .F. ) ;
#100 = EDGE_CURVE ( 'NONE', #167, #43, #200, .T. ) ;
#101 = ORIENTED_EDGE ( 'NONE', *, *, #196, .T. ) ;
#102 = PLANE ( 'NONE',  #183 ) ;
#103 = CARTESIAN_POINT ( 'NONE',  ( 0.0000000000000000000, 0.0000000000000000000, 0.0000000000000000000 ) ) ;
#104 = LINE ( 'NONE', #45, #109 ) ;
#105 = EDGE_CURVE ( 'NONE', #82, #134, #236, .T. ) ;
#106 = AXIS2_PLACEMENT_3D ( 'NONE', #47, #68, #198 ) ;
#107 = DIRECTION ( 'NONE',  ( -0.7071067811865490160, 8.659560562354951347E-17, 0.7071067811865460184 ) ) ;
#108 = LINE ( 'NONE', #6, #133 ) ;
#109 = VECTOR ( 'NONE', #2, 39.37007874015748143 ) ;
#110 = VECTOR ( 'NONE', #67, 39.37007874015748143 ) ;
#111 = APPLICATION_PROTOCOL_DEFINITION ( 'draft international standard', 'automotive_design', 1998, #9 ) ;
#112 = EDGE_CURVE ( 'NONE', #56, #82, #108, .T. ) ;
#113 = CARTESIAN_POINT ( 'NONE',  ( 0.2500000000000000000, 3.061616997868382402E-17, 0.2459999999999989695 ) ) ;
#114 = EDGE_CURVE ( 'NONE', #56, #41, #159, .T. ) ;
#115 = ORIENTED_EDGE ( 'NONE', *, *, #105, .F. ) ;
#116 = CARTESIAN_POINT ( 'NONE',  ( 0.0000000000000000000, 0.0000000000000000000, 0.0000000000000000000 ) ) ;
#117 = EDGE_CURVE ( 'NONE', #80, #21, #8, .T. ) ;
#118 = EDGE_LOOP ( 'NONE', ( #40, #58, #209, #197 ) ) ;
#119 = EDGE_LOOP ( 'NONE', ( #99, #153 ) ) ;
#120 = CARTESIAN_POINT ( 'NONE',  ( 0.003999999999999999216, 0.0000000000000000000, 0.0000000000000000000 ) ) ;
#121 = ADVANCED_FACE ( 'NONE', ( #87 ), #44, .T. ) ;
#122 = LENGTH_MEASURE_WITH_UNIT ( LENGTH_MEASURE( 0.02539999999999999897 ), #238 );
#123 = DIRECTION ( 'NONE',  ( 0.0000000000000000000, 0.0000000000000000000, 1.000000000000000000 ) ) ;
#124 = PRODUCT_RELATED_PRODUCT_CATEGORY ( 'part', '', ( #165 ) ) ;
#125 = DIMENSIONAL_EXPONENTS ( 1.000000000000000000, 0.0000000000000000000, 0.0000000000000000000, 0.0000000000000000000, 0.0000000000000000000, 0.0000000000000000000, 0.0000000000000000000 ) ;
#126 = FILL_AREA_STYLE ('',( #207 ) ) ;
#127 = DIRECTION ( 'NONE',  ( 1.000000000000000000, 0.0000000000000000000, 0.0000000000000000000 ) ) ;
#128 =( LENGTH_UNIT ( ) NAMED_UNIT ( * ) SI_UNIT ( $, .METRE. ) );
#129 = ORIENTED_EDGE ( 'NONE', *, *, #181, .F. ) ;
#130 = FACE_OUTER_BOUND ( 'NONE', #232, .T. ) ;
#131 = EDGE_LOOP ( 'NONE', ( #23, #78, #171, #194 ) ) ;
#132 = CARTESIAN_POINT ( 'NONE',  ( 0.0000000000000000000, 0.0000000000000000000, 2.754000000000001336 ) ) ;
#133 = VECTOR ( 'NONE', #11, 39.37007874015748143 ) ;
#134 = VERTEX_POINT ( 'NONE', #157 ) ;
#135 = DIRECTION ( 'NONE',  ( 1.000000000000000000, 0.0000000000000000000, 0.0000000000000000000 ) ) ;
#136 = CARTESIAN_POINT ( 'NONE',  ( -0.2500000000000000000, 0.0000000000000000000, 3.000000000000000444 ) ) ;
#137 = AXIS2_PLACEMENT_3D ( 'NONE', #132, #4, #83 ) ;
#138 =( NAMED_UNIT ( * ) SI_UNIT ( $, .STERADIAN. ) SOLID_ANGLE_UNIT ( ) );
#139 = EDGE_CURVE ( 'NONE', #134, #43, #235, .T. ) ;
#140 = SURFACE_SIDE_STYLE ('',( #212 ) ) ;
#141 = CARTESIAN_POINT ( 'NONE',  ( 0.0000000000000000000, 0.0000000000000000000, 3.000000000000000444 ) ) ;
#142 = FACE_OUTER_BOUND ( 'NONE', #118, .T. ) ;
#143 = CIRCLE ( 'NONE', #168, 0.003999999999999999216 ) ;
#144 =( NAMED_UNIT ( * ) SI_UNIT ( $, .STERADIAN. ) SOLID_ANGLE_UNIT ( ) );
#145 =( LENGTH_UNIT ( ) NAMED_UNIT ( * ) SI_UNIT ( $, .METRE. ) );
#146 = SURFACE_STYLE_USAGE ( .BOTH. , #51 ) ;
#147 = FACE_OUTER_BOUND ( 'NONE', #192, .T. ) ;
#148 = ORIENTED_EDGE ( 'NONE', *, *, #117, .F. ) ;
#149 = PRODUCT_DEFINITION ( 'UNKNOWN', '', #185, #213 ) ;
#150 = DIRECTION ( 'NONE',  ( 0.0000000000000000000, 0.0000000000000000000, 1.000000000000000000 ) ) ;
#151 = CLOSED_SHELL ( 'NONE', ( #241, #84, #226, #72, #121, #27, #61, #15 ) ) ;
#152 = UNCERTAINTY_MEASURE_WITH_UNIT (LENGTH_MEASURE( 1.000000000000000082E-05 ), #65, 'distance_accuracy_value', 'NONE');
#153 = ORIENTED_EDGE ( 'NONE', *, *, #170, .F. ) ;
#154 = PLANE ( 'NONE',  #74 ) ;
#155 = ORIENTED_EDGE ( 'NONE', *, *, #12, .F. ) ;
#156 = ORIENTED_EDGE ( 'NONE', *, *, #100, .F. ) ;
#157 = CARTESIAN_POINT ( 'NONE',  ( -0.2500000000000000000, 0.0000000000000000000, 2.754000000000001336 ) ) ;
#158 = DIRECTION ( 'NONE',  ( -1.000000000000000000, 0.0000000000000000000, 0.0000000000000000000 ) ) ;
#159 = CIRCLE ( 'NONE', #75, 0.003999999999999999216 ) ;
#160 = CARTESIAN_POINT ( 'NONE',  ( 0.0000000000000000000, 0.0000000000000000000, 3.000000000000000444 ) ) ;
#161 = DIRECTION ( 'NONE',  ( -0.0000000000000000000, -0.0000000000000000000, -1.000000000000000000 ) ) ;
#162 = VECTOR ( 'NONE', #38, 39.37007874015748143 ) ;
#163 = CARTESIAN_POINT ( 'NONE',  ( 0.0000000000000000000, 0.0000000000000000000, 3.000000000000000444 ) ) ;
#164 = LENGTH_MEASURE_WITH_UNIT ( LENGTH_MEASURE( 0.02539999999999999897 ), #145 );
#165 = PRODUCT ( 'Micro_RNC-500-2', 'Micro_RNC-500-2', '', ( #230 ) ) ;
#166 = DIRECTION ( 'NONE',  ( -1.000000000000000000, 0.0000000000000000000, 0.0000000000000000000 ) ) ;
#167 = VERTEX_POINT ( 'NONE', #88 ) ;
#168 = AXIS2_PLACEMENT_3D ( 'NONE', #190, #93, #166 ) ;
#169 = ORIENTED_EDGE ( 'NONE', *, *, #117, .T. ) ;
#170 = EDGE_CURVE ( 'NONE', #41, #56, #39, .T. ) ;
#171 = ORIENTED_EDGE ( 'NONE', *, *, #112, .T. ) ;
#172 = AXIS2_PLACEMENT_3D ( 'NONE', #90, #123, #48 ) ;
#173 = CARTESIAN_POINT ( 'NONE',  ( 0.0000000000000000000, 0.0000000000000000000, 3.000000000000000444 ) ) ;
#174 = DIRECTION ( 'NONE',  ( 1.000000000000000000, 0.0000000000000000000, -0.0000000000000000000 ) ) ;
#175 = DIRECTION ( 'NONE',  ( 1.000000000000000000, 0.0000000000000000000, -0.0000000000000000000 ) ) ;
#176 = EDGE_CURVE ( 'NONE', #80, #167, #143, .T. ) ;
#177 = AXIS2_PLACEMENT_3D ( 'NONE', #247, #234, #135 ) ;
#178 = CIRCLE ( 'NONE', #13, 0.2500000000000000000 ) ;
#179 = DIRECTION ( 'NONE',  ( 0.0000000000000000000, 0.0000000000000000000, -1.000000000000000000 ) ) ;
#180 = FACE_OUTER_BOUND ( 'NONE', #59, .T. ) ;
#181 = EDGE_CURVE ( 'NONE', #82, #21, #77, .T. ) ;
#182 = FACE_OUTER_BOUND ( 'NONE', #131, .T. ) ;
#183 = AXIS2_PLACEMENT_3D ( 'NONE', #173, #150, #175 ) ;
#184 = DIRECTION ( 'NONE',  ( -1.000000000000000000, 0.0000000000000000000, 0.0000000000000000000 ) ) ;
#185 = PRODUCT_DEFINITION_FORMATION_WITH_SPECIFIED_SOURCE ( 'ANY', '', #165, .NOT_KNOWN. ) ;
#186 = DIRECTION ( 'NONE',  ( -0.0000000000000000000, -0.0000000000000000000, -1.000000000000000000 ) ) ;
#187 = DIRECTION ( 'NONE',  ( -1.000000000000000000, 0.0000000000000000000, 0.0000000000000000000 ) ) ;
#188 = STYLED_ITEM ( 'NONE', ( #46 ), #54 ) ;
#189 =( GEOMETRIC_REPRESENTATION_CONTEXT ( 3 ) GLOBAL_UNCERTAINTY_ASSIGNED_CONTEXT ( ( #71 ) ) GLOBAL_UNIT_ASSIGNED_CONTEXT ( ( #53, #35, #73 ) ) REPRESENTATION_CONTEXT ( 'NONE', 'WORKASPACE' ) );
#190 = CARTESIAN_POINT ( 'NONE',  ( 0.0000000000000000000, 0.0000000000000000000, 0.0000000000000000000 ) ) ;
#191 = AXIS2_PLACEMENT_3D ( 'NONE', #103, #24, #42 ) ;
#192 = EDGE_LOOP ( 'NONE', ( #63, #246, #115, #210 ) ) ;
#193 = ORIENTED_EDGE ( 'NONE', *, *, #196, .F. ) ;
#194 = ORIENTED_EDGE ( 'NONE', *, *, #37, .F. ) ;
#195 = ORIENTED_EDGE ( 'NONE', *, *, #139, .T. ) ;
#196 = EDGE_CURVE ( 'NONE', #21, #43, #178, .T. ) ;
#197 = ORIENTED_EDGE ( 'NONE', *, *, #139, .F. ) ;
#198 = DIRECTION ( 'NONE',  ( -1.000000000000000000, 0.0000000000000000000, 0.0000000000000000000 ) ) ;
#199 = AXIS2_PLACEMENT_3D ( 'NONE', #163, #161, #205 ) ;
#200 = LINE ( 'NONE', #31, #206 ) ;
#201 = CARTESIAN_POINT ( 'NONE',  ( 0.003999999999999999216, 0.0000000000000000000, 3.000000000000000444 ) ) ;
#202 = PRESENTATION_LAYER_ASSIGNMENT (  '', '', ( #188 ) ) ;
#203 = AXIS2_PLACEMENT_3D ( 'NONE', #160, #223, #127 ) ;
#204 = CARTESIAN_POINT ( 'NONE',  ( 0.0000000000000000000, 0.0000000000000000000, 2.754000000000001336 ) ) ;
#205 = DIRECTION ( 'NONE',  ( -1.000000000000000000, 0.0000000000000000000, 0.0000000000000000000 ) ) ;
#206 = VECTOR ( 'NONE', #107, 39.37007874015748143 ) ;
#207 = FILL_AREA_STYLE_COLOUR ( '', #249 ) ;
#208 =( CONVERSION_BASED_UNIT ( 'INCH', #14 ) LENGTH_UNIT ( ) NAMED_UNIT ( #86 ) );
#209 = ORIENTED_EDGE ( 'NONE', *, *, #94, .F. ) ;
#210 = ORIENTED_EDGE ( 'NONE', *, *, #112, .F. ) ;
#211 = CIRCLE ( 'NONE', #106, 0.2500000000000000000 ) ;
#212 = SURFACE_STYLE_FILL_AREA ( #227 ) ;
#213 = PRODUCT_DEFINITION_CONTEXT ( 'detailed design', #22, 'design' ) ;
#214 = ORIENTED_EDGE ( 'NONE', *, *, #176, .F. ) ;
#215 = ORIENTED_EDGE ( 'NONE', *, *, #176, .T. ) ;
#216 = VECTOR ( 'NONE', #33, 39.37007874015748143 ) ;
#217 = FACE_OUTER_BOUND ( 'NONE', #119, .T. ) ;
#218 = CARTESIAN_POINT ( 'NONE',  ( 0.0000000000000000000, 0.0000000000000000000, 3.000000000000000444 ) ) ;
#219 = DIRECTION ( 'NONE',  ( 0.0000000000000000000, 0.0000000000000000000, -1.000000000000000000 ) ) ;
#220 = FACE_OUTER_BOUND ( 'NONE', #229, .T. ) ;
#221 = CARTESIAN_POINT ( 'NONE',  ( 0.2500000000000000000, 3.061616997868382402E-17, 2.754000000000001336 ) ) ;
#222 = DIRECTION ( 'NONE',  ( 0.0000000000000000000, 0.0000000000000000000, -1.000000000000000000 ) ) ;
#223 = DIRECTION ( 'NONE',  ( 0.0000000000000000000, 0.0000000000000000000, -1.000000000000000000 ) ) ;
#224 = SURFACE_STYLE_FILL_AREA ( #126 ) ;
#225 = EDGE_LOOP ( 'NONE', ( #156, #214, #169, #101 ) ) ;
#226 = ADVANCED_FACE ( 'NONE', ( #142 ), #242, .T. ) ;
#227 = FILL_AREA_STYLE ('',( #79 ) ) ;
#228 = APPLICATION_PROTOCOL_DEFINITION ( 'draft international standard', 'automotive_design', 1998, #22 ) ;
#229 = EDGE_LOOP ( 'NONE', ( #155, #60, #231, #148 ) ) ;
#230 = PRODUCT_CONTEXT ( 'NONE', #9, 'mechanical' ) ;
#231 = ORIENTED_EDGE ( 'NONE', *, *, #94, .T. ) ;
#232 = EDGE_LOOP ( 'NONE', ( #215, #98 ) ) ;
#233 = STYLED_ITEM ( 'NONE', ( #240 ), #34 ) ;
#234 = DIRECTION ( 'NONE',  ( 0.0000000000000000000, 0.0000000000000000000, -1.000000000000000000 ) ) ;
#235 = LINE ( 'NONE', #136, #110 ) ;
#236 = CIRCLE ( 'NONE', #28, 0.2500000000000000000 ) ;
#237 = CARTESIAN_POINT ( 'NONE',  ( 0.0000000000000000000, 0.0000000000000000000, 0.0000000000000000000 ) ) ;
#238 =( LENGTH_UNIT ( ) NAMED_UNIT ( * ) SI_UNIT ( $, .METRE. ) );
#239 = PRODUCT_DEFINITION_SHAPE ( 'NONE', 'NONE',  #149 ) ;
#240 = PRESENTATION_STYLE_ASSIGNMENT (( #146 ) ) ;
#241 = ADVANCED_FACE ( 'NONE', ( #147 ), #52, .T. ) ;
#242 = CYLINDRICAL_SURFACE ( 'NONE', #199, 0.2500000000000000000 ) ;
#243 = CIRCLE ( 'NONE', #137, 0.2500000000000000000 ) ;
#244 = CARTESIAN_POINT ( 'NONE',  ( 0.2500000000000000000, 3.061616997868382402E-17, 3.000000000000000444 ) ) ;
#245 = AXIS2_PLACEMENT_3D ( 'NONE', #237, #10, #7 ) ;
#246 = ORIENTED_EDGE ( 'NONE', *, *, #19, .T. ) ;
#247 = CARTESIAN_POINT ( 'NONE',  ( 0.0000000000000000000, 0.0000000000000000000, 3.000000000000000444 ) ) ;
#248 = ORIENTED_EDGE ( 'NONE', *, *, #105, .T. ) ;
#249 = COLOUR_RGB ( '',0.7921568627450980005, 0.8196078431372548767, 0.9333333333333333481 ) ;
ENDSEC;
END-ISO-10303-21;
