ISO-10303-21;
HEADER;
FILE_DESCRIPTION (( 'STEP AP214' ),
    '1' );
FILE_NAME ('59723.STEP',
    '2023-07-24T15:29:03',
    ( '' ),
    ( '' ),
    'SwSTEP 2.0',
    'SolidWorks 2023',
    '' );
FILE_SCHEMA (( 'AUTOMOTIVE_DESIGN' ));
ENDSEC;

DATA;
#1 = DIRECTION ( 'NONE',  ( -0.000000000000000000, -1.000000000000000000, -0.000000000000000000 ) ) ;
#2 = FACE_OUTER_BOUND ( 'NONE', #244, .T. ) ;
#3 = PRODUCT ( '59723', '59723', '', ( #187 ) ) ;
#4 = FACE_OUTER_BOUND ( 'NONE', #305, .T. ) ;
#5 = ORIENTED_EDGE ( 'NONE', *, *, #210, .T. ) ;
#6 =( LENGTH_UNIT ( ) NAMED_UNIT ( * ) SI_UNIT ( .MILLI., .METRE. ) );
#7 = PLANE ( 'NONE',  #205 ) ;
#8 = DIRECTION ( 'NONE',  ( -1.576935716305902603E-16, 1.000000000000000000, -0.000000000000000000 ) ) ;
#9 = CIRCLE ( 'NONE', #206, 10.00000000000000000 ) ;
#10 = AXIS2_PLACEMENT_3D ( 'NONE', #152, #268, #218 ) ;
#11 = FILL_AREA_STYLE_COLOUR ( '', #182 ) ;
#12 = VERTEX_POINT ( 'NONE', #101 ) ;
#13 = FILL_AREA_STYLE ('',( #11 ) ) ;
#14 = AXIS2_PLACEMENT_3D ( 'NONE', #49, #360, #18 ) ;
#15 = CARTESIAN_POINT ( 'NONE',  ( -1.714505518806293652E-15, 89.00000000000000000, 0.000000000000000000 ) ) ;
#16 = DIRECTION ( 'NONE',  ( 0.000000000000000000, 0.000000000000000000, -1.000000000000000000 ) ) ;
#17 = AXIS2_PLACEMENT_3D ( 'NONE', #15, #136, #229 ) ;
#18 = DIRECTION ( 'NONE',  ( 0.000000000000000000, -0.000000000000000000, 1.000000000000000000 ) ) ;
#19 = PRESENTATION_LAYER_ASSIGNMENT (  '', '', ( #344 ) ) ;
#20 = CARTESIAN_POINT ( 'NONE',  ( 0.000000000000000000, 30.00000000000000000, -10.00000000000000000 ) ) ;
#21 = DIRECTION ( 'NONE',  ( -1.000000000000000000, 0.000000000000000000, 0.000000000000000000 ) ) ;
#22 = DIRECTION ( 'NONE',  ( -1.576935716305902603E-16, 1.000000000000000000, -0.000000000000000000 ) ) ;
#23 = ORIENTED_EDGE ( 'NONE', *, *, #246, .F. ) ;
#24 = CARTESIAN_POINT ( 'NONE',  ( 7.589415207398531038E-15, 30.00000000000000000, 0.000000000000000000 ) ) ;
#25 = SURFACE_STYLE_FILL_AREA ( #159 ) ;
#26 = AXIS2_PLACEMENT_3D ( 'NONE', #269, #318, #309 ) ;
#27 = STYLED_ITEM ( 'NONE', ( #287 ), #334 ) ;
#28 = FACE_OUTER_BOUND ( 'NONE', #312, .T. ) ;
#29 = ADVANCED_FACE ( 'NONE', ( #2 ), #245, .T. ) ;
#30 = CYLINDRICAL_SURFACE ( 'NONE', #10, 10.00000000000000000 ) ;
#31 = PLANE ( 'NONE',  #370 ) ;
#32 = COLOUR_RGB ( '',0.7921568627450980005, 0.8196078431372548767, 0.9333333333333333481 ) ;
#33 =( NAMED_UNIT ( * ) SI_UNIT ( $, .STERADIAN. ) SOLID_ANGLE_UNIT ( ) );
#34 = CARTESIAN_POINT ( 'NONE',  ( 0.000000000000000000, 0.5000000000000000000, 0.000000000000000000 ) ) ;
#35 = FILL_AREA_STYLE_COLOUR ( '', #367 ) ;
#36 = CIRCLE ( 'NONE', #99, 0.5000000000000004441 ) ;
#37 =( GEOMETRIC_REPRESENTATION_CONTEXT ( 3 ) GLOBAL_UNCERTAINTY_ASSIGNED_CONTEXT ( ( #38 ) ) GLOBAL_UNIT_ASSIGNED_CONTEXT ( ( #363, #368, #90 ) ) REPRESENTATION_CONTEXT ( 'NONE', 'WORKASPACE' ) );
#38 = UNCERTAINTY_MEASURE_WITH_UNIT (LENGTH_MEASURE( 1.000000000000000082E-05 ), #363, 'distance_accuracy_value', 'NONE');
#39 = EDGE_CURVE ( 'NONE', #174, #123, #46, .T. ) ;
#40 = MECHANICAL_DESIGN_GEOMETRIC_PRESENTATION_REPRESENTATION (  '', ( #230 ), #73 ) ;
#41 = SURFACE_SIDE_STYLE ('',( #366 ) ) ;
#42 = CARTESIAN_POINT ( 'NONE',  ( 0.000000000000000000, 0.5000000000000000000, -9.500000000000000000 ) ) ;
#43 = FILL_AREA_STYLE_COLOUR ( '', #358 ) ;
#44 = DIRECTION ( 'NONE',  ( -1.000000000000000000, 0.000000000000000000, 0.000000000000000000 ) ) ;
#45 = FACE_OUTER_BOUND ( 'NONE', #252, .T. ) ;
#46 = CIRCLE ( 'NONE', #332, 10.00000000000000000 ) ;
#47 = EDGE_CURVE ( 'NONE', #138, #215, #324, .T. ) ;
#48 = CARTESIAN_POINT ( 'NONE',  ( -1.714505518806293849E-15, 89.00000000000000000, 0.000000000000000000 ) ) ;
#49 = CARTESIAN_POINT ( 'NONE',  ( 0.000000000000000000, 30.00000000000000000, 0.000000000000000000 ) ) ;
#50 = LINE ( 'NONE', #104, #190 ) ;
#51 = UNCERTAINTY_MEASURE_WITH_UNIT (LENGTH_MEASURE( 1.000000000000000082E-05 ), #243, 'distance_accuracy_value', 'NONE');
#52 = DIRECTION ( 'NONE',  ( 0.000000000000000000, 0.000000000000000000, 1.000000000000000000 ) ) ;
#53 = CYLINDRICAL_SURFACE ( 'NONE', #131, 9.999999999999998224 ) ;
#54 = FACE_OUTER_BOUND ( 'NONE', #283, .T. ) ;
#55 = PRODUCT_DEFINITION ( 'UNKNOWN', '', #67, #259 ) ;
#56 = SURFACE_SIDE_STYLE ('',( #219 ) ) ;
#57 = AXIS2_PLACEMENT_3D ( 'NONE', #333, #74, #171 ) ;
#58 = AXIS2_PLACEMENT_3D ( 'NONE', #34, #160, #365 ) ;
#59 = FILL_AREA_STYLE ('',( #35 ) ) ;
#60 = DIRECTION ( 'NONE',  ( -1.576935716305902603E-16, 1.000000000000000000, -0.000000000000000000 ) ) ;
#61 = CARTESIAN_POINT ( 'NONE',  ( 0.000000000000000000, 30.00000000000000000, 0.000000000000000000 ) ) ;
#62 =( GEOMETRIC_REPRESENTATION_CONTEXT ( 3 ) GLOBAL_UNCERTAINTY_ASSIGNED_CONTEXT ( ( #70 ) ) GLOBAL_UNIT_ASSIGNED_CONTEXT ( ( #6, #158, #320 ) ) REPRESENTATION_CONTEXT ( 'NONE', 'WORKASPACE' ) );
#63 =( LENGTH_UNIT ( ) NAMED_UNIT ( * ) SI_UNIT ( .MILLI., .METRE. ) );
#64 = ORIENTED_EDGE ( 'NONE', *, *, #39, .F. ) ;
#65 = ORIENTED_EDGE ( 'NONE', *, *, #156, .F. ) ;
#66 = STYLED_ITEM ( 'NONE', ( #323 ), #227 ) ;
#67 = PRODUCT_DEFINITION_FORMATION_WITH_SPECIFIED_SOURCE ( 'ANY', '', #3, .NOT_KNOWN. ) ;
#68 = EDGE_LOOP ( 'NONE', ( #362, #235 ) ) ;
#69 = ORIENTED_EDGE ( 'NONE', *, *, #47, .T. ) ;
#70 = UNCERTAINTY_MEASURE_WITH_UNIT (LENGTH_MEASURE( 1.000000000000000082E-05 ), #6, 'distance_accuracy_value', 'NONE');
#71 = PRESENTATION_STYLE_ASSIGNMENT (( #262 ) ) ;
#72 = ORIENTED_EDGE ( 'NONE', *, *, #246, .T. ) ;
#73 =( GEOMETRIC_REPRESENTATION_CONTEXT ( 3 ) GLOBAL_UNCERTAINTY_ASSIGNED_CONTEXT ( ( #167 ) ) GLOBAL_UNIT_ASSIGNED_CONTEXT ( ( #202, #288, #176 ) ) REPRESENTATION_CONTEXT ( 'NONE', 'WORKASPACE' ) );
#74 = DIRECTION ( 'NONE',  ( -0.000000000000000000, -1.000000000000000000, -0.000000000000000000 ) ) ;
#75 = DIRECTION ( 'NONE',  ( 0.000000000000000000, -1.000000000000000000, -0.000000000000000000 ) ) ;
#76 = APPLICATION_CONTEXT ( 'automotive_design' ) ;
#77 = DIRECTION ( 'NONE',  ( -1.576935716305902603E-16, 1.000000000000000000, -0.000000000000000000 ) ) ;
#78 = PRESENTATION_STYLE_ASSIGNMENT (( #337 ) ) ;
#79 = ORIENTED_EDGE ( 'NONE', *, *, #364, .F. ) ;
#80 = DIRECTION ( 'NONE',  ( 0.000000000000000000, 0.000000000000000000, -1.000000000000000000 ) ) ;
#81 = DIRECTION ( 'NONE',  ( -1.576935716305902603E-16, 1.000000000000000000, -0.000000000000000000 ) ) ;
#82 = ORIENTED_EDGE ( 'NONE', *, *, #279, .T. ) ;
#83 = AXIS2_PLACEMENT_3D ( 'NONE', #266, #201, #16 ) ;
#84 =( GEOMETRIC_REPRESENTATION_CONTEXT ( 3 ) GLOBAL_UNCERTAINTY_ASSIGNED_CONTEXT ( ( #115 ) ) GLOBAL_UNIT_ASSIGNED_CONTEXT ( ( #149, #88, #94 ) ) REPRESENTATION_CONTEXT ( 'NONE', 'WORKASPACE' ) );
#85 = CIRCLE ( 'NONE', #173, 10.00000000000000000 ) ;
#86 = SURFACE_SIDE_STYLE ('',( #343 ) ) ;
#87 = ORIENTED_EDGE ( 'NONE', *, *, #125, .F. ) ;
#88 =( NAMED_UNIT ( * ) PLANE_ANGLE_UNIT ( ) SI_UNIT ( $, .RADIAN. ) );
#89 = CARTESIAN_POINT ( 'NONE',  ( -10.00000000000000355, 89.00000000000000000, 0.000000000000000000 ) ) ;
#90 =( NAMED_UNIT ( * ) SI_UNIT ( $, .STERADIAN. ) SOLID_ANGLE_UNIT ( ) );
#91 =( NAMED_UNIT ( * ) PLANE_ANGLE_UNIT ( ) SI_UNIT ( $, .RADIAN. ) );
#92 = AXIS2_PLACEMENT_3D ( 'NONE', #247, #175, #117 ) ;
#93 = CARTESIAN_POINT ( 'NONE',  ( 0.000000000000000000, 0.000000000000000000, 0.000000000000000000 ) ) ;
#94 =( NAMED_UNIT ( * ) SI_UNIT ( $, .STERADIAN. ) SOLID_ANGLE_UNIT ( ) );
#95 = DIRECTION ( 'NONE',  ( 0.000000000000000000, 0.000000000000000000, -1.000000000000000000 ) ) ;
#96 = EDGE_CURVE ( 'NONE', #12, #255, #9, .T. ) ;
#97 = ORIENTED_EDGE ( 'NONE', *, *, #129, .F. ) ;
#98 = APPLICATION_PROTOCOL_DEFINITION ( 'draft international standard', 'automotive_design', 1998, #102 ) ;
#99 = AXIS2_PLACEMENT_3D ( 'NONE', #42, #110, #339 ) ;
#100 = CIRCLE ( 'NONE', #327, 9.999999999999992895 ) ;
#101 = CARTESIAN_POINT ( 'NONE',  ( 0.000000000000000000, 0.5000000000000000000, -10.00000000000000000 ) ) ;
#102 = APPLICATION_CONTEXT ( 'automotive_design' ) ;
#103 = TOROIDAL_SURFACE ( 'NONE', #57, 9.500000000000000000, 0.5000000000000002220 ) ;
#104 = CARTESIAN_POINT ( 'NONE',  ( 9.999999999999996447, 89.00000000000000000, 1.224646799147353059E-15 ) ) ;
#105 = CARTESIAN_POINT ( 'NONE',  ( -1.714505518806293652E-15, 89.00000000000000000, 0.000000000000000000 ) ) ;
#106 = CARTESIAN_POINT ( 'NONE',  ( 0.000000000000000000, 0.5000000000000000000, 0.000000000000000000 ) ) ;
#107 = VERTEX_POINT ( 'NONE', #298 ) ;
#108 = COLOUR_RGB ( '',1.000000000000000000, 0.000000000000000000, 0.000000000000000000 ) ;
#109 = FILL_AREA_STYLE_COLOUR ( '', #278 ) ;
#110 = DIRECTION ( 'NONE',  ( -1.000000000000000000, 0.000000000000000000, 0.000000000000000000 ) ) ;
#111 = ADVANCED_FACE ( 'NONE', ( #28 ), #236, .T. ) ;
#112 = ORIENTED_EDGE ( 'NONE', *, *, #125, .T. ) ;
#113 =( NAMED_UNIT ( * ) SI_UNIT ( $, .STERADIAN. ) SOLID_ANGLE_UNIT ( ) );
#114 = FILL_AREA_STYLE_COLOUR ( '', #108 ) ;
#115 = UNCERTAINTY_MEASURE_WITH_UNIT (LENGTH_MEASURE( 1.000000000000000082E-05 ), #149, 'distance_accuracy_value', 'NONE');
#116 =( GEOMETRIC_REPRESENTATION_CONTEXT ( 3 ) GLOBAL_UNCERTAINTY_ASSIGNED_CONTEXT ( ( #194 ) ) GLOBAL_UNIT_ASSIGNED_CONTEXT ( ( #369, #265, #113 ) ) REPRESENTATION_CONTEXT ( 'NONE', 'WORKASPACE' ) );
#117 = DIRECTION ( 'NONE',  ( -1.224646799147353454E-16, 0.000000000000000000, -1.000000000000000000 ) ) ;
#118 = FILL_AREA_STYLE_COLOUR ( '', #32 ) ;
#119 = SURFACE_SIDE_STYLE ('',( #220 ) ) ;
#120 = PRESENTATION_STYLE_ASSIGNMENT (( #276 ) ) ;
#121 = EDGE_LOOP ( 'NONE', ( #82, #346, #280, #186 ) ) ;
#122 = PRESENTATION_LAYER_ASSIGNMENT (  '', '', ( #66 ) ) ;
#123 = VERTEX_POINT ( 'NONE', #20 ) ;
#124 = STYLED_ITEM ( 'NONE', ( #184 ), #335 ) ;
#125 = EDGE_CURVE ( 'NONE', #12, #163, #36, .T. ) ;
#126 = SURFACE_STYLE_USAGE ( .BOTH. , #209 ) ;
#127 = FILL_AREA_STYLE_COLOUR ( '', #319 ) ;
#128 = CARTESIAN_POINT ( 'NONE',  ( 0.000000000000000000, 0.5000000000000000000, 0.000000000000000000 ) ) ;
#129 = EDGE_CURVE ( 'NONE', #163, #178, #282, .T. ) ;
#130 = VECTOR ( 'NONE', #214, 1000.000000000000000 ) ;
#131 = AXIS2_PLACEMENT_3D ( 'NONE', #48, #60, #188 ) ;
#132 = ORIENTED_EDGE ( 'NONE', *, *, #96, .T. ) ;
#133 = ORIENTED_EDGE ( 'NONE', *, *, #185, .T. ) ;
#134 = EDGE_LOOP ( 'NONE', ( #328, #189, #69, #65 ) ) ;
#135 = CIRCLE ( 'NONE', #342, 9.500000000000000000 ) ;
#136 = DIRECTION ( 'NONE',  ( -1.576935716305902603E-16, 1.000000000000000000, -0.000000000000000000 ) ) ;
#137 = FACE_OUTER_BOUND ( 'NONE', #151, .T. ) ;
#138 = VERTEX_POINT ( 'NONE', #239 ) ;
#139 = CARTESIAN_POINT ( 'NONE',  ( 7.589415207398531038E-15, 30.00000000000000000, 0.000000000000000000 ) ) ;
#140 = PRODUCT_RELATED_PRODUCT_CATEGORY ( 'part', '', ( #3 ) ) ;
#141 =( GEOMETRIC_REPRESENTATION_CONTEXT ( 3 ) GLOBAL_UNCERTAINTY_ASSIGNED_CONTEXT ( ( #232 ) ) GLOBAL_UNIT_ASSIGNED_CONTEXT ( ( #300, #91, #33 ) ) REPRESENTATION_CONTEXT ( 'NONE', 'WORKASPACE' ) );
#142 = DIRECTION ( 'NONE',  ( -0.000000000000000000, -1.000000000000000000, -0.000000000000000000 ) ) ;
#143 = CARTESIAN_POINT ( 'NONE',  ( 0.000000000000000000, 0.000000000000000000, -9.500000000000000000 ) ) ;
#144 = CARTESIAN_POINT ( 'NONE',  ( 0.000000000000000000, 0.000000000000000000, -10.00000000000000000 ) ) ;
#145 = ADVANCED_FACE ( 'NONE', ( #336 ), #103, .T. ) ;
#146 = DIRECTION ( 'NONE',  ( -1.000000000000000000, 0.000000000000000000, 0.000000000000000000 ) ) ;
#147 =( NAMED_UNIT ( * ) PLANE_ANGLE_UNIT ( ) SI_UNIT ( $, .RADIAN. ) );
#148 = AXIS2_PLACEMENT_3D ( 'NONE', #351, #1, #95 ) ;
#149 =( LENGTH_UNIT ( ) NAMED_UNIT ( * ) SI_UNIT ( .MILLI., .METRE. ) );
#150 = PRESENTATION_STYLE_ASSIGNMENT (( #180 ) ) ;
#151 = EDGE_LOOP ( 'NONE', ( #133, #228 ) ) ;
#152 = CARTESIAN_POINT ( 'NONE',  ( 0.000000000000000000, 0.000000000000000000, 0.000000000000000000 ) ) ;
#153 = ORIENTED_EDGE ( 'NONE', *, *, #39, .T. ) ;
#154 = ADVANCED_BREP_SHAPE_REPRESENTATION ( '59723', ( #216, #334, #317 ), #231 ) ;
#155 = PRODUCT_DEFINITION_SHAPE ( 'NONE', 'NONE',  #55 ) ;
#156 = EDGE_CURVE ( 'NONE', #261, #215, #325, .T. ) ;
#157 = CLOSED_SHELL ( 'NONE', ( #335, #304, #227, #145, #29, #111 ) ) ;
#158 =( NAMED_UNIT ( * ) PLANE_ANGLE_UNIT ( ) SI_UNIT ( $, .RADIAN. ) );
#159 = FILL_AREA_STYLE ('',( #127 ) ) ;
#160 = DIRECTION ( 'NONE',  ( -0.000000000000000000, -1.000000000000000000, -0.000000000000000000 ) ) ;
#161 = ORIENTED_EDGE ( 'NONE', *, *, #364, .T. ) ;
#162 =( NAMED_UNIT ( * ) PLANE_ANGLE_UNIT ( ) SI_UNIT ( $, .RADIAN. ) );
#163 = VERTEX_POINT ( 'NONE', #143 ) ;
#164 = PRESENTATION_LAYER_ASSIGNMENT (  '', '', ( #264 ) ) ;
#165 = EDGE_CURVE ( 'NONE', #107, #138, #196, .T. ) ;
#166 = MECHANICAL_DESIGN_GEOMETRIC_PRESENTATION_REPRESENTATION (  '', ( #344 ), #254 ) ;
#167 = UNCERTAINTY_MEASURE_WITH_UNIT (LENGTH_MEASURE( 1.000000000000000082E-05 ), #202, 'distance_accuracy_value', 'NONE');
#168 = CARTESIAN_POINT ( 'NONE',  ( 1.224646799147353256E-15, 30.00000000000000000, 10.00000000000000000 ) ) ;
#169 = CARTESIAN_POINT ( 'NONE',  ( 1.224646799147353256E-15, 0.5000000000000000000, 10.00000000000000000 ) ) ;
#170 = ADVANCED_FACE ( 'NONE', ( #208 ), #195, .T. ) ;
#171 = DIRECTION ( 'NONE',  ( 0.000000000000000000, 0.000000000000000000, -1.000000000000000000 ) ) ;
#172 = SURFACE_SIDE_STYLE ('',( #294 ) ) ;
#173 = AXIS2_PLACEMENT_3D ( 'NONE', #106, #359, #199 ) ;
#174 = VERTEX_POINT ( 'NONE', #168 ) ;
#175 = DIRECTION ( 'NONE',  ( 1.000000000000000000, 0.000000000000000000, -1.224646799147353207E-16 ) ) ;
#176 =( NAMED_UNIT ( * ) SI_UNIT ( $, .STERADIAN. ) SOLID_ANGLE_UNIT ( ) );
#177 =( LENGTH_UNIT ( ) NAMED_UNIT ( * ) SI_UNIT ( .MILLI., .METRE. ) );
#178 = VERTEX_POINT ( 'NONE', #284 ) ;
#179 = DIRECTION ( 'NONE',  ( -1.000000000000000000, -1.576935716305902603E-16, 0.000000000000000000 ) ) ;
#180 = SURFACE_STYLE_USAGE ( .BOTH. , #56 ) ;
#181 = DIRECTION ( 'NONE',  ( 0.000000000000000000, 0.000000000000000000, -1.000000000000000000 ) ) ;
#182 = COLOUR_RGB ( '',1.000000000000000000, 0.000000000000000000, 0.000000000000000000 ) ;
#183 = DIRECTION ( 'NONE',  ( 1.000000000000000000, 0.000000000000000000, 0.000000000000000000 ) ) ;
#184 = PRESENTATION_STYLE_ASSIGNMENT (( #126 ) ) ;
#185 = EDGE_CURVE ( 'NONE', #215, #261, #291, .T. ) ;
#186 = ORIENTED_EDGE ( 'NONE', *, *, #47, .F. ) ;
#187 = PRODUCT_CONTEXT ( 'NONE', #76, 'mechanical' ) ;
#188 = DIRECTION ( 'NONE',  ( -1.000000000000000000, 0.000000000000000000, 0.000000000000000000 ) ) ;
#189 = ORIENTED_EDGE ( 'NONE', *, *, #165, .T. ) ;
#190 = VECTOR ( 'NONE', #81, 1000.000000000000000 ) ;
#191 = ORIENTED_EDGE ( 'NONE', *, *, #129, .T. ) ;
#192 = VECTOR ( 'NONE', #8, 1000.000000000000000 ) ;
#193 = MECHANICAL_DESIGN_GEOMETRIC_PRESENTATION_REPRESENTATION (  '', ( #27 ), #37 ) ;
#194 = UNCERTAINTY_MEASURE_WITH_UNIT (LENGTH_MEASURE( 1.000000000000000082E-05 ), #369, 'distance_accuracy_value', 'NONE');
#195 = CYLINDRICAL_SURFACE ( 'NONE', #26, 9.999999999999998224 ) ;
#196 = CIRCLE ( 'NONE', #316, 9.999999999999992895 ) ;
#197 = CIRCLE ( 'NONE', #92, 0.5000000000000004441 ) ;
#198 = ORIENTED_EDGE ( 'NONE', *, *, #290, .F. ) ;
#199 = DIRECTION ( 'NONE',  ( 0.000000000000000000, 0.000000000000000000, -1.000000000000000000 ) ) ;
#200 = LINE ( 'NONE', #311, #130 ) ;
#201 = DIRECTION ( 'NONE',  ( -0.000000000000000000, -1.000000000000000000, -0.000000000000000000 ) ) ;
#202 =( LENGTH_UNIT ( ) NAMED_UNIT ( * ) SI_UNIT ( .MILLI., .METRE. ) );
#203 = DIRECTION ( 'NONE',  ( 1.576935716305902603E-16, -1.000000000000000000, 0.000000000000000000 ) ) ;
#204 = PRESENTATION_LAYER_ASSIGNMENT (  '', '', ( #307 ) ) ;
#205 = AXIS2_PLACEMENT_3D ( 'NONE', #331, #75, #314 ) ;
#206 = AXIS2_PLACEMENT_3D ( 'NONE', #128, #354, #181 ) ;
#207 = FILL_AREA_STYLE ('',( #43 ) ) ;
#208 = FACE_OUTER_BOUND ( 'NONE', #134, .T. ) ;
#209 = SURFACE_SIDE_STYLE ('',( #270 ) ) ;
#210 = EDGE_CURVE ( 'NONE', #174, #255, #200, .T. ) ;
#211 = STYLED_ITEM ( 'NONE', ( #150 ), #216 ) ;
#212 = MECHANICAL_DESIGN_GEOMETRIC_PRESENTATION_REPRESENTATION (  '', ( #124 ), #84 ) ;
#213 = FILL_AREA_STYLE ('',( #109 ) ) ;
#214 = DIRECTION ( 'NONE',  ( -0.000000000000000000, -1.000000000000000000, -0.000000000000000000 ) ) ;
#215 = VERTEX_POINT ( 'NONE', #89 ) ;
#216 = MANIFOLD_SOLID_BREP ( 'Revolve - Cutting Edge', #157 ) ;
#217 = APPLICATION_PROTOCOL_DEFINITION ( 'draft international standard', 'automotive_design', 1998, #76 ) ;
#218 = DIRECTION ( 'NONE',  ( 0.000000000000000000, 0.000000000000000000, -1.000000000000000000 ) ) ;
#219 = SURFACE_STYLE_FILL_AREA ( #350 ) ;
#220 = SURFACE_STYLE_FILL_AREA ( #59 ) ;
#221 = SURFACE_STYLE_USAGE ( .BOTH. , #248 ) ;
#222 = MECHANICAL_DESIGN_GEOMETRIC_PRESENTATION_REPRESENTATION (  '', ( #307 ), #62 ) ;
#223 = COLOUR_RGB ( '',1.000000000000000000, 0.000000000000000000, 0.000000000000000000 ) ;
#224 = ORIENTED_EDGE ( 'NONE', *, *, #96, .F. ) ;
#225 = SURFACE_SIDE_STYLE ('',( #356 ) ) ;
#226 =( NAMED_UNIT ( * ) SI_UNIT ( $, .STERADIAN. ) SOLID_ANGLE_UNIT ( ) );
#227 = ADVANCED_FACE ( 'NONE', ( #54 ), #7, .T. ) ;
#228 = ORIENTED_EDGE ( 'NONE', *, *, #156, .T. ) ;
#229 = DIRECTION ( 'NONE',  ( -1.000000000000000000, 0.000000000000000000, 0.000000000000000000 ) ) ;
#230 = STYLED_ITEM ( 'NONE', ( #306 ), #111 ) ;
#231 =( GEOMETRIC_REPRESENTATION_CONTEXT ( 3 ) GLOBAL_UNCERTAINTY_ASSIGNED_CONTEXT ( ( #51 ) ) GLOBAL_UNIT_ASSIGNED_CONTEXT ( ( #243, #347, #271 ) ) REPRESENTATION_CONTEXT ( 'NONE', 'WORKASPACE' ) );
#232 = UNCERTAINTY_MEASURE_WITH_UNIT (LENGTH_MEASURE( 1.000000000000000082E-05 ), #300, 'distance_accuracy_value', 'NONE');
#233 = DIRECTION ( 'NONE',  ( 1.000000000000000000, 1.576935716305902603E-16, 0.000000000000000000 ) ) ;
#234 = ORIENTED_EDGE ( 'NONE', *, *, #322, .T. ) ;
#235 = ORIENTED_EDGE ( 'NONE', *, *, #165, .F. ) ;
#236 = PLANE ( 'NONE',  #14 ) ;
#237 = CARTESIAN_POINT ( 'NONE',  ( 0.000000000000000000, 0.000000000000000000, 0.000000000000000000 ) ) ;
#238 = EDGE_CURVE ( 'NONE', #123, #174, #260, .T. ) ;
#239 = CARTESIAN_POINT ( 'NONE',  ( -9.999999999999985789, 30.00000000000000000, 0.000000000000000000 ) ) ;
#240 = FILL_AREA_STYLE ('',( #114 ) ) ;
#241 = AXIS2_PLACEMENT_3D ( 'NONE', #361, #203, #233 ) ;
#242 = PRESENTATION_LAYER_ASSIGNMENT (  '', '', ( #124 ) ) ;
#243 =( LENGTH_UNIT ( ) NAMED_UNIT ( * ) SI_UNIT ( .MILLI., .METRE. ) );
#244 = EDGE_LOOP ( 'NONE', ( #293, #153, #249, #338 ) ) ;
#245 = CYLINDRICAL_SURFACE ( 'NONE', #148, 10.00000000000000000 ) ;
#246 = EDGE_CURVE ( 'NONE', #178, #163, #135, .T. ) ;
#247 = CARTESIAN_POINT ( 'NONE',  ( 1.163414459189985485E-15, 0.5000000000000000000, 9.500000000000000000 ) ) ;
#248 = SURFACE_SIDE_STYLE ('',( #25 ) ) ;
#249 = ORIENTED_EDGE ( 'NONE', *, *, #290, .T. ) ;
#250 = DIRECTION ( 'NONE',  ( -0.000000000000000000, -1.000000000000000000, -0.000000000000000000 ) ) ;
#251 =( NAMED_UNIT ( * ) SI_UNIT ( $, .STERADIAN. ) SOLID_ANGLE_UNIT ( ) );
#252 = EDGE_LOOP ( 'NONE', ( #132, #161, #97, #87 ) ) ;
#253 = MECHANICAL_DESIGN_GEOMETRIC_PRESENTATION_REPRESENTATION (  '', ( #264 ), #116 ) ;
#254 =( GEOMETRIC_REPRESENTATION_CONTEXT ( 3 ) GLOBAL_UNCERTAINTY_ASSIGNED_CONTEXT ( ( #281 ) ) GLOBAL_UNIT_ASSIGNED_CONTEXT ( ( #177, #147, #226 ) ) REPRESENTATION_CONTEXT ( 'NONE', 'WORKASPACE' ) );
#255 = VERTEX_POINT ( 'NONE', #169 ) ;
#256 = SURFACE_STYLE_USAGE ( .BOTH. , #225 ) ;
#257 = UNCERTAINTY_MEASURE_WITH_UNIT (LENGTH_MEASURE( 1.000000000000000082E-05 ), #63, 'distance_accuracy_value', 'NONE');
#258 = EDGE_CURVE ( 'NONE', #107, #261, #50, .T. ) ;
#259 = PRODUCT_DEFINITION_CONTEXT ( 'detailed design', #102, 'design' ) ;
#260 = CIRCLE ( 'NONE', #83, 10.00000000000000000 ) ;
#261 = VERTEX_POINT ( 'NONE', #285 ) ;
#262 = SURFACE_STYLE_USAGE ( .BOTH. , #41 ) ;
#263 = LINE ( 'NONE', #144, #292 ) ;
#264 = STYLED_ITEM ( 'NONE', ( #71 ), #145 ) ;
#265 =( NAMED_UNIT ( * ) PLANE_ANGLE_UNIT ( ) SI_UNIT ( $, .RADIAN. ) );
#266 = CARTESIAN_POINT ( 'NONE',  ( 0.000000000000000000, 30.00000000000000000, 0.000000000000000000 ) ) ;
#267 = DIRECTION ( 'NONE',  ( -0.000000000000000000, -1.000000000000000000, -0.000000000000000000 ) ) ;
#268 = DIRECTION ( 'NONE',  ( -0.000000000000000000, -1.000000000000000000, -0.000000000000000000 ) ) ;
#269 = CARTESIAN_POINT ( 'NONE',  ( -1.714505518806293849E-15, 89.00000000000000000, 0.000000000000000000 ) ) ;
#270 = SURFACE_STYLE_FILL_AREA ( #213 ) ;
#271 =( NAMED_UNIT ( * ) SI_UNIT ( $, .STERADIAN. ) SOLID_ANGLE_UNIT ( ) );
#272 = ORIENTED_EDGE ( 'NONE', *, *, #238, .T. ) ;
#273 = ORIENTED_EDGE ( 'NONE', *, *, #238, .F. ) ;
#274 = DIRECTION ( 'NONE',  ( -1.576935716305902603E-16, 1.000000000000000000, 0.000000000000000000 ) ) ;
#275 = ADVANCED_FACE ( 'NONE', ( #137 ), #310, .F. ) ;
#276 = SURFACE_STYLE_USAGE ( .BOTH. , #119 ) ;
#277 = PRESENTATION_LAYER_ASSIGNMENT (  '', '', ( #211 ) ) ;
#278 = COLOUR_RGB ( '',1.000000000000000000, 0.000000000000000000, 0.000000000000000000 ) ;
#279 = EDGE_CURVE ( 'NONE', #138, #107, #100, .T. ) ;
#280 = ORIENTED_EDGE ( 'NONE', *, *, #185, .F. ) ;
#281 = UNCERTAINTY_MEASURE_WITH_UNIT (LENGTH_MEASURE( 1.000000000000000082E-05 ), #177, 'distance_accuracy_value', 'NONE');
#282 = CIRCLE ( 'NONE', #297, 9.500000000000000000 ) ;
#283 = EDGE_LOOP ( 'NONE', ( #191, #72 ) ) ;
#284 = CARTESIAN_POINT ( 'NONE',  ( 1.194030629168669469E-15, 0.000000000000000000, 9.500000000000000000 ) ) ;
#285 = CARTESIAN_POINT ( 'NONE',  ( 10.00000000000000000, 89.00000000000000000, 1.224646799147353256E-15 ) ) ;
#286 = DIRECTION ( 'NONE',  ( 0.000000000000000000, 0.000000000000000000, -1.000000000000000000 ) ) ;
#287 = PRESENTATION_STYLE_ASSIGNMENT (( #329 ) ) ;
#288 =( NAMED_UNIT ( * ) PLANE_ANGLE_UNIT ( ) SI_UNIT ( $, .RADIAN. ) );
#289 = CLOSED_SHELL ( 'NONE', ( #341, #353, #170, #275 ) ) ;
#290 = EDGE_CURVE ( 'NONE', #123, #12, #263, .T. ) ;
#291 = CIRCLE ( 'NONE', #17, 10.00000000000000178 ) ;
#292 = VECTOR ( 'NONE', #267, 1000.000000000000000 ) ;
#293 = ORIENTED_EDGE ( 'NONE', *, *, #210, .F. ) ;
#294 = SURFACE_STYLE_FILL_AREA ( #207 ) ;
#295 = DIRECTION ( 'NONE',  ( -1.576935716305902603E-16, 1.000000000000000000, -0.000000000000000000 ) ) ;
#296 = FILL_AREA_STYLE_COLOUR ( '', #223 ) ;
#297 = AXIS2_PLACEMENT_3D ( 'NONE', #330, #142, #80 ) ;
#298 = CARTESIAN_POINT ( 'NONE',  ( 10.00000000000000000, 30.00000000000000000, 1.224646799147353256E-15 ) ) ;
#299 = TOROIDAL_SURFACE ( 'NONE', #58, 9.500000000000000000, 0.5000000000000002220 ) ;
#300 =( LENGTH_UNIT ( ) NAMED_UNIT ( * ) SI_UNIT ( .MILLI., .METRE. ) );
#301 = FACE_OUTER_BOUND ( 'NONE', #68, .T. ) ;
#302 = CARTESIAN_POINT ( 'NONE',  ( -10.00000000000000000, 89.00000000000000000, 0.000000000000000000 ) ) ;
#303 = MECHANICAL_DESIGN_GEOMETRIC_PRESENTATION_REPRESENTATION (  '', ( #211 ), #141 ) ;
#304 = ADVANCED_FACE ( 'NONE', ( #45 ), #299, .T. ) ;
#305 = EDGE_LOOP ( 'NONE', ( #272, #5, #224, #198 ) ) ;
#306 = PRESENTATION_STYLE_ASSIGNMENT (( #256 ) ) ;
#307 = STYLED_ITEM ( 'NONE', ( #120 ), #29 ) ;
#308 = PRESENTATION_LAYER_ASSIGNMENT (  '', '', ( #230 ) ) ;
#309 = DIRECTION ( 'NONE',  ( -1.000000000000000000, 0.000000000000000000, 0.000000000000000000 ) ) ;
#310 = PLANE ( 'NONE',  #241 ) ;
#311 = CARTESIAN_POINT ( 'NONE',  ( 1.224646799147353256E-15, 0.000000000000000000, 10.00000000000000000 ) ) ;
#312 = EDGE_LOOP ( 'NONE', ( #273, #64 ) ) ;
#313 = CARTESIAN_POINT ( 'NONE',  ( 7.589415207398531038E-15, 30.00000000000000000, 0.000000000000000000 ) ) ;
#314 = DIRECTION ( 'NONE',  ( 0.000000000000000000, 0.000000000000000000, -1.000000000000000000 ) ) ;
#315 = FILL_AREA_STYLE ('',( #296 ) ) ;
#316 = AXIS2_PLACEMENT_3D ( 'NONE', #313, #22, #146 ) ;
#317 = AXIS2_PLACEMENT_3D ( 'NONE', #93, #52, #183 ) ;
#318 = DIRECTION ( 'NONE',  ( -1.576935716305902603E-16, 1.000000000000000000, -0.000000000000000000 ) ) ;
#319 = COLOUR_RGB ( '',1.000000000000000000, 0.000000000000000000, 0.000000000000000000 ) ;
#320 =( NAMED_UNIT ( * ) SI_UNIT ( $, .STERADIAN. ) SOLID_ANGLE_UNIT ( ) );
#321 = FACE_OUTER_BOUND ( 'NONE', #121, .T. ) ;
#322 = EDGE_CURVE ( 'NONE', #255, #12, #85, .T. ) ;
#323 = PRESENTATION_STYLE_ASSIGNMENT (( #221 ) ) ;
#324 = LINE ( 'NONE', #302, #192 ) ;
#325 = CIRCLE ( 'NONE', #355, 10.00000000000000178 ) ;
#326 = MECHANICAL_DESIGN_GEOMETRIC_PRESENTATION_REPRESENTATION (  '', ( #66 ), #357 ) ;
#327 = AXIS2_PLACEMENT_3D ( 'NONE', #139, #295, #21 ) ;
#328 = ORIENTED_EDGE ( 'NONE', *, *, #258, .F. ) ;
#329 = SURFACE_STYLE_USAGE ( .BOTH. , #172 ) ;
#330 = CARTESIAN_POINT ( 'NONE',  ( 0.000000000000000000, 0.000000000000000000, 0.000000000000000000 ) ) ;
#331 = CARTESIAN_POINT ( 'NONE',  ( 0.000000000000000000, 0.000000000000000000, 0.000000000000000000 ) ) ;
#332 = AXIS2_PLACEMENT_3D ( 'NONE', #61, #250, #352 ) ;
#333 = CARTESIAN_POINT ( 'NONE',  ( 0.000000000000000000, 0.5000000000000000000, 0.000000000000000000 ) ) ;
#334 = MANIFOLD_SOLID_BREP ( 'Revolve - Tool Body (Straight Shanked)', #289 ) ;
#335 = ADVANCED_FACE ( 'NONE', ( #4 ), #30, .T. ) ;
#336 = FACE_OUTER_BOUND ( 'NONE', #345, .T. ) ;
#337 = SURFACE_STYLE_USAGE ( .BOTH. , #86 ) ;
#338 = ORIENTED_EDGE ( 'NONE', *, *, #322, .F. ) ;
#339 = DIRECTION ( 'NONE',  ( 0.000000000000000000, 0.000000000000000000, 1.000000000000000000 ) ) ;
#340 = DIRECTION ( 'NONE',  ( -0.000000000000000000, -1.000000000000000000, -0.000000000000000000 ) ) ;
#341 = ADVANCED_FACE ( 'NONE', ( #321 ), #53, .T. ) ;
#342 = AXIS2_PLACEMENT_3D ( 'NONE', #237, #340, #286 ) ;
#343 = SURFACE_STYLE_FILL_AREA ( #240 ) ;
#344 = STYLED_ITEM ( 'NONE', ( #78 ), #304 ) ;
#345 = EDGE_LOOP ( 'NONE', ( #79, #234, #112, #23 ) ) ;
#346 = ORIENTED_EDGE ( 'NONE', *, *, #258, .T. ) ;
#347 =( NAMED_UNIT ( * ) PLANE_ANGLE_UNIT ( ) SI_UNIT ( $, .RADIAN. ) );
#348 = PRESENTATION_LAYER_ASSIGNMENT (  '', '', ( #27 ) ) ;
#349 = SHAPE_DEFINITION_REPRESENTATION ( #155, #154 ) ;
#350 = FILL_AREA_STYLE ('',( #118 ) ) ;
#351 = CARTESIAN_POINT ( 'NONE',  ( 0.000000000000000000, 0.000000000000000000, 0.000000000000000000 ) ) ;
#352 = DIRECTION ( 'NONE',  ( 0.000000000000000000, 0.000000000000000000, -1.000000000000000000 ) ) ;
#353 = ADVANCED_FACE ( 'NONE', ( #301 ), #31, .F. ) ;
#354 = DIRECTION ( 'NONE',  ( -0.000000000000000000, -1.000000000000000000, -0.000000000000000000 ) ) ;
#355 = AXIS2_PLACEMENT_3D ( 'NONE', #105, #77, #44 ) ;
#356 = SURFACE_STYLE_FILL_AREA ( #13 ) ;
#357 =( GEOMETRIC_REPRESENTATION_CONTEXT ( 3 ) GLOBAL_UNCERTAINTY_ASSIGNED_CONTEXT ( ( #257 ) ) GLOBAL_UNIT_ASSIGNED_CONTEXT ( ( #63, #162, #251 ) ) REPRESENTATION_CONTEXT ( 'NONE', 'WORKASPACE' ) );
#358 = COLOUR_RGB ( '',0.7921568627450980005, 0.8196078431372548767, 0.9333333333333333481 ) ;
#359 = DIRECTION ( 'NONE',  ( -0.000000000000000000, -1.000000000000000000, -0.000000000000000000 ) ) ;
#360 = DIRECTION ( 'NONE',  ( 0.000000000000000000, 1.000000000000000000, 0.000000000000000000 ) ) ;
#361 = CARTESIAN_POINT ( 'NONE',  ( 10.00000000000000000, 89.00000000000000000, 0.000000000000000000 ) ) ;
#362 = ORIENTED_EDGE ( 'NONE', *, *, #279, .F. ) ;
#363 =( LENGTH_UNIT ( ) NAMED_UNIT ( * ) SI_UNIT ( .MILLI., .METRE. ) );
#364 = EDGE_CURVE ( 'NONE', #255, #178, #197, .T. ) ;
#365 = DIRECTION ( 'NONE',  ( 0.000000000000000000, 0.000000000000000000, -1.000000000000000000 ) ) ;
#366 = SURFACE_STYLE_FILL_AREA ( #315 ) ;
#367 = COLOUR_RGB ( '',1.000000000000000000, 0.000000000000000000, 0.000000000000000000 ) ;
#368 =( NAMED_UNIT ( * ) PLANE_ANGLE_UNIT ( ) SI_UNIT ( $, .RADIAN. ) );
#369 =( LENGTH_UNIT ( ) NAMED_UNIT ( * ) SI_UNIT ( .MILLI., .METRE. ) );
#370 = AXIS2_PLACEMENT_3D ( 'NONE', #24, #274, #179 ) ;
ENDSEC;
END-ISO-10303-21;
