ISO-10303-21;
HEADER;
FILE_DESCRIPTION (( 'STEP AP214' ),
    '1' );
FILE_NAME ('Micro_SBM-125-4X.STEP',
    '2021-09-02T17:01:06',
    ( '' ),
    ( '' ),
    'SwSTEP 2.0',
    'SolidWorks 2020',
    '' );
FILE_SCHEMA (( 'AUTOMOTIVE_DESIGN' ));
ENDSEC;

DATA;
#1 = CARTESIAN_POINT ( 'NONE',  ( 0.0000000000000000000, 0.0000000000000000000, 0.2500000000000000555 ) ) ;
#2 = VECTOR ( 'NONE', #218, 39.37007874015748854 ) ;
#3 = CARTESIAN_POINT ( 'NONE',  ( -0.05000000000000000278, 0.0000000000000000000, 0.0000000000000000000 ) ) ;
#4 = SHAPE_DEFINITION_REPRESENTATION ( #337, #160 ) ;
#5 = DIRECTION ( 'NONE',  ( -1.000000000000000000, 0.0000000000000000000, 0.0000000000000000000 ) ) ;
#6 = DIRECTION ( 'NONE',  ( -0.0000000000000000000, -0.0000000000000000000, -1.000000000000000000 ) ) ;
#7 = AXIS2_PLACEMENT_3D ( 'NONE', #193, #215, #167 ) ;
#8 = ORIENTED_EDGE ( 'NONE', *, *, #311, .F. ) ;
#9 = CIRCLE ( 'NONE', #222, 0.1250000000000000000 ) ;
#10 = DIRECTION ( 'NONE',  ( 1.000000000000000000, 0.0000000000000000000, 0.0000000000000000000 ) ) ;
#11 = CARTESIAN_POINT ( 'NONE',  ( 0.04999999999999998196, 0.0000000000000000000, 0.2500000000000000555 ) ) ;
#12 = LINE ( 'NONE', #259, #29 ) ;
#13 =( GEOMETRIC_REPRESENTATION_CONTEXT ( 3 ) GLOBAL_UNCERTAINTY_ASSIGNED_CONTEXT ( ( #32 ) ) GLOBAL_UNIT_ASSIGNED_CONTEXT ( ( #330, #210, #313 ) ) REPRESENTATION_CONTEXT ( 'NONE', 'WORKASPACE' ) );
#14 = ADVANCED_FACE ( 'NONE', ( #288 ), #290, .T. ) ;
#15 = ORIENTED_EDGE ( 'NONE', *, *, #143, .F. ) ;
#16 =( NAMED_UNIT ( * ) PLANE_ANGLE_UNIT ( ) SI_UNIT ( $, .RADIAN. ) );
#17 = ORIENTED_EDGE ( 'NONE', *, *, #262, .T. ) ;
#18 = EDGE_LOOP ( 'NONE', ( #93, #257, #341, #263 ) ) ;
#19 = VECTOR ( 'NONE', #319, 39.37007874015748854 ) ;
#20 = FACE_OUTER_BOUND ( 'NONE', #287, .T. ) ;
#21 = FACE_OUTER_BOUND ( 'NONE', #74, .T. ) ;
#22 = DIMENSIONAL_EXPONENTS ( 1.000000000000000000, 0.0000000000000000000, 0.0000000000000000000, 0.0000000000000000000, 0.0000000000000000000, 0.0000000000000000000, 0.0000000000000000000 ) ;
#23 =( CONVERSION_BASED_UNIT ( 'INCH', #247 ) LENGTH_UNIT ( ) NAMED_UNIT ( #22 ) );
#24 = EDGE_CURVE ( 'NONE', #190, #241, #325, .T. ) ;
#25 = AXIS2_PLACEMENT_3D ( 'NONE', #96, #182, #70 ) ;
#26 = DIRECTION ( 'NONE',  ( -0.0000000000000000000, -0.0000000000000000000, -1.000000000000000000 ) ) ;
#27 = LINE ( 'NONE', #3, #322 ) ;
#28 = CARTESIAN_POINT ( 'NONE',  ( 0.0000000000000000000, 0.0000000000000000000, 3.000000000000000444 ) ) ;
#29 = VECTOR ( 'NONE', #121, 39.37007874015748854 ) ;
#30 = DIRECTION ( 'NONE',  ( -0.0000000000000000000, -0.0000000000000000000, -1.000000000000000000 ) ) ;
#31 = ORIENTED_EDGE ( 'NONE', *, *, #176, .T. ) ;
#32 = UNCERTAINTY_MEASURE_WITH_UNIT (LENGTH_MEASURE( 1.000000000000000082E-05 ), #330, 'distance_accuracy_value', 'NONE');
#33 = ORIENTED_EDGE ( 'NONE', *, *, #24, .F. ) ;
#34 = CARTESIAN_POINT ( 'NONE',  ( -0.1100000000000004446, 0.0000000000000000000, 3.000000000000000444 ) ) ;
#35 = VERTEX_POINT ( 'NONE', #191 ) ;
#36 = VECTOR ( 'NONE', #170, 39.37007874015748143 ) ;
#37 = DIRECTION ( 'NONE',  ( 1.000000000000000000, 0.0000000000000000000, 0.0000000000000000000 ) ) ;
#38 = ORIENTED_EDGE ( 'NONE', *, *, #165, .F. ) ;
#39 = DIRECTION ( 'NONE',  ( -1.000000000000000000, 0.0000000000000000000, 0.0000000000000000000 ) ) ;
#40 = ORIENTED_EDGE ( 'NONE', *, *, #128, .T. ) ;
#41 = APPLICATION_CONTEXT ( 'automotive_design' ) ;
#42 = LINE ( 'NONE', #34, #68 ) ;
#43 = EDGE_CURVE ( 'NONE', #48, #151, #73, .T. ) ;
#44 = FILL_AREA_STYLE ('',( #162 ) ) ;
#45 = DIRECTION ( 'NONE',  ( -1.000000000000000000, 0.0000000000000000000, 0.0000000000000000000 ) ) ;
#46 = ORIENTED_EDGE ( 'NONE', *, *, #298, .T. ) ;
#47 = DIRECTION ( 'NONE',  ( 1.000000000000000000, 0.0000000000000000000, -0.0000000000000000000 ) ) ;
#48 = VERTEX_POINT ( 'NONE', #267 ) ;
#49 = CARTESIAN_POINT ( 'NONE',  ( 0.1100000000000004446, 1.347111479062094019E-17, 3.000000000000000444 ) ) ;
#50 = AXIS2_PLACEMENT_3D ( 'NONE', #168, #270, #45 ) ;
#51 = CONICAL_SURFACE ( 'NONE', #123, 0.1374999999999997613, 0.08800737352774079536 ) ;
#52 = ADVANCED_FACE ( 'NONE', ( #289 ), #238, .T. ) ;
#53 = DIRECTION ( 'NONE',  ( 0.0000000000000000000, 1.000000000000000000, 0.0000000000000000000 ) ) ;
#54 =( NAMED_UNIT ( * ) SI_UNIT ( $, .STERADIAN. ) SOLID_ANGLE_UNIT ( ) );
#55 = DIRECTION ( 'NONE',  ( 0.0000000000000000000, 0.0000000000000000000, -1.000000000000000000 ) ) ;
#56 = AXIS2_PLACEMENT_3D ( 'NONE', #89, #94, #10 ) ;
#57 = CARTESIAN_POINT ( 'NONE',  ( 0.1100000000000004446, 1.438959988998142687E-17, 3.000000000000000444 ) ) ;
#58 = SURFACE_STYLE_FILL_AREA ( #175 ) ;
#59 = DIRECTION ( 'NONE',  ( -1.000000000000000000, 0.0000000000000000000, 0.0000000000000000000 ) ) ;
#60 = AXIS2_PLACEMENT_3D ( 'NONE', #118, #278, #62 ) ;
#61 = DIRECTION ( 'NONE',  ( 0.0000000000000000000, 0.0000000000000000000, 1.000000000000000000 ) ) ;
#62 = DIRECTION ( 'NONE',  ( -1.000000000000000000, 0.0000000000000000000, 0.0000000000000000000 ) ) ;
#63 = UNCERTAINTY_MEASURE_WITH_UNIT (LENGTH_MEASURE( 1.000000000000000082E-05 ), #23, 'distance_accuracy_value', 'NONE');
#64 = EDGE_CURVE ( 'NONE', #148, #131, #187, .T. ) ;
#65 = VERTEX_POINT ( 'NONE', #76 ) ;
#66 = CARTESIAN_POINT ( 'NONE',  ( 0.0000000000000000000, 0.0000000000000000000, 0.09999999999999996392 ) ) ;
#67 = ORIENTED_EDGE ( 'NONE', *, *, #258, .F. ) ;
#68 = VECTOR ( 'NONE', #91, 39.37007874015748854 ) ;
#69 = PRODUCT_DEFINITION ( 'UNKNOWN', '', #229, #256 ) ;
#70 = DIRECTION ( 'NONE',  ( -1.000000000000000000, 0.0000000000000000000, 0.0000000000000000000 ) ) ;
#71 = ORIENTED_EDGE ( 'NONE', *, *, #176, .F. ) ;
#72 = SPHERICAL_SURFACE ( 'NONE', #84, 0.06250000000000000000 ) ;
#73 = CIRCLE ( 'NONE', #166, 0.06250000000000000000 ) ;
#74 = EDGE_LOOP ( 'NONE', ( #38, #340, #301, #8 ) ) ;
#75 = ORIENTED_EDGE ( 'NONE', *, *, #101, .F. ) ;
#76 = CARTESIAN_POINT ( 'NONE',  ( 0.1250000000000000000, 1.530808498934191201E-17, 1.100000000000000089 ) ) ;
#77 = EDGE_LOOP ( 'NONE', ( #133, #303, #310, #31 ) ) ;
#78 = PRESENTATION_LAYER_ASSIGNMENT (  '', '', ( #245 ) ) ;
#79 = DIRECTION ( 'NONE',  ( 1.000000000000000000, 0.0000000000000000000, 0.0000000000000000000 ) ) ;
#80 = ORIENTED_EDGE ( 'NONE', *, *, #64, .T. ) ;
#81 = PRODUCT_RELATED_PRODUCT_CATEGORY ( 'part', '', ( #139 ) ) ;
#82 = DIMENSIONAL_EXPONENTS ( 1.000000000000000000, 0.0000000000000000000, 0.0000000000000000000, 0.0000000000000000000, 0.0000000000000000000, 0.0000000000000000000, 0.0000000000000000000 ) ;
#83 = CARTESIAN_POINT ( 'NONE',  ( 0.0000000000000000000, 3.827021247335478772E-18, 1.707404996040164512E-17 ) ) ;
#84 = AXIS2_PLACEMENT_3D ( 'NONE', #138, #293, #53 ) ;
#85 = CIRCLE ( 'NONE', #217, 0.05000000000000003053 ) ;
#86 = CARTESIAN_POINT ( 'NONE',  ( -0.05000000000000003053, 0.0000000000000000000, 0.09999999999999996392 ) ) ;
#87 = EDGE_CURVE ( 'NONE', #65, #35, #240, .T. ) ;
#88 = CARTESIAN_POINT ( 'NONE',  ( -0.04999999999999998196, 1.071565949253933995E-17, 0.2500000000000000555 ) ) ;
#89 = CARTESIAN_POINT ( 'NONE',  ( 0.0000000000000000000, 0.0000000000000000000, 3.000000000000000444 ) ) ;
#90 = AXIS2_PLACEMENT_3D ( 'NONE', #236, #207, #147 ) ;
#91 = DIRECTION ( 'NONE',  ( -0.7071067811865566766, 0.0000000000000000000, -0.7071067811865382469 ) ) ;
#92 = ADVANCED_FACE ( 'NONE', ( #20 ), #72, .T. ) ;
#93 = ORIENTED_EDGE ( 'NONE', *, *, #169, .T. ) ;
#94 = DIRECTION ( 'NONE',  ( 0.0000000000000000000, 0.0000000000000000000, 1.000000000000000000 ) ) ;
#95 = EDGE_LOOP ( 'NONE', ( #183, #108, #266, #75, #233 ) ) ;
#96 = CARTESIAN_POINT ( 'NONE',  ( 0.0000000000000000000, 0.0000000000000000000, 3.000000000000000444 ) ) ;
#97 = CIRCLE ( 'NONE', #98, 0.04999999999999998196 ) ;
#98 = AXIS2_PLACEMENT_3D ( 'NONE', #1, #26, #196 ) ;
#99 = DIRECTION ( 'NONE',  ( 0.0000000000000000000, 0.0000000000000000000, 1.000000000000000000 ) ) ;
#100 = APPLICATION_CONTEXT ( 'automotive_design' ) ;
#101 = EDGE_CURVE ( 'NONE', #48, #190, #211, .T. ) ;
#102 = LENGTH_MEASURE_WITH_UNIT ( LENGTH_MEASURE( 0.02539999999999999897 ), #335 );
#103 = CARTESIAN_POINT ( 'NONE',  ( 0.0000000000000000000, 0.0000000000000000000, 0.0000000000000000000 ) ) ;
#104 = ADVANCED_FACE ( 'NONE', ( #21 ), #291, .T. ) ;
#105 = COLOUR_RGB ( '',0.7921568627450980005, 0.8196078431372548767, 0.9333333333333333481 ) ;
#106 = DIRECTION ( 'NONE',  ( -0.0000000000000000000, -0.0000000000000000000, -1.000000000000000000 ) ) ;
#107 = EDGE_CURVE ( 'NONE', #155, #317, #97, .T. ) ;
#108 = ORIENTED_EDGE ( 'NONE', *, *, #261, .T. ) ;
#109 = MANIFOLD_SOLID_BREP ( 'Cut-Revolve3', #205 ) ;
#110 = DIRECTION ( 'NONE',  ( 0.0000000000000000000, 0.0000000000000000000, 1.000000000000000000 ) ) ;
#111 = ADVANCED_FACE ( 'NONE', ( #344 ), #134, .T. ) ;
#112 = DIRECTION ( 'NONE',  ( -1.000000000000000000, 0.0000000000000000000, 0.0000000000000000000 ) ) ;
#113 = AXIS2_PLACEMENT_3D ( 'NONE', #156, #324, #5 ) ;
#114 = CARTESIAN_POINT ( 'NONE',  ( -0.1250000000000000000, 0.0000000000000000000, 3.000000000000000444 ) ) ;
#115 = CARTESIAN_POINT ( 'NONE',  ( 0.0000000000000000000, 0.0000000000000000000, 2.985000000000001208 ) ) ;
#116 = DIRECTION ( 'NONE',  ( -1.000000000000000000, 0.0000000000000000000, 0.0000000000000000000 ) ) ;
#117 = AXIS2_PLACEMENT_3D ( 'NONE', #125, #99, #234 ) ;
#118 = CARTESIAN_POINT ( 'NONE',  ( 0.0000000000000000000, 0.0000000000000000000, 0.2500000000000000555 ) ) ;
#119 = ORIENTED_EDGE ( 'NONE', *, *, #274, .T. ) ;
#120 = EDGE_CURVE ( 'NONE', #317, #285, #273, .T. ) ;
#121 = DIRECTION ( 'NONE',  ( 0.08789381029635716380, 0.0000000000000000000, 0.9961298500253809030 ) ) ;
#122 = DIMENSIONAL_EXPONENTS ( 1.000000000000000000, 0.0000000000000000000, 0.0000000000000000000, 0.0000000000000000000, 0.0000000000000000000, 0.0000000000000000000, 0.0000000000000000000 ) ;
#123 = AXIS2_PLACEMENT_3D ( 'NONE', #331, #61, #328 ) ;
#124 = ORIENTED_EDGE ( 'NONE', *, *, #169, .F. ) ;
#125 = CARTESIAN_POINT ( 'NONE',  ( 0.0000000000000000000, 0.0000000000000000000, 3.000000000000000444 ) ) ;
#126 = ORIENTED_EDGE ( 'NONE', *, *, #128, .F. ) ;
#127 = CYLINDRICAL_SURFACE ( 'NONE', #212, 0.1250000000000000000 ) ;
#128 = EDGE_CURVE ( 'NONE', #131, #268, #251, .T. ) ;
#129 = COLOUR_RGB ( '',0.7921568627450980005, 0.8196078431372548767, 0.9333333333333333481 ) ;
#130 = SURFACE_SIDE_STYLE ('',( #132 ) ) ;
#131 = VERTEX_POINT ( 'NONE', #201 ) ;
#132 = SURFACE_STYLE_FILL_AREA ( #44 ) ;
#133 = ORIENTED_EDGE ( 'NONE', *, *, #43, .F. ) ;
#134 = CONICAL_SURFACE ( 'NONE', #200, 0.1100000000000004446, 0.7853981633974613796 ) ;
#135 = EDGE_LOOP ( 'NONE', ( #223, #306, #239, #126 ) ) ;
#136 = DIRECTION ( 'NONE',  ( -1.000000000000000000, 0.0000000000000000000, 0.0000000000000000000 ) ) ;
#137 = EDGE_CURVE ( 'NONE', #268, #35, #295, .T. ) ;
#138 = CARTESIAN_POINT ( 'NONE',  ( 0.0000000000000000000, 0.0000000000000000000, 0.06250000000000001388 ) ) ;
#139 = PRODUCT ( 'Micro_SBM-125-4X', 'Micro_SBM-125-4X', '', ( #145 ) ) ;
#140 = FACE_OUTER_BOUND ( 'NONE', #179, .T. ) ;
#141 = CIRCLE ( 'NONE', #194, 0.06250000000000000000 ) ;
#142 = SURFACE_STYLE_USAGE ( .BOTH. , #173 ) ;
#143 = EDGE_CURVE ( 'NONE', #155, #190, #27, .T. ) ;
#144 = CARTESIAN_POINT ( 'NONE',  ( 0.0000000000000000000, 0.0000000000000000000, 0.06250000000000001388 ) ) ;
#145 = PRODUCT_CONTEXT ( 'NONE', #100, 'mechanical' ) ;
#146 = DIRECTION ( 'NONE',  ( -0.0000000000000000000, -0.0000000000000000000, -1.000000000000000000 ) ) ;
#147 = DIRECTION ( 'NONE',  ( 1.000000000000000000, 0.0000000000000000000, 0.0000000000000000000 ) ) ;
#148 = VERTEX_POINT ( 'NONE', #57 ) ;
#149 = FACE_OUTER_BOUND ( 'NONE', #279, .T. ) ;
#150 = AXIS2_PLACEMENT_3D ( 'NONE', #250, #197, #271 ) ;
#151 = VERTEX_POINT ( 'NONE', #83 ) ;
#152 = DIRECTION ( 'NONE',  ( 0.0000000000000000000, 1.000000000000000000, 0.0000000000000000000 ) ) ;
#153 = DIRECTION ( 'NONE',  ( -0.0000000000000000000, -0.0000000000000000000, -1.000000000000000000 ) ) ;
#154 = EDGE_CURVE ( 'NONE', #131, #65, #199, .T. ) ;
#155 = VERTEX_POINT ( 'NONE', #88 ) ;
#156 = CARTESIAN_POINT ( 'NONE',  ( 0.0000000000000000000, 0.0000000000000000000, 3.000000000000000444 ) ) ;
#157 = ORIENTED_EDGE ( 'NONE', *, *, #214, .F. ) ;
#158 = PRESENTATION_STYLE_ASSIGNMENT (( #189 ) ) ;
#159 = DIRECTION ( 'NONE',  ( -1.000000000000000000, 0.0000000000000000000, 0.0000000000000000000 ) ) ;
#160 = ADVANCED_BREP_SHAPE_REPRESENTATION ( 'Micro_SBM-125-4X', ( #109, #90 ), #13 ) ;
#161 = ORIENTED_EDGE ( 'NONE', *, *, #137, .T. ) ;
#162 = FILL_AREA_STYLE_COLOUR ( '', #105 ) ;
#163 = DIRECTION ( 'NONE',  ( 1.000000000000000000, 1.224646799147353207E-16, -0.0000000000000000000 ) ) ;
#164 = ORIENTED_EDGE ( 'NONE', *, *, #258, .T. ) ;
#165 = EDGE_CURVE ( 'NONE', #155, #35, #345, .T. ) ;
#166 = AXIS2_PLACEMENT_3D ( 'NONE', #216, #163, #338 ) ;
#167 = DIRECTION ( 'NONE',  ( 1.000000000000000000, 0.0000000000000000000, 0.0000000000000000000 ) ) ;
#168 = CARTESIAN_POINT ( 'NONE',  ( 0.0000000000000000000, 0.0000000000000000000, 0.09999999999999996392 ) ) ;
#169 = EDGE_CURVE ( 'NONE', #268, #131, #9, .T. ) ;
#170 = DIRECTION ( 'NONE',  ( -0.0000000000000000000, -0.0000000000000000000, -1.000000000000000000 ) ) ;
#171 = CARTESIAN_POINT ( 'NONE',  ( 0.0000000000000000000, 0.0000000000000000000, 0.0000000000000000000 ) ) ;
#172 = ORIENTED_EDGE ( 'NONE', *, *, #107, .T. ) ;
#173 = SURFACE_SIDE_STYLE ('',( #58 ) ) ;
#174 = ADVANCED_FACE ( 'NONE', ( #140 ), #297, .T. ) ;
#175 = FILL_AREA_STYLE ('',( #254 ) ) ;
#176 = EDGE_CURVE ( 'NONE', #241, #151, #141, .T. ) ;
#177 = APPLICATION_PROTOCOL_DEFINITION ( 'draft international standard', 'automotive_design', 1998, #41 ) ;
#178 =( LENGTH_UNIT ( ) NAMED_UNIT ( * ) SI_UNIT ( $, .METRE. ) );
#179 = EDGE_LOOP ( 'NONE', ( #172, #192, #67, #33, #15 ) ) ;
#180 = CARTESIAN_POINT ( 'NONE',  ( 0.0000000000000000000, 0.0000000000000000000, 0.09999999999999996392 ) ) ;
#181 = ORIENTED_EDGE ( 'NONE', *, *, #311, .T. ) ;
#182 = DIRECTION ( 'NONE',  ( 0.0000000000000000000, 0.0000000000000000000, -1.000000000000000000 ) ) ;
#183 = ORIENTED_EDGE ( 'NONE', *, *, #120, .F. ) ;
#184 = ORIENTED_EDGE ( 'NONE', *, *, #87, .F. ) ;
#185 = FACE_OUTER_BOUND ( 'NONE', #77, .T. ) ;
#186 = VERTEX_POINT ( 'NONE', #323 ) ;
#187 = LINE ( 'NONE', #49, #2 ) ;
#188 = AXIS2_PLACEMENT_3D ( 'NONE', #171, #30, #59 ) ;
#189 = SURFACE_STYLE_USAGE ( .BOTH. , #130 ) ;
#190 = VERTEX_POINT ( 'NONE', #86 ) ;
#191 = CARTESIAN_POINT ( 'NONE',  ( -0.1250000000000000000, 0.0000000000000000000, 1.100000000000000089 ) ) ;
#192 = ORIENTED_EDGE ( 'NONE', *, *, #120, .T. ) ;
#193 = CARTESIAN_POINT ( 'NONE',  ( 0.0000000000000000000, 0.0000000000000000000, 1.100000000000000089 ) ) ;
#194 = AXIS2_PLACEMENT_3D ( 'NONE', #144, #116, #276 ) ;
#195 = DIRECTION ( 'NONE',  ( -0.0000000000000000000, -0.0000000000000000000, -1.000000000000000000 ) ) ;
#196 = DIRECTION ( 'NONE',  ( -1.000000000000000000, 0.0000000000000000000, 0.0000000000000000000 ) ) ;
#197 = DIRECTION ( 'NONE',  ( 0.0000000000000000000, 0.0000000000000000000, -1.000000000000000000 ) ) ;
#198 = AXIS2_PLACEMENT_3D ( 'NONE', #103, #106, #159 ) ;
#199 = LINE ( 'NONE', #294, #343 ) ;
#200 = AXIS2_PLACEMENT_3D ( 'NONE', #28, #296, #112 ) ;
#201 = CARTESIAN_POINT ( 'NONE',  ( 0.1250000000000000000, 1.530808498934191201E-17, 2.985000000000001208 ) ) ;
#202 = ADVANCED_FACE ( 'NONE', ( #149 ), #127, .T. ) ;
#203 = CARTESIAN_POINT ( 'NONE',  ( -0.1374999999999997613, 1.683889348827607856E-17, 1.241666666666664032 ) ) ;
#204 = DIRECTION ( 'NONE',  ( 1.000000000000000000, 0.0000000000000000000, 0.0000000000000000000 ) ) ;
#205 = CLOSED_SHELL ( 'NONE', ( #174, #92, #334, #111, #242, #202, #14, #312, #104, #316, #52 ) ) ;
#206 = DIRECTION ( 'NONE',  ( -1.000000000000000000, 0.0000000000000000000, 0.0000000000000000000 ) ) ;
#207 = DIRECTION ( 'NONE',  ( 0.0000000000000000000, 0.0000000000000000000, 1.000000000000000000 ) ) ;
#208 = ORIENTED_EDGE ( 'NONE', *, *, #107, .F. ) ;
#209 = DIRECTION ( 'NONE',  ( 0.0000000000000000000, 0.0000000000000000000, 1.000000000000000000 ) ) ;
#210 =( NAMED_UNIT ( * ) PLANE_ANGLE_UNIT ( ) SI_UNIT ( $, .RADIAN. ) );
#211 = CIRCLE ( 'NONE', #50, 0.05000000000000003053 ) ;
#212 = AXIS2_PLACEMENT_3D ( 'NONE', #255, #146, #225 ) ;
#213 = FACE_OUTER_BOUND ( 'NONE', #135, .T. ) ;
#214 = EDGE_CURVE ( 'NONE', #186, #268, #42, .T. ) ;
#215 = DIRECTION ( 'NONE',  ( 0.0000000000000000000, 0.0000000000000000000, 1.000000000000000000 ) ) ;
#216 = CARTESIAN_POINT ( 'NONE',  ( 0.0000000000000000000, 0.0000000000000000000, 0.06250000000000001388 ) ) ;
#217 = AXIS2_PLACEMENT_3D ( 'NONE', #180, #6, #39 ) ;
#218 = DIRECTION ( 'NONE',  ( 0.7071067811865566766, 8.659560562355046257E-17, -0.7071067811865382469 ) ) ;
#219 = CARTESIAN_POINT ( 'NONE',  ( 0.0000000000000000000, 0.0000000000000000000, 3.000000000000000444 ) ) ;
#220 = MECHANICAL_DESIGN_GEOMETRIC_PRESENTATION_REPRESENTATION (  '', ( #260 ), #246 ) ;
#221 =( NAMED_UNIT ( * ) PLANE_ANGLE_UNIT ( ) SI_UNIT ( $, .RADIAN. ) );
#222 = AXIS2_PLACEMENT_3D ( 'NONE', #115, #55, #79 ) ;
#223 = ORIENTED_EDGE ( 'NONE', *, *, #64, .F. ) ;
#224 = DIRECTION ( 'NONE',  ( -0.0000000000000000000, -0.0000000000000000000, -1.000000000000000000 ) ) ;
#225 = DIRECTION ( 'NONE',  ( -1.000000000000000000, 0.0000000000000000000, 0.0000000000000000000 ) ) ;
#226 = FACE_OUTER_BOUND ( 'NONE', #269, .T. ) ;
#227 = AXIS2_PLACEMENT_3D ( 'NONE', #315, #195, #136 ) ;
#228 =( GEOMETRIC_REPRESENTATION_CONTEXT ( 3 ) GLOBAL_UNCERTAINTY_ASSIGNED_CONTEXT ( ( #63 ) ) GLOBAL_UNIT_ASSIGNED_CONTEXT ( ( #23, #221, #54 ) ) REPRESENTATION_CONTEXT ( 'NONE', 'WORKASPACE' ) );
#229 = PRODUCT_DEFINITION_FORMATION_WITH_SPECIFIED_SOURCE ( 'ANY', '', #139, .NOT_KNOWN. ) ;
#230 = CYLINDRICAL_SURFACE ( 'NONE', #113, 0.1250000000000000000 ) ;
#231 = UNCERTAINTY_MEASURE_WITH_UNIT (LENGTH_MEASURE( 1.000000000000000082E-05 ), #237, 'distance_accuracy_value', 'NONE');
#232 = LENGTH_MEASURE_WITH_UNIT ( LENGTH_MEASURE( 0.02539999999999999897 ), #178 );
#233 = ORIENTED_EDGE ( 'NONE', *, *, #262, .F. ) ;
#234 = DIRECTION ( 'NONE',  ( 1.000000000000000000, 0.0000000000000000000, 0.0000000000000000000 ) ) ;
#235 = CIRCLE ( 'NONE', #264, 0.05000000000000003053 ) ;
#236 = CARTESIAN_POINT ( 'NONE',  ( 0.0000000000000000000, 0.0000000000000000000, 0.0000000000000000000 ) ) ;
#237 =( CONVERSION_BASED_UNIT ( 'INCH', #102 ) LENGTH_UNIT ( ) NAMED_UNIT ( #82 ) );
#238 = CYLINDRICAL_SURFACE ( 'NONE', #198, 0.05000000000000000278 ) ;
#239 = ORIENTED_EDGE ( 'NONE', *, *, #214, .T. ) ;
#240 = CIRCLE ( 'NONE', #7, 0.1250000000000000000 ) ;
#241 = VERTEX_POINT ( 'NONE', #284 ) ;
#242 = ADVANCED_FACE ( 'NONE', ( #302 ), #230, .T. ) ;
#243 = ORIENTED_EDGE ( 'NONE', *, *, #154, .F. ) ;
#244 = CARTESIAN_POINT ( 'NONE',  ( 0.0000000000000000000, 0.0000000000000000000, 1.241666666666664032 ) ) ;
#245 = STYLED_ITEM ( 'NONE', ( #275 ), #109 ) ;
#246 =( GEOMETRIC_REPRESENTATION_CONTEXT ( 3 ) GLOBAL_UNCERTAINTY_ASSIGNED_CONTEXT ( ( #231 ) ) GLOBAL_UNIT_ASSIGNED_CONTEXT ( ( #237, #16, #286 ) ) REPRESENTATION_CONTEXT ( 'NONE', 'WORKASPACE' ) );
#247 = LENGTH_MEASURE_WITH_UNIT ( LENGTH_MEASURE( 0.02539999999999999897 ), #320 );
#248 = DIRECTION ( 'NONE',  ( -0.0000000000000000000, -0.0000000000000000000, -1.000000000000000000 ) ) ;
#249 = DIRECTION ( 'NONE',  ( -0.0000000000000000000, -0.0000000000000000000, -1.000000000000000000 ) ) ;
#250 = CARTESIAN_POINT ( 'NONE',  ( 0.0000000000000000000, 0.0000000000000000000, 2.985000000000001208 ) ) ;
#251 = CIRCLE ( 'NONE', #150, 0.1250000000000000000 ) ;
#252 = APPLICATION_PROTOCOL_DEFINITION ( 'draft international standard', 'automotive_design', 1998, #100 ) ;
#253 = EDGE_CURVE ( 'NONE', #317, #65, #12, .T. ) ;
#254 = FILL_AREA_STYLE_COLOUR ( '', #129 ) ;
#255 = CARTESIAN_POINT ( 'NONE',  ( 0.0000000000000000000, 0.0000000000000000000, 3.000000000000000444 ) ) ;
#256 = PRODUCT_DEFINITION_CONTEXT ( 'detailed design', #41, 'design' ) ;
#257 = ORIENTED_EDGE ( 'NONE', *, *, #154, .T. ) ;
#258 = EDGE_CURVE ( 'NONE', #241, #285, #235, .T. ) ;
#259 = CARTESIAN_POINT ( 'NONE',  ( 0.1374999999999997613, 0.0000000000000000000, 1.241666666666664032 ) ) ;
#260 = STYLED_ITEM ( 'NONE', ( #158 ), #160 ) ;
#261 = EDGE_CURVE ( 'NONE', #317, #155, #318, .T. ) ;
#262 = EDGE_CURVE ( 'NONE', #285, #48, #85, .T. ) ;
#263 = ORIENTED_EDGE ( 'NONE', *, *, #137, .F. ) ;
#264 = AXIS2_PLACEMENT_3D ( 'NONE', #66, #153, #206 ) ;
#265 = EDGE_LOOP ( 'NONE', ( #119, #46 ) ) ;
#266 = ORIENTED_EDGE ( 'NONE', *, *, #143, .T. ) ;
#267 = CARTESIAN_POINT ( 'NONE',  ( 6.123233995736770196E-18, -0.05000000000000003747, 0.09999999999999996392 ) ) ;
#268 = VERTEX_POINT ( 'NONE', #307 ) ;
#269 = EDGE_LOOP ( 'NONE', ( #208, #336, #184, #314 ) ) ;
#270 = DIRECTION ( 'NONE',  ( -0.0000000000000000000, -0.0000000000000000000, -1.000000000000000000 ) ) ;
#271 = DIRECTION ( 'NONE',  ( 1.000000000000000000, 0.0000000000000000000, 0.0000000000000000000 ) ) ;
#272 = AXIS2_PLACEMENT_3D ( 'NONE', #282, #37, #152 ) ;
#273 = LINE ( 'NONE', #321, #36 ) ;
#274 = EDGE_CURVE ( 'NONE', #186, #148, #327, .T. ) ;
#275 = PRESENTATION_STYLE_ASSIGNMENT (( #142 ) ) ;
#276 = DIRECTION ( 'NONE',  ( 0.0000000000000000000, 0.0000000000000000000, 1.000000000000000000 ) ) ;
#277 = AXIS2_PLACEMENT_3D ( 'NONE', #329, #209, #204 ) ;
#278 = DIRECTION ( 'NONE',  ( -0.0000000000000000000, -0.0000000000000000000, -1.000000000000000000 ) ) ;
#279 = EDGE_LOOP ( 'NONE', ( #243, #40, #161, #181 ) ) ;
#280 = CARTESIAN_POINT ( 'NONE',  ( 0.05000000000000003053, 6.123233995736769426E-18, 0.09999999999999996392 ) ) ;
#281 = EDGE_LOOP ( 'NONE', ( #326, #80, #124, #157 ) ) ;
#282 = CARTESIAN_POINT ( 'NONE',  ( 0.0000000000000000000, 0.0000000000000000000, 0.06250000000000001388 ) ) ;
#283 = PRESENTATION_LAYER_ASSIGNMENT (  '', '', ( #260 ) ) ;
#284 = CARTESIAN_POINT ( 'NONE',  ( 0.0000000000000000000, 0.05000000000000003747, 0.09999999999999996392 ) ) ;
#285 = VERTEX_POINT ( 'NONE', #280 ) ;
#286 =( NAMED_UNIT ( * ) SI_UNIT ( $, .STERADIAN. ) SOLID_ANGLE_UNIT ( ) );
#287 = EDGE_LOOP ( 'NONE', ( #164, #17, #308, #71 ) ) ;
#288 = FACE_OUTER_BOUND ( 'NONE', #265, .T. ) ;
#289 = FACE_OUTER_BOUND ( 'NONE', #95, .T. ) ;
#290 = PLANE ( 'NONE',  #299 ) ;
#291 = CONICAL_SURFACE ( 'NONE', #332, 0.1374999999999997613, 0.08800737352774079536 ) ;
#292 = CONICAL_SURFACE ( 'NONE', #25, 0.1100000000000004446, 0.7853981633974613796 ) ;
#293 = DIRECTION ( 'NONE',  ( 1.000000000000000000, 0.0000000000000000000, 0.0000000000000000000 ) ) ;
#294 = CARTESIAN_POINT ( 'NONE',  ( 0.1250000000000000000, 1.530808498934191201E-17, 3.000000000000000444 ) ) ;
#295 = LINE ( 'NONE', #114, #333 ) ;
#296 = DIRECTION ( 'NONE',  ( 0.0000000000000000000, 0.0000000000000000000, -1.000000000000000000 ) ) ;
#297 = CYLINDRICAL_SURFACE ( 'NONE', #188, 0.05000000000000000278 ) ;
#298 = EDGE_CURVE ( 'NONE', #148, #186, #300, .T. ) ;
#299 = AXIS2_PLACEMENT_3D ( 'NONE', #219, #110, #47 ) ;
#300 = CIRCLE ( 'NONE', #117, 0.1100000000000004446 ) ;
#301 = ORIENTED_EDGE ( 'NONE', *, *, #253, .T. ) ;
#302 = FACE_OUTER_BOUND ( 'NONE', #18, .T. ) ;
#303 = ORIENTED_EDGE ( 'NONE', *, *, #101, .T. ) ;
#304 = SPHERICAL_SURFACE ( 'NONE', #272, 0.06250000000000000000 ) ;
#305 = CIRCLE ( 'NONE', #277, 0.1250000000000000000 ) ;
#306 = ORIENTED_EDGE ( 'NONE', *, *, #274, .F. ) ;
#307 = CARTESIAN_POINT ( 'NONE',  ( -0.1250000000000000000, 0.0000000000000000000, 2.985000000000001208 ) ) ;
#308 = ORIENTED_EDGE ( 'NONE', *, *, #43, .T. ) ;
#309 = DIRECTION ( 'NONE',  ( 1.000000000000000000, 0.0000000000000000000, 0.0000000000000000000 ) ) ;
#310 = ORIENTED_EDGE ( 'NONE', *, *, #24, .T. ) ;
#311 = EDGE_CURVE ( 'NONE', #35, #65, #305, .T. ) ;
#312 = ADVANCED_FACE ( 'NONE', ( #213 ), #292, .T. ) ;
#313 =( NAMED_UNIT ( * ) SI_UNIT ( $, .STERADIAN. ) SOLID_ANGLE_UNIT ( ) );
#314 = ORIENTED_EDGE ( 'NONE', *, *, #253, .F. ) ;
#315 = CARTESIAN_POINT ( 'NONE',  ( 0.0000000000000000000, 0.0000000000000000000, 0.09999999999999996392 ) ) ;
#316 = ADVANCED_FACE ( 'NONE', ( #185 ), #304, .T. ) ;
#317 = VERTEX_POINT ( 'NONE', #11 ) ;
#318 = CIRCLE ( 'NONE', #60, 0.04999999999999998196 ) ;
#319 = DIRECTION ( 'NONE',  ( -0.08789381029635716380, 1.076388734442984648E-17, 0.9961298500253809030 ) ) ;
#320 =( LENGTH_UNIT ( ) NAMED_UNIT ( * ) SI_UNIT ( $, .METRE. ) );
#321 = CARTESIAN_POINT ( 'NONE',  ( 0.05000000000000000278, 6.123233995736766344E-18, 0.0000000000000000000 ) ) ;
#322 = VECTOR ( 'NONE', #224, 39.37007874015748143 ) ;
#323 = CARTESIAN_POINT ( 'NONE',  ( -0.1100000000000004446, 0.0000000000000000000, 3.000000000000000444 ) ) ;
#324 = DIRECTION ( 'NONE',  ( -0.0000000000000000000, -0.0000000000000000000, -1.000000000000000000 ) ) ;
#325 = CIRCLE ( 'NONE', #227, 0.05000000000000003053 ) ;
#326 = ORIENTED_EDGE ( 'NONE', *, *, #298, .F. ) ;
#327 = CIRCLE ( 'NONE', #56, 0.1100000000000004446 ) ;
#328 = DIRECTION ( 'NONE',  ( 1.000000000000000000, 0.0000000000000000000, 0.0000000000000000000 ) ) ;
#329 = CARTESIAN_POINT ( 'NONE',  ( 0.0000000000000000000, 0.0000000000000000000, 1.100000000000000089 ) ) ;
#330 =( CONVERSION_BASED_UNIT ( 'INCH', #232 ) LENGTH_UNIT ( ) NAMED_UNIT ( #122 ) );
#331 = CARTESIAN_POINT ( 'NONE',  ( 0.0000000000000000000, 0.0000000000000000000, 1.241666666666664032 ) ) ;
#332 = AXIS2_PLACEMENT_3D ( 'NONE', #244, #342, #309 ) ;
#333 = VECTOR ( 'NONE', #249, 39.37007874015748143 ) ;
#334 = ADVANCED_FACE ( 'NONE', ( #226 ), #51, .T. ) ;
#335 =( LENGTH_UNIT ( ) NAMED_UNIT ( * ) SI_UNIT ( $, .METRE. ) );
#336 = ORIENTED_EDGE ( 'NONE', *, *, #165, .T. ) ;
#337 = PRODUCT_DEFINITION_SHAPE ( 'NONE', 'NONE',  #69 ) ;
#338 = DIRECTION ( 'NONE',  ( -1.224646799147353207E-16, 1.000000000000000000, 0.0000000000000000000 ) ) ;
#339 = MECHANICAL_DESIGN_GEOMETRIC_PRESENTATION_REPRESENTATION (  '', ( #245 ), #228 ) ;
#340 = ORIENTED_EDGE ( 'NONE', *, *, #261, .F. ) ;
#341 = ORIENTED_EDGE ( 'NONE', *, *, #87, .T. ) ;
#342 = DIRECTION ( 'NONE',  ( 0.0000000000000000000, 0.0000000000000000000, 1.000000000000000000 ) ) ;
#343 = VECTOR ( 'NONE', #248, 39.37007874015748143 ) ;
#344 = FACE_OUTER_BOUND ( 'NONE', #281, .T. ) ;
#345 = LINE ( 'NONE', #203, #19 ) ;
ENDSEC;
END-ISO-10303-21;
