ISO-10303-21;
HEADER;
FILE_DESCRIPTION (( 'STEP AP214' ),
    '1' );
FILE_NAME ('Micro_DR-312-2.STEP',
    '2021-09-01T15:31:51',
    ( '' ),
    ( '' ),
    'SwSTEP 2.0',
    'SolidWorks 2020',
    '' );
FILE_SCHEMA (( 'AUTOMOTIVE_DESIGN' ));
ENDSEC;

DATA;
#1 = ORIENTED_EDGE ( 'NONE', *, *, #138, .F. ) ;
#2 = CIRCLE ( 'NONE', #84, 0.1562500000000000000 ) ;
#3 = AXIS2_PLACEMENT_3D ( 'NONE', #236, #121, #115 ) ;
#4 = ADVANCED_FACE ( 'NONE', ( #16 ), #47, .T. ) ;
#5 = ADVANCED_FACE ( 'NONE', ( #67 ), #142, .T. ) ;
#6 = CARTESIAN_POINT ( 'NONE',  ( 0.0000000000000000000, 0.0000000000000000000, 0.0000000000000000000 ) ) ;
#7 = CARTESIAN_POINT ( 'NONE',  ( 0.0000000000000000000, 0.0000000000000000000, 2.375000000000000000 ) ) ;
#8 = CYLINDRICAL_SURFACE ( 'NONE', #92, 0.1562500000000000000 ) ;
#9 = ORIENTED_EDGE ( 'NONE', *, *, #246, .F. ) ;
#10 = FACE_OUTER_BOUND ( 'NONE', #224, .T. ) ;
#11 = DIRECTION ( 'NONE',  ( 1.000000000000000000, 0.0000000000000000000, 0.0000000000000000000 ) ) ;
#12 = AXIS2_PLACEMENT_3D ( 'NONE', #176, #112, #114 ) ;
#13 = EDGE_LOOP ( 'NONE', ( #127, #23, #148, #146 ) ) ;
#14 = DIRECTION ( 'NONE',  ( 1.000000000000000000, 0.0000000000000000000, 0.0000000000000000000 ) ) ;
#15 =( CONVERSION_BASED_UNIT ( 'INCH', #24 ) LENGTH_UNIT ( ) NAMED_UNIT ( #145 ) );
#16 = FACE_OUTER_BOUND ( 'NONE', #118, .T. ) ;
#17 = EDGE_CURVE ( 'NONE', #282, #213, #268, .T. ) ;
#18 = FACE_OUTER_BOUND ( 'NONE', #188, .T. ) ;
#19 = ORIENTED_EDGE ( 'NONE', *, *, #158, .F. ) ;
#20 = VECTOR ( 'NONE', #317, 39.37007874015748143 ) ;
#21 =( GEOMETRIC_REPRESENTATION_CONTEXT ( 3 ) GLOBAL_UNCERTAINTY_ASSIGNED_CONTEXT ( ( #312 ) ) GLOBAL_UNIT_ASSIGNED_CONTEXT ( ( #15, #208, #70 ) ) REPRESENTATION_CONTEXT ( 'NONE', 'WORKASPACE' ) );
#22 = FILL_AREA_STYLE ('',( #26 ) ) ;
#23 = ORIENTED_EDGE ( 'NONE', *, *, #106, .T. ) ;
#24 = LENGTH_MEASURE_WITH_UNIT ( LENGTH_MEASURE( 0.02539999999999999897 ), #319 );
#25 = VERTEX_POINT ( 'NONE', #124 ) ;
#26 = FILL_AREA_STYLE_COLOUR ( '', #314 ) ;
#27 = ORIENTED_EDGE ( 'NONE', *, *, #94, .F. ) ;
#28 = CIRCLE ( 'NONE', #147, 0.1562500000000000000 ) ;
#29 =( LENGTH_UNIT ( ) NAMED_UNIT ( * ) SI_UNIT ( $, .METRE. ) );
#30 = PRESENTATION_STYLE_ASSIGNMENT (( #278 ) ) ;
#31 = PRODUCT_RELATED_PRODUCT_CATEGORY ( 'part', '', ( #225 ) ) ;
#32 = ORIENTED_EDGE ( 'NONE', *, *, #158, .T. ) ;
#33 = ORIENTED_EDGE ( 'NONE', *, *, #181, .F. ) ;
#34 = CARTESIAN_POINT ( 'NONE',  ( 0.1562500000000000000, 1.913510623667739463E-17, 3.734999999999999876 ) ) ;
#35 = CIRCLE ( 'NONE', #78, 0.1562500000000000000 ) ;
#36 = DIRECTION ( 'NONE',  ( 0.8571673007021157753, 0.0000000000000000000, 0.5150380749100482713 ) ) ;
#37 = CONICAL_SURFACE ( 'NONE', #3, 65.52281426576945478, 1.029744258676661417 ) ;
#38 = LINE ( 'NONE', #284, #170 ) ;
#39 = ORIENTED_EDGE ( 'NONE', *, *, #110, .F. ) ;
#40 = DIRECTION ( 'NONE',  ( -0.0000000000000000000, -0.0000000000000000000, -1.000000000000000000 ) ) ;
#41 = LINE ( 'NONE', #52, #283 ) ;
#42 = CARTESIAN_POINT ( 'NONE',  ( 0.0000000000000000000, 0.0000000000000000000, 0.09385442869210341987 ) ) ;
#43 = CARTESIAN_POINT ( 'NONE',  ( -0.1562000000000003941, 1.912898300268170595E-17, 2.375000000000000000 ) ) ;
#44 = CARTESIAN_POINT ( 'NONE',  ( 0.0000000000000000000, 0.0000000000000000000, 3.750000000000000000 ) ) ;
#45 = EDGE_LOOP ( 'NONE', ( #140, #220, #165 ) ) ;
#46 = CARTESIAN_POINT ( 'NONE',  ( -0.1562000000000003941, 1.913204461967954567E-17, 2.375000000000000000 ) ) ;
#47 = CONICAL_SURFACE ( 'NONE', #273, 0.1562000000000003941, 0.5235987755982962621 ) ;
#48 = SURFACE_STYLE_USAGE ( .BOTH. , #299 ) ;
#49 = VERTEX_POINT ( 'NONE', #302 ) ;
#50 = LENGTH_MEASURE_WITH_UNIT ( LENGTH_MEASURE( 0.02539999999999999897 ), #290 );
#51 = EDGE_CURVE ( 'NONE', #240, #213, #254, .T. ) ;
#52 = CARTESIAN_POINT ( 'NONE',  ( -0.1562500000000000000, 0.0000000000000000000, 3.750000000000000000 ) ) ;
#53 = FACE_OUTER_BOUND ( 'NONE', #256, .T. ) ;
#54 = AXIS2_PLACEMENT_3D ( 'NONE', #309, #80, #85 ) ;
#55 = CARTESIAN_POINT ( 'NONE',  ( 0.0000000000000000000, 0.0000000000000000000, 3.734999999999999876 ) ) ;
#56 = STYLED_ITEM ( 'NONE', ( #267 ), #321 ) ;
#57 = CARTESIAN_POINT ( 'NONE',  ( 0.0000000000000000000, 0.0000000000000000000, 3.750000000000000000 ) ) ;
#58 = ORIENTED_EDGE ( 'NONE', *, *, #17, .T. ) ;
#59 = DIRECTION ( 'NONE',  ( -0.0000000000000000000, -0.0000000000000000000, 1.000000000000000000 ) ) ;
#60 = CARTESIAN_POINT ( 'NONE',  ( 0.0000000000000000000, 0.0000000000000000000, 0.0000000000000000000 ) ) ;
#61 = EDGE_CURVE ( 'NONE', #25, #49, #71, .T. ) ;
#62 = DIMENSIONAL_EXPONENTS ( 1.000000000000000000, 0.0000000000000000000, 0.0000000000000000000, 0.0000000000000000000, 0.0000000000000000000, 0.0000000000000000000, 0.0000000000000000000 ) ;
#63 = DIRECTION ( 'NONE',  ( -0.0000000000000000000, -0.0000000000000000000, 1.000000000000000000 ) ) ;
#64 = VERTEX_POINT ( 'NONE', #315 ) ;
#65 = CARTESIAN_POINT ( 'NONE',  ( 0.0000000000000000000, 0.0000000000000000000, 3.734999999999999876 ) ) ;
#66 = EDGE_LOOP ( 'NONE', ( #260, #209, #143, #9 ) ) ;
#67 = FACE_OUTER_BOUND ( 'NONE', #66, .T. ) ;
#68 = VECTOR ( 'NONE', #120, 39.37007874015748143 ) ;
#69 = CIRCLE ( 'NONE', #293, 0.1561999999999999500 ) ;
#70 =( NAMED_UNIT ( * ) SI_UNIT ( $, .STERADIAN. ) SOLID_ANGLE_UNIT ( ) );
#71 = LINE ( 'NONE', #223, #194 ) ;
#72 = EDGE_CURVE ( 'NONE', #77, #282, #292, .T. ) ;
#73 = EDGE_CURVE ( 'NONE', #161, #100, #2, .T. ) ;
#74 = APPLICATION_PROTOCOL_DEFINITION ( 'draft international standard', 'automotive_design', 1998, #90 ) ;
#75 = VECTOR ( 'NONE', #79, 39.37007874015748143 ) ;
#76 = LENGTH_MEASURE_WITH_UNIT ( LENGTH_MEASURE( 0.02539999999999999897 ), #29 );
#77 = VERTEX_POINT ( 'NONE', #182 ) ;
#78 = AXIS2_PLACEMENT_3D ( 'NONE', #203, #130, #11 ) ;
#79 = DIRECTION ( 'NONE',  ( -0.0000000000000000000, -0.0000000000000000000, 1.000000000000000000 ) ) ;
#80 = DIRECTION ( 'NONE',  ( 0.0000000000000000000, 0.0000000000000000000, -1.000000000000000000 ) ) ;
#81 = EDGE_LOOP ( 'NONE', ( #177, #201 ) ) ;
#82 = CARTESIAN_POINT ( 'NONE',  ( -0.1562500000000000000, 0.0000000000000000000, 3.734999999999999876 ) ) ;
#83 = ORIENTED_EDGE ( 'NONE', *, *, #73, .T. ) ;
#84 = AXIS2_PLACEMENT_3D ( 'NONE', #55, #154, #14 ) ;
#85 = DIRECTION ( 'NONE',  ( -1.000000000000000000, 0.0000000000000000000, 0.0000000000000000000 ) ) ;
#86 = DIRECTION ( 'NONE',  ( -1.000000000000000000, 0.0000000000000000000, 0.0000000000000000000 ) ) ;
#87 = DIRECTION ( 'NONE',  ( 1.000000000000000000, 0.0000000000000000000, 0.0000000000000000000 ) ) ;
#88 = LINE ( 'NONE', #139, #242 ) ;
#89 = ORIENTED_EDGE ( 'NONE', *, *, #218, .T. ) ;
#90 = APPLICATION_CONTEXT ( 'automotive_design' ) ;
#91 = DIRECTION ( 'NONE',  ( -0.0000000000000000000, -0.0000000000000000000, 1.000000000000000000 ) ) ;
#92 = AXIS2_PLACEMENT_3D ( 'NONE', #135, #204, #86 ) ;
#93 = EDGE_LOOP ( 'NONE', ( #226, #89, #33 ) ) ;
#94 = EDGE_CURVE ( 'NONE', #64, #301, #210, .T. ) ;
#95 = DIMENSIONAL_EXPONENTS ( 1.000000000000000000, 0.0000000000000000000, 0.0000000000000000000, 0.0000000000000000000, 0.0000000000000000000, 0.0000000000000000000, 0.0000000000000000000 ) ;
#96 =( CONVERSION_BASED_UNIT ( 'INCH', #50 ) LENGTH_UNIT ( ) NAMED_UNIT ( #62 ) );
#97 =( NAMED_UNIT ( * ) PLANE_ANGLE_UNIT ( ) SI_UNIT ( $, .RADIAN. ) );
#98 = AXIS2_PLACEMENT_3D ( 'NONE', #128, #206, #259 ) ;
#99 = ORIENTED_EDGE ( 'NONE', *, *, #263, .F. ) ;
#100 = VERTEX_POINT ( 'NONE', #82 ) ;
#101 = ADVANCED_FACE ( 'NONE', ( #229 ), #8, .T. ) ;
#102 = VECTOR ( 'NONE', #36, 39.37007874015748854 ) ;
#103 = CIRCLE ( 'NONE', #98, 0.1561999999999999500 ) ;
#104 = AXIS2_PLACEMENT_3D ( 'NONE', #187, #186, #119 ) ;
#105 = LINE ( 'NONE', #60, #102 ) ;
#106 = EDGE_CURVE ( 'NONE', #49, #282, #207, .T. ) ;
#107 = ADVANCED_FACE ( 'NONE', ( #152 ), #287, .T. ) ;
#108 = DIRECTION ( 'NONE',  ( -0.0000000000000000000, -0.0000000000000000000, 1.000000000000000000 ) ) ;
#109 = ORIENTED_EDGE ( 'NONE', *, *, #138, .T. ) ;
#110 = EDGE_CURVE ( 'NONE', #64, #161, #38, .T. ) ;
#111 = CARTESIAN_POINT ( 'NONE',  ( 0.1562500000000000000, 1.913510623667739463E-17, 2.375086602540378067 ) ) ;
#112 = DIRECTION ( 'NONE',  ( 0.0000000000000000000, 0.0000000000000000000, 1.000000000000000000 ) ) ;
#113 = CIRCLE ( 'NONE', #141, 0.1412499999999994871 ) ;
#114 = DIRECTION ( 'NONE',  ( 1.000000000000000000, 0.0000000000000000000, 0.0000000000000000000 ) ) ;
#115 = DIRECTION ( 'NONE',  ( 1.000000000000000000, 0.0000000000000000000, 0.0000000000000000000 ) ) ;
#116 = FACE_OUTER_BOUND ( 'NONE', #93, .T. ) ;
#117 = DIRECTION ( 'NONE',  ( 1.000000000000000000, 0.0000000000000000000, 0.0000000000000000000 ) ) ;
#118 = EDGE_LOOP ( 'NONE', ( #234, #58, #173, #19 ) ) ;
#119 = DIRECTION ( 'NONE',  ( -1.000000000000000000, 0.0000000000000000000, 0.0000000000000000000 ) ) ;
#120 = DIRECTION ( 'NONE',  ( -0.4999999999999977240, 6.123233995736737686E-17, 0.8660254037844398178 ) ) ;
#121 = DIRECTION ( 'NONE',  ( -0.0000000000000000000, -0.0000000000000000000, 1.000000000000000000 ) ) ;
#122 = CONICAL_SURFACE ( 'NONE', #180, 65.52281426576945478, 1.029744258676661417 ) ;
#123 =( NAMED_UNIT ( * ) SI_UNIT ( $, .STERADIAN. ) SOLID_ANGLE_UNIT ( ) );
#124 = CARTESIAN_POINT ( 'NONE',  ( 0.0000000000000000000, 0.0000000000000000000, 0.0000000000000000000 ) ) ;
#125 = STYLED_ITEM ( 'NONE', ( #30 ), #295 ) ;
#126 = ORIENTED_EDGE ( 'NONE', *, *, #245, .F. ) ;
#127 = ORIENTED_EDGE ( 'NONE', *, *, #266, .T. ) ;
#128 = CARTESIAN_POINT ( 'NONE',  ( 0.0000000000000000000, 0.0000000000000000000, 0.09385442869210341987 ) ) ;
#129 = AXIS2_PLACEMENT_3D ( 'NONE', #57, #155, #262 ) ;
#130 = DIRECTION ( 'NONE',  ( -0.0000000000000000000, -0.0000000000000000000, 1.000000000000000000 ) ) ;
#131 = CARTESIAN_POINT ( 'NONE',  ( 0.1562000000000003941, 0.0000000000000000000, 2.375000000000000000 ) ) ;
#132 = UNCERTAINTY_MEASURE_WITH_UNIT (LENGTH_MEASURE( 1.000000000000000082E-05 ), #323, 'distance_accuracy_value', 'NONE');
#133 = DIRECTION ( 'NONE',  ( -1.000000000000000000, 0.0000000000000000000, 0.0000000000000000000 ) ) ;
#134 = AXIS2_PLACEMENT_3D ( 'NONE', #193, #248, #117 ) ;
#135 = CARTESIAN_POINT ( 'NONE',  ( 0.0000000000000000000, 0.0000000000000000000, 3.750000000000000000 ) ) ;
#136 = SURFACE_STYLE_FILL_AREA ( #22 ) ;
#137 = ORIENTED_EDGE ( 'NONE', *, *, #110, .T. ) ;
#138 = EDGE_CURVE ( 'NONE', #100, #213, #41, .T. ) ;
#139 = CARTESIAN_POINT ( 'NONE',  ( 0.1562500000000000000, 1.913510623667739463E-17, 3.750000000000000000 ) ) ;
#140 = ORIENTED_EDGE ( 'NONE', *, *, #218, .F. ) ;
#141 = AXIS2_PLACEMENT_3D ( 'NONE', #44, #316, #269 ) ;
#142 = CYLINDRICAL_SURFACE ( 'NONE', #134, 0.1562000000000001720 ) ;
#143 = ORIENTED_EDGE ( 'NONE', *, *, #184, .T. ) ;
#144 = CARTESIAN_POINT ( 'NONE',  ( 0.1561999999999999222, 0.0000000000000000000, 0.09385442869210341987 ) ) ;
#145 = DIMENSIONAL_EXPONENTS ( 1.000000000000000000, 0.0000000000000000000, 0.0000000000000000000, 0.0000000000000000000, 0.0000000000000000000, 0.0000000000000000000, 0.0000000000000000000 ) ;
#146 = ORIENTED_EDGE ( 'NONE', *, *, #184, .F. ) ;
#147 = AXIS2_PLACEMENT_3D ( 'NONE', #275, #243, #238 ) ;
#148 = ORIENTED_EDGE ( 'NONE', *, *, #72, .F. ) ;
#149 = AXIS2_PLACEMENT_3D ( 'NONE', #288, #59, #199 ) ;
#150 = CONICAL_SURFACE ( 'NONE', #104, 0.1412499999999994871, 0.7853981633974573828 ) ;
#151 = CARTESIAN_POINT ( 'NONE',  ( 0.0000000000000000000, 0.0000000000000000000, 3.750000000000000000 ) ) ;
#152 = FACE_OUTER_BOUND ( 'NONE', #81, .T. ) ;
#153 = COLOUR_RGB ( '',0.7921568627450980005, 0.8196078431372548767, 0.9333333333333333481 ) ;
#154 = DIRECTION ( 'NONE',  ( 0.0000000000000000000, 0.0000000000000000000, -1.000000000000000000 ) ) ;
#155 = DIRECTION ( 'NONE',  ( 0.0000000000000000000, 0.0000000000000000000, 1.000000000000000000 ) ) ;
#156 = ADVANCED_FACE ( 'NONE', ( #286 ), #235, .T. ) ;
#157 = DIRECTION ( 'NONE',  ( 0.7071067811865540120, 8.659560562355011744E-17, -0.7071067811865410224 ) ) ;
#158 = EDGE_CURVE ( 'NONE', #77, #240, #233, .T. ) ;
#159 = FACE_OUTER_BOUND ( 'NONE', #13, .T. ) ;
#160 = DIRECTION ( 'NONE',  ( -0.0000000000000000000, -0.0000000000000000000, 1.000000000000000000 ) ) ;
#161 = VERTEX_POINT ( 'NONE', #34 ) ;
#162 = EDGE_CURVE ( 'NONE', #213, #240, #35, .T. ) ;
#163 = DIRECTION ( 'NONE',  ( 1.000000000000000000, 0.0000000000000000000, 0.0000000000000000000 ) ) ;
#164 = CARTESIAN_POINT ( 'NONE',  ( 0.0000000000000000000, 0.0000000000000000000, 2.375000000000000000 ) ) ;
#165 = ORIENTED_EDGE ( 'NONE', *, *, #266, .F. ) ;
#166 = CARTESIAN_POINT ( 'NONE',  ( 0.0000000000000000000, 0.0000000000000000000, 2.375000000000000000 ) ) ;
#167 = PRODUCT_DEFINITION_FORMATION_WITH_SPECIFIED_SOURCE ( 'ANY', '', #225, .NOT_KNOWN. ) ;
#168 = ORIENTED_EDGE ( 'NONE', *, *, #162, .T. ) ;
#169 = FILL_AREA_STYLE ('',( #216 ) ) ;
#170 = VECTOR ( 'NONE', #157, 39.37007874015748143 ) ;
#171 = PRESENTATION_LAYER_ASSIGNMENT (  '', '', ( #56 ) ) ;
#172 = APPLICATION_CONTEXT ( 'automotive_design' ) ;
#173 = ORIENTED_EDGE ( 'NONE', *, *, #51, .F. ) ;
#174 = SHAPE_DEFINITION_REPRESENTATION ( #200, #295 ) ;
#175 = VECTOR ( 'NONE', #310, 39.37007874015748143 ) ;
#176 = CARTESIAN_POINT ( 'NONE',  ( 0.0000000000000000000, 0.0000000000000000000, 3.750000000000000000 ) ) ;
#177 = ORIENTED_EDGE ( 'NONE', *, *, #263, .T. ) ;
#178 = LINE ( 'NONE', #285, #20 ) ;
#179 = CARTESIAN_POINT ( 'NONE',  ( -0.1562000000000001720, 1.912898300268167514E-17, 3.734999999999999876 ) ) ;
#180 = AXIS2_PLACEMENT_3D ( 'NONE', #192, #300, #211 ) ;
#181 = EDGE_CURVE ( 'NONE', #49, #253, #103, .T. ) ;
#182 = CARTESIAN_POINT ( 'NONE',  ( 0.1562000000000003941, 0.0000000000000000000, 2.375000000000000000 ) ) ;
#183 = CARTESIAN_POINT ( 'NONE',  ( 0.1562000000000001720, 0.0000000000000000000, 3.734999999999999876 ) ) ;
#184 = EDGE_CURVE ( 'NONE', #253, #77, #231, .T. ) ;
#185 =( GEOMETRIC_REPRESENTATION_CONTEXT ( 3 ) GLOBAL_UNCERTAINTY_ASSIGNED_CONTEXT ( ( #291 ) ) GLOBAL_UNIT_ASSIGNED_CONTEXT ( ( #96, #97, #252 ) ) REPRESENTATION_CONTEXT ( 'NONE', 'WORKASPACE' ) );
#186 = DIRECTION ( 'NONE',  ( 0.0000000000000000000, 0.0000000000000000000, -1.000000000000000000 ) ) ;
#187 = CARTESIAN_POINT ( 'NONE',  ( 0.0000000000000000000, 0.0000000000000000000, 3.750000000000000000 ) ) ;
#188 = EDGE_LOOP ( 'NONE', ( #39, #99, #306, #270 ) ) ;
#189 = ORIENTED_EDGE ( 'NONE', *, *, #51, .T. ) ;
#190 = DIRECTION ( 'NONE',  ( -0.8571673007021157753, 1.049727191138622886E-16, 0.5150380749100482713 ) ) ;
#191 = CARTESIAN_POINT ( 'NONE',  ( -0.1412499999999994871, 0.0000000000000000000, 3.750000000000000000 ) ) ;
#192 = CARTESIAN_POINT ( 'NONE',  ( 0.0000000000000000000, 0.0000000000000000000, 39.37007874015748143 ) ) ;
#193 = CARTESIAN_POINT ( 'NONE',  ( 0.0000000000000000000, 0.0000000000000000000, 3.734999999999999876 ) ) ;
#194 = VECTOR ( 'NONE', #190, 39.37007874015748854 ) ;
#195 =( GEOMETRIC_REPRESENTATION_CONTEXT ( 3 ) GLOBAL_UNCERTAINTY_ASSIGNED_CONTEXT ( ( #132 ) ) GLOBAL_UNIT_ASSIGNED_CONTEXT ( ( #323, #276, #123 ) ) REPRESENTATION_CONTEXT ( 'NONE', 'WORKASPACE' ) );
#196 = ORIENTED_EDGE ( 'NONE', *, *, #257, .T. ) ;
#197 = SURFACE_STYLE_FILL_AREA ( #169 ) ;
#198 = CONICAL_SURFACE ( 'NONE', #54, 0.1412499999999994871, 0.7853981633974573828 ) ;
#199 = DIRECTION ( 'NONE',  ( 1.000000000000000000, 0.0000000000000000000, 0.0000000000000000000 ) ) ;
#200 = PRODUCT_DEFINITION_SHAPE ( 'NONE', 'NONE',  #232 ) ;
#201 = ORIENTED_EDGE ( 'NONE', *, *, #94, .T. ) ;
#202 = AXIS2_PLACEMENT_3D ( 'NONE', #265, #108, #264 ) ;
#203 = CARTESIAN_POINT ( 'NONE',  ( 0.0000000000000000000, 0.0000000000000000000, 2.375086602540378067 ) ) ;
#204 = DIRECTION ( 'NONE',  ( -0.0000000000000000000, -0.0000000000000000000, -1.000000000000000000 ) ) ;
#205 = DIRECTION ( 'NONE',  ( 1.000000000000000000, 0.0000000000000000000, 0.0000000000000000000 ) ) ;
#206 = DIRECTION ( 'NONE',  ( -0.0000000000000000000, -0.0000000000000000000, 1.000000000000000000 ) ) ;
#207 = LINE ( 'NONE', #179, #75 ) ;
#208 =( NAMED_UNIT ( * ) PLANE_ANGLE_UNIT ( ) SI_UNIT ( $, .RADIAN. ) );
#209 = ORIENTED_EDGE ( 'NONE', *, *, #181, .T. ) ;
#210 = CIRCLE ( 'NONE', #12, 0.1412499999999994871 ) ;
#211 = DIRECTION ( 'NONE',  ( 1.000000000000000000, 0.0000000000000000000, 0.0000000000000000000 ) ) ;
#212 = ORIENTED_EDGE ( 'NONE', *, *, #246, .T. ) ;
#213 = VERTEX_POINT ( 'NONE', #227 ) ;
#214 = DIRECTION ( 'NONE',  ( -0.0000000000000000000, -0.0000000000000000000, 1.000000000000000000 ) ) ;
#215 = ADVANCED_FACE ( 'NONE', ( #10 ), #249, .T. ) ;
#216 = FILL_AREA_STYLE_COLOUR ( '', #153 ) ;
#217 = MECHANICAL_DESIGN_GEOMETRIC_PRESENTATION_REPRESENTATION (  '', ( #56 ), #21 ) ;
#218 = EDGE_CURVE ( 'NONE', #25, #253, #105, .T. ) ;
#219 = ADVANCED_FACE ( 'NONE', ( #53 ), #198, .T. ) ;
#220 = ORIENTED_EDGE ( 'NONE', *, *, #61, .T. ) ;
#221 = VECTOR ( 'NONE', #313, 39.37007874015748143 ) ;
#222 = AXIS2_PLACEMENT_3D ( 'NONE', #6, #307, #280 ) ;
#223 = CARTESIAN_POINT ( 'NONE',  ( 0.0000000000000000000, 0.0000000000000000000, 0.0000000000000000000 ) ) ;
#224 = EDGE_LOOP ( 'NONE', ( #322, #212, #32, #272 ) ) ;
#225 = PRODUCT ( 'Micro_DR-312-2', 'Micro_DR-312-2', '', ( #304 ) ) ;
#226 = ORIENTED_EDGE ( 'NONE', *, *, #61, .F. ) ;
#227 = CARTESIAN_POINT ( 'NONE',  ( -0.1562500000000000000, 0.0000000000000000000, 2.375086602540378067 ) ) ;
#228 = CLOSED_SHELL ( 'NONE', ( #318, #296, #4, #219, #156, #101, #107, #303, #215, #308, #5 ) ) ;
#229 = FACE_OUTER_BOUND ( 'NONE', #244, .T. ) ;
#230 = ORIENTED_EDGE ( 'NONE', *, *, #257, .F. ) ;
#231 = LINE ( 'NONE', #183, #175 ) ;
#232 = PRODUCT_DEFINITION ( 'UNKNOWN', '', #167, #237 ) ;
#233 = LINE ( 'NONE', #131, #221 ) ;
#234 = ORIENTED_EDGE ( 'NONE', *, *, #72, .T. ) ;
#235 = CYLINDRICAL_SURFACE ( 'NONE', #250, 0.1562500000000000000 ) ;
#236 = CARTESIAN_POINT ( 'NONE',  ( 0.0000000000000000000, 0.0000000000000000000, 39.37007874015748143 ) ) ;
#237 = PRODUCT_DEFINITION_CONTEXT ( 'detailed design', #172, 'design' ) ;
#238 = DIRECTION ( 'NONE',  ( 1.000000000000000000, 0.0000000000000000000, 0.0000000000000000000 ) ) ;
#239 = EDGE_LOOP ( 'NONE', ( #281, #196, #189, #1 ) ) ;
#240 = VERTEX_POINT ( 'NONE', #111 ) ;
#241 = CIRCLE ( 'NONE', #255, 0.1562000000000003941 ) ;
#242 = VECTOR ( 'NONE', #247, 39.37007874015748143 ) ;
#243 = DIRECTION ( 'NONE',  ( 0.0000000000000000000, 0.0000000000000000000, -1.000000000000000000 ) ) ;
#244 = EDGE_LOOP ( 'NONE', ( #230, #83, #109, #168 ) ) ;
#245 = EDGE_CURVE ( 'NONE', #301, #100, #178, .T. ) ;
#246 = EDGE_CURVE ( 'NONE', #282, #77, #241, .T. ) ;
#247 = DIRECTION ( 'NONE',  ( -0.0000000000000000000, -0.0000000000000000000, -1.000000000000000000 ) ) ;
#248 = DIRECTION ( 'NONE',  ( -0.0000000000000000000, -0.0000000000000000000, 1.000000000000000000 ) ) ;
#249 = CONICAL_SURFACE ( 'NONE', #261, 0.1562000000000003941, 0.5235987755982962621 ) ;
#250 = AXIS2_PLACEMENT_3D ( 'NONE', #151, #258, #133 ) ;
#251 = AXIS2_PLACEMENT_3D ( 'NONE', #65, #214, #163 ) ;
#252 =( NAMED_UNIT ( * ) SI_UNIT ( $, .STERADIAN. ) SOLID_ANGLE_UNIT ( ) );
#253 = VERTEX_POINT ( 'NONE', #144 ) ;
#254 = CIRCLE ( 'NONE', #149, 0.1562500000000000000 ) ;
#255 = AXIS2_PLACEMENT_3D ( 'NONE', #166, #63, #271 ) ;
#256 = EDGE_LOOP ( 'NONE', ( #27, #137, #311, #126 ) ) ;
#257 = EDGE_CURVE ( 'NONE', #161, #240, #88, .T. ) ;
#258 = DIRECTION ( 'NONE',  ( -0.0000000000000000000, -0.0000000000000000000, -1.000000000000000000 ) ) ;
#259 = DIRECTION ( 'NONE',  ( 1.000000000000000000, 0.0000000000000000000, 0.0000000000000000000 ) ) ;
#260 = ORIENTED_EDGE ( 'NONE', *, *, #106, .F. ) ;
#261 = AXIS2_PLACEMENT_3D ( 'NONE', #7, #289, #205 ) ;
#262 = DIRECTION ( 'NONE',  ( 1.000000000000000000, 0.0000000000000000000, -0.0000000000000000000 ) ) ;
#263 = EDGE_CURVE ( 'NONE', #301, #64, #113, .T. ) ;
#264 = DIRECTION ( 'NONE',  ( 1.000000000000000000, 0.0000000000000000000, 0.0000000000000000000 ) ) ;
#265 = CARTESIAN_POINT ( 'NONE',  ( 0.0000000000000000000, 0.0000000000000000000, 2.375000000000000000 ) ) ;
#266 = EDGE_CURVE ( 'NONE', #253, #49, #69, .T. ) ;
#267 = PRESENTATION_STYLE_ASSIGNMENT (( #48 ) ) ;
#268 = LINE ( 'NONE', #43, #68 ) ;
#269 = DIRECTION ( 'NONE',  ( 1.000000000000000000, 0.0000000000000000000, 0.0000000000000000000 ) ) ;
#270 = ORIENTED_EDGE ( 'NONE', *, *, #73, .F. ) ;
#271 = DIRECTION ( 'NONE',  ( 1.000000000000000000, 0.0000000000000000000, 0.0000000000000000000 ) ) ;
#272 = ORIENTED_EDGE ( 'NONE', *, *, #162, .F. ) ;
#273 = AXIS2_PLACEMENT_3D ( 'NONE', #164, #160, #298 ) ;
#274 = PRESENTATION_LAYER_ASSIGNMENT (  '', '', ( #125 ) ) ;
#275 = CARTESIAN_POINT ( 'NONE',  ( 0.0000000000000000000, 0.0000000000000000000, 3.734999999999999876 ) ) ;
#276 =( NAMED_UNIT ( * ) PLANE_ANGLE_UNIT ( ) SI_UNIT ( $, .RADIAN. ) );
#277 = SURFACE_SIDE_STYLE ('',( #197 ) ) ;
#278 = SURFACE_STYLE_USAGE ( .BOTH. , #277 ) ;
#279 = APPLICATION_PROTOCOL_DEFINITION ( 'draft international standard', 'automotive_design', 1998, #172 ) ;
#280 = DIRECTION ( 'NONE',  ( 1.000000000000000000, 0.0000000000000000000, 0.0000000000000000000 ) ) ;
#281 = ORIENTED_EDGE ( 'NONE', *, *, #305, .T. ) ;
#282 = VERTEX_POINT ( 'NONE', #46 ) ;
#283 = VECTOR ( 'NONE', #40, 39.37007874015748143 ) ;
#284 = CARTESIAN_POINT ( 'NONE',  ( 0.1412499999999994871, 1.729813603795629493E-17, 3.750000000000000000 ) ) ;
#285 = CARTESIAN_POINT ( 'NONE',  ( -0.1412499999999994871, 0.0000000000000000000, 3.750000000000000000 ) ) ;
#286 = FACE_OUTER_BOUND ( 'NONE', #239, .T. ) ;
#287 = PLANE ( 'NONE',  #129 ) ;
#288 = CARTESIAN_POINT ( 'NONE',  ( 0.0000000000000000000, 0.0000000000000000000, 2.375086602540378067 ) ) ;
#289 = DIRECTION ( 'NONE',  ( -0.0000000000000000000, -0.0000000000000000000, 1.000000000000000000 ) ) ;
#290 =( LENGTH_UNIT ( ) NAMED_UNIT ( * ) SI_UNIT ( $, .METRE. ) );
#291 = UNCERTAINTY_MEASURE_WITH_UNIT (LENGTH_MEASURE( 1.000000000000000082E-05 ), #96, 'distance_accuracy_value', 'NONE');
#292 = CIRCLE ( 'NONE', #202, 0.1562000000000003941 ) ;
#293 = AXIS2_PLACEMENT_3D ( 'NONE', #42, #91, #87 ) ;
#294 = MECHANICAL_DESIGN_GEOMETRIC_PRESENTATION_REPRESENTATION (  '', ( #125 ), #195 ) ;
#295 = ADVANCED_BREP_SHAPE_REPRESENTATION ( 'Micro_DR-312-2', ( #321, #222 ), #185 ) ;
#296 = ADVANCED_FACE ( 'NONE', ( #320 ), #37, .T. ) ;
#297 = CYLINDRICAL_SURFACE ( 'NONE', #251, 0.1562000000000001720 ) ;
#298 = DIRECTION ( 'NONE',  ( 1.000000000000000000, 0.0000000000000000000, 0.0000000000000000000 ) ) ;
#299 = SURFACE_SIDE_STYLE ('',( #136 ) ) ;
#300 = DIRECTION ( 'NONE',  ( -0.0000000000000000000, -0.0000000000000000000, 1.000000000000000000 ) ) ;
#301 = VERTEX_POINT ( 'NONE', #191 ) ;
#302 = CARTESIAN_POINT ( 'NONE',  ( -0.1561999999999999222, 1.912898300268165048E-17, 0.09385442869210341987 ) ) ;
#303 = ADVANCED_FACE ( 'NONE', ( #18 ), #150, .T. ) ;
#304 = PRODUCT_CONTEXT ( 'NONE', #90, 'mechanical' ) ;
#305 = EDGE_CURVE ( 'NONE', #100, #161, #28, .T. ) ;
#306 = ORIENTED_EDGE ( 'NONE', *, *, #245, .T. ) ;
#307 = DIRECTION ( 'NONE',  ( 0.0000000000000000000, 0.0000000000000000000, 1.000000000000000000 ) ) ;
#308 = ADVANCED_FACE ( 'NONE', ( #116 ), #122, .T. ) ;
#309 = CARTESIAN_POINT ( 'NONE',  ( 0.0000000000000000000, 0.0000000000000000000, 3.750000000000000000 ) ) ;
#310 = DIRECTION ( 'NONE',  ( -0.0000000000000000000, -0.0000000000000000000, 1.000000000000000000 ) ) ;
#311 = ORIENTED_EDGE ( 'NONE', *, *, #305, .F. ) ;
#312 = UNCERTAINTY_MEASURE_WITH_UNIT (LENGTH_MEASURE( 1.000000000000000082E-05 ), #15, 'distance_accuracy_value', 'NONE');
#313 = DIRECTION ( 'NONE',  ( 0.4999999999999977240, 0.0000000000000000000, 0.8660254037844398178 ) ) ;
#314 = COLOUR_RGB ( '',0.7921568627450980005, 0.8196078431372548767, 0.9333333333333333481 ) ;
#315 = CARTESIAN_POINT ( 'NONE',  ( 0.1412499999999994871, 1.821662113731684170E-17, 3.750000000000000000 ) ) ;
#316 = DIRECTION ( 'NONE',  ( 0.0000000000000000000, 0.0000000000000000000, 1.000000000000000000 ) ) ;
#317 = DIRECTION ( 'NONE',  ( -0.7071067811865540120, 0.0000000000000000000, -0.7071067811865410224 ) ) ;
#318 = ADVANCED_FACE ( 'NONE', ( #159 ), #297, .T. ) ;
#319 =( LENGTH_UNIT ( ) NAMED_UNIT ( * ) SI_UNIT ( $, .METRE. ) );
#320 = FACE_OUTER_BOUND ( 'NONE', #45, .T. ) ;
#321 = MANIFOLD_SOLID_BREP ( 'Cut-Revolve1', #228 ) ;
#322 = ORIENTED_EDGE ( 'NONE', *, *, #17, .F. ) ;
#323 =( CONVERSION_BASED_UNIT ( 'INCH', #76 ) LENGTH_UNIT ( ) NAMED_UNIT ( #95 ) );
ENDSEC;
END-ISO-10303-21;
