ISO-10303-21;
HEADER;
FILE_DESCRIPTION (( 'STEP AP214' ),
    '1' );
FILE_NAME ('84687.STEP',
    '2023-06-23T14:35:07',
    ( '' ),
    ( '' ),
    'SwSTEP 2.0',
    'SolidWorks 2023',
    '' );
FILE_SCHEMA (( 'AUTOMOTIVE_DESIGN' ));
ENDSEC;

DATA;
#1 = DIRECTION ( 'NONE',  ( 0.000000000000000000, -1.000000000000000000, -0.000000000000000000 ) ) ;
#2 = ADVANCED_BREP_SHAPE_REPRESENTATION ( '84687', ( #127, #16, #285 ), #299 ) ;
#3 = FILL_AREA_STYLE ('',( #170 ) ) ;
#4 = UNCERTAINTY_MEASURE_WITH_UNIT (LENGTH_MEASURE( 1.000000000000000082E-05 ), #68, 'distance_accuracy_value', 'NONE');
#5 =( GEOMETRIC_REPRESENTATION_CONTEXT ( 3 ) GLOBAL_UNCERTAINTY_ASSIGNED_CONTEXT ( ( #260 ) ) GLOBAL_UNIT_ASSIGNED_CONTEXT ( ( #286, #104, #146 ) ) REPRESENTATION_CONTEXT ( 'NONE', 'WORKASPACE' ) );
#6 = ADVANCED_FACE ( 'NONE', ( #24 ), #235, .T. ) ;
#7 = LINE ( 'NONE', #89, #90 ) ;
#8 =( CONVERSION_BASED_UNIT ( 'INCH', #154 ) LENGTH_UNIT ( ) NAMED_UNIT ( #17 ) );
#9 = CYLINDRICAL_SURFACE ( 'NONE', #66, 0.09375000000000001388 ) ;
#10 = ORIENTED_EDGE ( 'NONE', *, *, #189, .F. ) ;
#11 = PRODUCT_DEFINITION ( 'UNKNOWN', '', #280, #210 ) ;
#12 =( NAMED_UNIT ( * ) PLANE_ANGLE_UNIT ( ) SI_UNIT ( $, .RADIAN. ) );
#13 =( GEOMETRIC_REPRESENTATION_CONTEXT ( 3 ) GLOBAL_UNCERTAINTY_ASSIGNED_CONTEXT ( ( #50 ) ) GLOBAL_UNIT_ASSIGNED_CONTEXT ( ( #168, #124, #191 ) ) REPRESENTATION_CONTEXT ( 'NONE', 'WORKASPACE' ) );
#14 = DIRECTION ( 'NONE',  ( -3.768143997376474441E-17, 1.000000000000000000, -0.000000000000000000 ) ) ;
#15 = DIRECTION ( 'NONE',  ( -0.000000000000000000, -1.000000000000000000, -0.000000000000000000 ) ) ;
#16 = MANIFOLD_SOLID_BREP ( 'Revolve - Tool Body (Straight Shanked)', #38 ) ;
#17 = DIMENSIONAL_EXPONENTS ( 1.000000000000000000, 0.000000000000000000, 0.000000000000000000, 0.000000000000000000, 0.000000000000000000, 0.000000000000000000, 0.000000000000000000 ) ;
#18 = DIRECTION ( 'NONE',  ( -1.000000000000000000, 0.000000000000000000, 0.000000000000000000 ) ) ;
#19 =( GEOMETRIC_REPRESENTATION_CONTEXT ( 3 ) GLOBAL_UNCERTAINTY_ASSIGNED_CONTEXT ( ( #246 ) ) GLOBAL_UNIT_ASSIGNED_CONTEXT ( ( #8, #215, #83 ) ) REPRESENTATION_CONTEXT ( 'NONE', 'WORKASPACE' ) );
#20 = FILL_AREA_STYLE_COLOUR ( '', #212 ) ;
#21 = UNCERTAINTY_MEASURE_WITH_UNIT (LENGTH_MEASURE( 1.000000000000000082E-05 ), #142, 'distance_accuracy_value', 'NONE');
#22 = ORIENTED_EDGE ( 'NONE', *, *, #48, .T. ) ;
#23 = SURFACE_STYLE_USAGE ( .BOTH. , #141 ) ;
#24 = FACE_OUTER_BOUND ( 'NONE', #81, .T. ) ;
#25 = CYLINDRICAL_SURFACE ( 'NONE', #196, 0.09375000000000004163 ) ;
#26 =( LENGTH_UNIT ( ) NAMED_UNIT ( * ) SI_UNIT ( $, .METRE. ) );
#27 = CARTESIAN_POINT ( 'NONE',  ( 0.000000000000000000, 1.375000000000000000, 0.000000000000000000 ) ) ;
#28 = ORIENTED_EDGE ( 'NONE', *, *, #189, .T. ) ;
#29 =( NAMED_UNIT ( * ) PLANE_ANGLE_UNIT ( ) SI_UNIT ( $, .RADIAN. ) );
#30 = AXIS2_PLACEMENT_3D ( 'NONE', #118, #203, #43 ) ;
#31 = PRESENTATION_STYLE_ASSIGNMENT (( #225 ) ) ;
#32 = EDGE_LOOP ( 'NONE', ( #283, #206 ) ) ;
#33 = DIRECTION ( 'NONE',  ( 0.000000000000000000, 0.000000000000000000, -1.000000000000000000 ) ) ;
#34 = DIRECTION ( 'NONE',  ( -3.768143997376474441E-17, 1.000000000000000000, 0.000000000000000000 ) ) ;
#35 = DIRECTION ( 'NONE',  ( -0.000000000000000000, -1.000000000000000000, -0.000000000000000000 ) ) ;
#36 = EDGE_CURVE ( 'NONE', #194, #192, #65, .T. ) ;
#37 = CARTESIAN_POINT ( 'NONE',  ( 0.000000000000000000, 0.000000000000000000, 0.000000000000000000 ) ) ;
#38 = CLOSED_SHELL ( 'NONE', ( #6, #204, #149, #51 ) ) ;
#39 = CIRCLE ( 'NONE', #277, 0.09375000000000001388 ) ;
#40 = SURFACE_STYLE_FILL_AREA ( #281 ) ;
#41 = DIRECTION ( 'NONE',  ( 0.000000000000000000, 0.000000000000000000, -1.000000000000000000 ) ) ;
#42 = FILL_AREA_STYLE ('',( #20 ) ) ;
#43 = DIRECTION ( 'NONE',  ( 1.000000000000000000, 3.768143997376474441E-17, 0.000000000000000000 ) ) ;
#44 = LENGTH_MEASURE_WITH_UNIT ( LENGTH_MEASURE( 0.02539999999999999897 ), #284 );
#45 = FACE_OUTER_BOUND ( 'NONE', #287, .T. ) ;
#46 = AXIS2_PLACEMENT_3D ( 'NONE', #179, #59, #62 ) ;
#47 = DIRECTION ( 'NONE',  ( -3.768143997376474441E-17, 1.000000000000000000, -0.000000000000000000 ) ) ;
#48 = EDGE_CURVE ( 'NONE', #61, #290, #94, .T. ) ;
#49 = COLOUR_RGB ( '',1.000000000000000000, 0.000000000000000000, 0.000000000000000000 ) ;
#50 = UNCERTAINTY_MEASURE_WITH_UNIT (LENGTH_MEASURE( 1.000000000000000082E-05 ), #168, 'distance_accuracy_value', 'NONE');
#51 = ADVANCED_FACE ( 'NONE', ( #45 ), #70, .F. ) ;
#52 = DIRECTION ( 'NONE',  ( -0.000000000000000000, -1.000000000000000000, -0.000000000000000000 ) ) ;
#53 = ORIENTED_EDGE ( 'NONE', *, *, #169, .T. ) ;
#54 = FILL_AREA_STYLE_COLOUR ( '', #278 ) ;
#55 = CARTESIAN_POINT ( 'NONE',  ( 0.000000000000000000, 1.375000000000000000, 0.000000000000000000 ) ) ;
#56 = DIMENSIONAL_EXPONENTS ( 1.000000000000000000, 0.000000000000000000, 0.000000000000000000, 0.000000000000000000, 0.000000000000000000, 0.000000000000000000, 0.000000000000000000 ) ;
#57 = ORIENTED_EDGE ( 'NONE', *, *, #99, .F. ) ;
#58 = STYLED_ITEM ( 'NONE', ( #103 ), #232 ) ;
#59 = DIRECTION ( 'NONE',  ( -0.000000000000000000, -1.000000000000000000, -0.000000000000000000 ) ) ;
#60 =( CONVERSION_BASED_UNIT ( 'INCH', #180 ) LENGTH_UNIT ( ) NAMED_UNIT ( #258 ) );
#61 = VERTEX_POINT ( 'NONE', #240 ) ;
#62 = DIRECTION ( 'NONE',  ( 0.000000000000000000, 0.000000000000000000, -1.000000000000000000 ) ) ;
#63 = ORIENTED_EDGE ( 'NONE', *, *, #169, .F. ) ;
#64 = DIRECTION ( 'NONE',  ( 0.000000000000000000, 0.000000000000000000, 1.000000000000000000 ) ) ;
#65 = CIRCLE ( 'NONE', #116, 0.09375000000000001388 ) ;
#66 = AXIS2_PLACEMENT_3D ( 'NONE', #195, #220, #293 ) ;
#67 = CARTESIAN_POINT ( 'NONE',  ( 1.148106374200643863E-17, 0.000000000000000000, 0.09375000000000001388 ) ) ;
#68 =( CONVERSION_BASED_UNIT ( 'INCH', #137 ) LENGTH_UNIT ( ) NAMED_UNIT ( #56 ) );
#69 = STYLED_ITEM ( 'NONE', ( #130 ), #257 ) ;
#70 = PLANE ( 'NONE',  #30 ) ;
#71 =( NAMED_UNIT ( * ) SI_UNIT ( $, .STERADIAN. ) SOLID_ANGLE_UNIT ( ) );
#72 = SURFACE_SIDE_STYLE ('',( #158 ) ) ;
#73 = CARTESIAN_POINT ( 'NONE',  ( 0.000000000000000000, 1.375000000000000000, 0.000000000000000000 ) ) ;
#74 = DIRECTION ( 'NONE',  ( 0.000000000000000000, 1.000000000000000000, 0.000000000000000000 ) ) ;
#75 = PRESENTATION_LAYER_ASSIGNMENT (  '', '', ( #123 ) ) ;
#76 =( CONVERSION_BASED_UNIT ( 'INCH', #268 ) LENGTH_UNIT ( ) NAMED_UNIT ( #300 ) );
#77 = LINE ( 'NONE', #211, #255 ) ;
#78 = ADVANCED_FACE ( 'NONE', ( #93 ), #197, .T. ) ;
#79 =( GEOMETRIC_REPRESENTATION_CONTEXT ( 3 ) GLOBAL_UNCERTAINTY_ASSIGNED_CONTEXT ( ( #236 ) ) GLOBAL_UNIT_ASSIGNED_CONTEXT ( ( #76, #29, #144 ) ) REPRESENTATION_CONTEXT ( 'NONE', 'WORKASPACE' ) );
#80 = VERTEX_POINT ( 'NONE', #145 ) ;
#81 = EDGE_LOOP ( 'NONE', ( #22, #98, #171, #57 ) ) ;
#82 = SURFACE_STYLE_USAGE ( .BOTH. , #128 ) ;
#83 =( NAMED_UNIT ( * ) SI_UNIT ( $, .STERADIAN. ) SOLID_ANGLE_UNIT ( ) );
#84 = CARTESIAN_POINT ( 'NONE',  ( 1.148106374200643863E-17, 1.375000000000000000, 0.09375000000000001388 ) ) ;
#85 = MECHANICAL_DESIGN_GEOMETRIC_PRESENTATION_REPRESENTATION (  '', ( #58 ), #13 ) ;
#86 =( LENGTH_UNIT ( ) NAMED_UNIT ( * ) SI_UNIT ( $, .METRE. ) );
#87 = FILL_AREA_STYLE ('',( #251 ) ) ;
#88 = DIRECTION ( 'NONE',  ( -3.768143997376474441E-17, 1.000000000000000000, -0.000000000000000000 ) ) ;
#89 = CARTESIAN_POINT ( 'NONE',  ( 0.09374999999999997224, 3.000000000000000444, 1.148106374200644171E-17 ) ) ;
#90 = VECTOR ( 'NONE', #150, 39.37007874015748143 ) ;
#91 = STYLED_ITEM ( 'NONE', ( #31 ), #302 ) ;
#92 = PRODUCT_CONTEXT ( 'NONE', #241, 'mechanical' ) ;
#93 = FACE_OUTER_BOUND ( 'NONE', #224, .T. ) ;
#94 = CIRCLE ( 'NONE', #294, 0.09375000000000001388 ) ;
#95 = FACE_OUTER_BOUND ( 'NONE', #264, .T. ) ;
#96 = MECHANICAL_DESIGN_GEOMETRIC_PRESENTATION_REPRESENTATION (  '', ( #69 ), #19 ) ;
#97 =( NAMED_UNIT ( * ) PLANE_ANGLE_UNIT ( ) SI_UNIT ( $, .RADIAN. ) );
#98 = ORIENTED_EDGE ( 'NONE', *, *, #187, .T. ) ;
#99 = EDGE_CURVE ( 'NONE', #61, #80, #77, .T. ) ;
#100 = MECHANICAL_DESIGN_GEOMETRIC_PRESENTATION_REPRESENTATION (  '', ( #239 ), #105 ) ;
#101 = MECHANICAL_DESIGN_GEOMETRIC_PRESENTATION_REPRESENTATION (  '', ( #91 ), #267 ) ;
#102 = SURFACE_SIDE_STYLE ('',( #243 ) ) ;
#103 = PRESENTATION_STYLE_ASSIGNMENT (( #125 ) ) ;
#104 =( NAMED_UNIT ( * ) PLANE_ANGLE_UNIT ( ) SI_UNIT ( $, .RADIAN. ) );
#105 =( GEOMETRIC_REPRESENTATION_CONTEXT ( 3 ) GLOBAL_UNCERTAINTY_ASSIGNED_CONTEXT ( ( #21 ) ) GLOBAL_UNIT_ASSIGNED_CONTEXT ( ( #142, #97, #181 ) ) REPRESENTATION_CONTEXT ( 'NONE', 'WORKASPACE' ) );
#106 = ORIENTED_EDGE ( 'NONE', *, *, #308, .F. ) ;
#107 = PRODUCT_RELATED_PRODUCT_CATEGORY ( 'part', '', ( #177 ) ) ;
#108 = FACE_OUTER_BOUND ( 'NONE', #164, .T. ) ;
#109 = AXIS2_PLACEMENT_3D ( 'NONE', #122, #74, #126 ) ;
#110 = ORIENTED_EDGE ( 'NONE', *, *, #296, .T. ) ;
#111 = COLOUR_RGB ( '',1.000000000000000000, 0.000000000000000000, 0.000000000000000000 ) ;
#112 = EDGE_CURVE ( 'NONE', #290, #61, #39, .T. ) ;
#113 = DIRECTION ( 'NONE',  ( 0.000000000000000000, 0.000000000000000000, -1.000000000000000000 ) ) ;
#114 = SURFACE_STYLE_FILL_AREA ( #42 ) ;
#115 = SHAPE_DEFINITION_REPRESENTATION ( #166, #2 ) ;
#116 = AXIS2_PLACEMENT_3D ( 'NONE', #254, #119, #33 ) ;
#117 = PLANE ( 'NONE',  #228 ) ;
#118 = CARTESIAN_POINT ( 'NONE',  ( 0.09375000000000001388, 3.000000000000000444, 0.000000000000000000 ) ) ;
#119 = DIRECTION ( 'NONE',  ( -0.000000000000000000, -1.000000000000000000, -0.000000000000000000 ) ) ;
#120 = COLOUR_RGB ( '',0.7921568627450980005, 0.8196078431372548767, 0.9333333333333333481 ) ;
#121 = DIRECTION ( 'NONE',  ( -1.000000000000000000, 0.000000000000000000, 0.000000000000000000 ) ) ;
#122 = CARTESIAN_POINT ( 'NONE',  ( 0.000000000000000000, 1.375000000000000000, 0.000000000000000000 ) ) ;
#123 = STYLED_ITEM ( 'NONE', ( #306 ), #78 ) ;
#124 =( NAMED_UNIT ( * ) PLANE_ANGLE_UNIT ( ) SI_UNIT ( $, .RADIAN. ) );
#125 = SURFACE_STYLE_USAGE ( .BOTH. , #245 ) ;
#126 = DIRECTION ( 'NONE',  ( 0.000000000000000000, -0.000000000000000000, 1.000000000000000000 ) ) ;
#127 = MANIFOLD_SOLID_BREP ( 'Revolve - Cutting Edge', #250 ) ;
#128 = SURFACE_SIDE_STYLE ('',( #175 ) ) ;
#129 = AXIS2_PLACEMENT_3D ( 'NONE', #205, #282, #18 ) ;
#130 = PRESENTATION_STYLE_ASSIGNMENT (( #82 ) ) ;
#131 = FACE_OUTER_BOUND ( 'NONE', #288, .T. ) ;
#132 = ORIENTED_EDGE ( 'NONE', *, *, #266, .F. ) ;
#133 = SURFACE_SIDE_STYLE ('',( #247 ) ) ;
#134 = DIRECTION ( 'NONE',  ( -1.000000000000000000, 0.000000000000000000, 0.000000000000000000 ) ) ;
#135 =( NAMED_UNIT ( * ) SI_UNIT ( $, .STERADIAN. ) SOLID_ANGLE_UNIT ( ) );
#136 =( LENGTH_UNIT ( ) NAMED_UNIT ( * ) SI_UNIT ( $, .METRE. ) );
#137 = LENGTH_MEASURE_WITH_UNIT ( LENGTH_MEASURE( 0.02539999999999999897 ), #136 );
#138 = PRESENTATION_LAYER_ASSIGNMENT (  '', '', ( #58 ) ) ;
#139 = UNCERTAINTY_MEASURE_WITH_UNIT (LENGTH_MEASURE( 1.000000000000000082E-05 ), #60, 'distance_accuracy_value', 'NONE');
#140 = DIRECTION ( 'NONE',  ( -3.768143997376474441E-17, 1.000000000000000000, -0.000000000000000000 ) ) ;
#141 = SURFACE_SIDE_STYLE ('',( #40 ) ) ;
#142 =( CONVERSION_BASED_UNIT ( 'INCH', #199 ) LENGTH_UNIT ( ) NAMED_UNIT ( #184 ) );
#143 = AXIS2_PLACEMENT_3D ( 'NONE', #297, #14, #134 ) ;
#144 =( NAMED_UNIT ( * ) SI_UNIT ( $, .STERADIAN. ) SOLID_ANGLE_UNIT ( ) );
#145 = CARTESIAN_POINT ( 'NONE',  ( -0.09375000000000013878, 3.000000000000000444, 0.000000000000000000 ) ) ;
#146 =( NAMED_UNIT ( * ) SI_UNIT ( $, .STERADIAN. ) SOLID_ANGLE_UNIT ( ) );
#147 = DIRECTION ( 'NONE',  ( 0.000000000000000000, 0.000000000000000000, -1.000000000000000000 ) ) ;
#148 = ORIENTED_EDGE ( 'NONE', *, *, #266, .T. ) ;
#149 = ADVANCED_FACE ( 'NONE', ( #217 ), #25, .T. ) ;
#150 = DIRECTION ( 'NONE',  ( -3.768143997376474441E-17, 1.000000000000000000, -0.000000000000000000 ) ) ;
#151 = VERTEX_POINT ( 'NONE', #84 ) ;
#152 = CARTESIAN_POINT ( 'NONE',  ( 0.000000000000000000, 0.000000000000000000, 0.000000000000000000 ) ) ;
#153 = ORIENTED_EDGE ( 'NONE', *, *, #187, .F. ) ;
#154 = LENGTH_MEASURE_WITH_UNIT ( LENGTH_MEASURE( 0.02539999999999999897 ), #276 );
#155 = CARTESIAN_POINT ( 'NONE',  ( 1.148106374200643863E-17, 0.000000000000000000, 0.09375000000000001388 ) ) ;
#156 = FILL_AREA_STYLE_COLOUR ( '', #261 ) ;
#157 = STYLED_ITEM ( 'NONE', ( #213 ), #127 ) ;
#158 = SURFACE_STYLE_FILL_AREA ( #256 ) ;
#159 = CARTESIAN_POINT ( 'NONE',  ( 6.655738680452043190E-35, 1.375000000000000000, 0.000000000000000000 ) ) ;
#160 = FACE_OUTER_BOUND ( 'NONE', #32, .T. ) ;
#161 = PRESENTATION_LAYER_ASSIGNMENT (  '', '', ( #157 ) ) ;
#162 = FILL_AREA_STYLE_COLOUR ( '', #49 ) ;
#163 =( NAMED_UNIT ( * ) PLANE_ANGLE_UNIT ( ) SI_UNIT ( $, .RADIAN. ) );
#164 = EDGE_LOOP ( 'NONE', ( #110, #172, #208, #132 ) ) ;
#165 = EDGE_CURVE ( 'NONE', #151, #192, #229, .T. ) ;
#166 = PRODUCT_DEFINITION_SHAPE ( 'NONE', 'NONE',  #11 ) ;
#167 = DIRECTION ( 'NONE',  ( -3.768143997376474441E-17, 1.000000000000000000, -0.000000000000000000 ) ) ;
#168 =( CONVERSION_BASED_UNIT ( 'INCH', #44 ) LENGTH_UNIT ( ) NAMED_UNIT ( #231 ) );
#169 = EDGE_CURVE ( 'NONE', #151, #309, #182, .T. ) ;
#170 = FILL_AREA_STYLE_COLOUR ( '', #120 ) ;
#171 = ORIENTED_EDGE ( 'NONE', *, *, #200, .F. ) ;
#172 = ORIENTED_EDGE ( 'NONE', *, *, #165, .T. ) ;
#173 = CYLINDRICAL_SURFACE ( 'NONE', #295, 0.09375000000000001388 ) ;
#174 = ORIENTED_EDGE ( 'NONE', *, *, #200, .T. ) ;
#175 = SURFACE_STYLE_FILL_AREA ( #249 ) ;
#176 = LINE ( 'NONE', #223, #218 ) ;
#177 = PRODUCT ( '84687', '84687', '', ( #92 ) ) ;
#178 = MECHANICAL_DESIGN_GEOMETRIC_PRESENTATION_REPRESENTATION (  '', ( #157 ), #5 ) ;
#179 = CARTESIAN_POINT ( 'NONE',  ( 0.000000000000000000, 1.375000000000000000, 0.000000000000000000 ) ) ;
#180 = LENGTH_MEASURE_WITH_UNIT ( LENGTH_MEASURE( 0.02539999999999999897 ), #198 );
#181 =( NAMED_UNIT ( * ) SI_UNIT ( $, .STERADIAN. ) SOLID_ANGLE_UNIT ( ) );
#182 = CIRCLE ( 'NONE', #216, 0.09375000000000001388 ) ;
#183 = PRESENTATION_LAYER_ASSIGNMENT (  '', '', ( #91 ) ) ;
#184 = DIMENSIONAL_EXPONENTS ( 1.000000000000000000, 0.000000000000000000, 0.000000000000000000, 0.000000000000000000, 0.000000000000000000, 0.000000000000000000, 0.000000000000000000 ) ;
#185 = CARTESIAN_POINT ( 'NONE',  ( 0.000000000000000000, 0.000000000000000000, -0.09375000000000001388 ) ) ;
#186 = EDGE_LOOP ( 'NONE', ( #153, #270, #252, #10 ) ) ;
#187 = EDGE_CURVE ( 'NONE', #290, #292, #7, .T. ) ;
#188 = AXIS2_PLACEMENT_3D ( 'NONE', #248, #259, #121 ) ;
#189 = EDGE_CURVE ( 'NONE', #292, #80, #265, .T. ) ;
#190 = LENGTH_MEASURE_WITH_UNIT ( LENGTH_MEASURE( 0.02539999999999999897 ), #26 );
#191 =( NAMED_UNIT ( * ) SI_UNIT ( $, .STERADIAN. ) SOLID_ANGLE_UNIT ( ) );
#192 = VERTEX_POINT ( 'NONE', #67 ) ;
#193 = VECTOR ( 'NONE', #226, 39.37007874015748143 ) ;
#194 = VERTEX_POINT ( 'NONE', #185 ) ;
#195 = CARTESIAN_POINT ( 'NONE',  ( 0.000000000000000000, 0.000000000000000000, 0.000000000000000000 ) ) ;
#196 = AXIS2_PLACEMENT_3D ( 'NONE', #275, #88, #221 ) ;
#197 = PLANE ( 'NONE',  #109 ) ;
#198 =( LENGTH_UNIT ( ) NAMED_UNIT ( * ) SI_UNIT ( $, .METRE. ) );
#199 = LENGTH_MEASURE_WITH_UNIT ( LENGTH_MEASURE( 0.02539999999999999897 ), #263 );
#200 = EDGE_CURVE ( 'NONE', #80, #292, #274, .T. ) ;
#201 = DIMENSIONAL_EXPONENTS ( 1.000000000000000000, 0.000000000000000000, 0.000000000000000000, 0.000000000000000000, 0.000000000000000000, 0.000000000000000000, 0.000000000000000000 ) ;
#202 = PRESENTATION_LAYER_ASSIGNMENT (  '', '', ( #239 ) ) ;
#203 = DIRECTION ( 'NONE',  ( 3.768143997376474441E-17, -1.000000000000000000, 0.000000000000000000 ) ) ;
#204 = ADVANCED_FACE ( 'NONE', ( #95 ), #234, .F. ) ;
#205 = CARTESIAN_POINT ( 'NONE',  ( -6.123233995736772199E-17, 3.000000000000000444, 0.000000000000000000 ) ) ;
#206 = ORIENTED_EDGE ( 'NONE', *, *, #308, .T. ) ;
#207 = CIRCLE ( 'NONE', #307, 0.09375000000000001388 ) ;
#208 = ORIENTED_EDGE ( 'NONE', *, *, #36, .F. ) ;
#209 = CARTESIAN_POINT ( 'NONE',  ( 0.000000000000000000, 0.000000000000000000, 0.000000000000000000 ) ) ;
#210 = PRODUCT_DEFINITION_CONTEXT ( 'detailed design', #230, 'design' ) ;
#211 = CARTESIAN_POINT ( 'NONE',  ( -0.09375000000000011102, 3.000000000000000444, 0.000000000000000000 ) ) ;
#212 = COLOUR_RGB ( '',1.000000000000000000, 0.000000000000000000, 0.000000000000000000 ) ;
#213 = PRESENTATION_STYLE_ASSIGNMENT (( #289 ) ) ;
#214 = ORIENTED_EDGE ( 'NONE', *, *, #165, .F. ) ;
#215 =( NAMED_UNIT ( * ) PLANE_ANGLE_UNIT ( ) SI_UNIT ( $, .RADIAN. ) );
#216 = AXIS2_PLACEMENT_3D ( 'NONE', #55, #15, #113 ) ;
#217 = FACE_OUTER_BOUND ( 'NONE', #186, .T. ) ;
#218 = VECTOR ( 'NONE', #271, 39.37007874015748143 ) ;
#219 = ORIENTED_EDGE ( 'NONE', *, *, #48, .F. ) ;
#220 = DIRECTION ( 'NONE',  ( -0.000000000000000000, -1.000000000000000000, -0.000000000000000000 ) ) ;
#221 = DIRECTION ( 'NONE',  ( -1.000000000000000000, 0.000000000000000000, 0.000000000000000000 ) ) ;
#222 = ORIENTED_EDGE ( 'NONE', *, *, #296, .F. ) ;
#223 = CARTESIAN_POINT ( 'NONE',  ( 0.000000000000000000, 0.000000000000000000, -0.09375000000000001388 ) ) ;
#224 = EDGE_LOOP ( 'NONE', ( #222, #63 ) ) ;
#225 = SURFACE_STYLE_USAGE ( .BOTH. , #133 ) ;
#226 = DIRECTION ( 'NONE',  ( -0.000000000000000000, -1.000000000000000000, -0.000000000000000000 ) ) ;
#227 = MECHANICAL_DESIGN_GEOMETRIC_PRESENTATION_REPRESENTATION (  '', ( #123 ), #79 ) ;
#228 = AXIS2_PLACEMENT_3D ( 'NONE', #209, #1, #273 ) ;
#229 = LINE ( 'NONE', #155, #193 ) ;
#230 = APPLICATION_CONTEXT ( 'automotive_design' ) ;
#231 = DIMENSIONAL_EXPONENTS ( 1.000000000000000000, 0.000000000000000000, 0.000000000000000000, 0.000000000000000000, 0.000000000000000000, 0.000000000000000000, 0.000000000000000000 ) ;
#232 = ADVANCED_FACE ( 'NONE', ( #160 ), #117, .T. ) ;
#233 = APPLICATION_PROTOCOL_DEFINITION ( 'draft international standard', 'automotive_design', 1998, #241 ) ;
#234 = PLANE ( 'NONE',  #298 ) ;
#235 = CYLINDRICAL_SURFACE ( 'NONE', #143, 0.09375000000000004163 ) ;
#236 = UNCERTAINTY_MEASURE_WITH_UNIT (LENGTH_MEASURE( 1.000000000000000082E-05 ), #76, 'distance_accuracy_value', 'NONE');
#237 = DIRECTION ( 'NONE',  ( -1.000000000000000000, 0.000000000000000000, 0.000000000000000000 ) ) ;
#238 = DIRECTION ( 'NONE',  ( 1.000000000000000000, 0.000000000000000000, 0.000000000000000000 ) ) ;
#239 = STYLED_ITEM ( 'NONE', ( #304 ), #16 ) ;
#240 = CARTESIAN_POINT ( 'NONE',  ( -0.09375000000000001388, 1.375000000000000000, 0.000000000000000000 ) ) ;
#241 = APPLICATION_CONTEXT ( 'automotive_design' ) ;
#242 = DIRECTION ( 'NONE',  ( -1.000000000000000000, 0.000000000000000000, 0.000000000000000000 ) ) ;
#243 = SURFACE_STYLE_FILL_AREA ( #3 ) ;
#244 = CIRCLE ( 'NONE', #46, 0.09375000000000001388 ) ;
#245 = SURFACE_SIDE_STYLE ('',( #114 ) ) ;
#246 = UNCERTAINTY_MEASURE_WITH_UNIT (LENGTH_MEASURE( 1.000000000000000082E-05 ), #8, 'distance_accuracy_value', 'NONE');
#247 = SURFACE_STYLE_FILL_AREA ( #87 ) ;
#248 = CARTESIAN_POINT ( 'NONE',  ( -6.123233995736772199E-17, 3.000000000000000444, 0.000000000000000000 ) ) ;
#249 = FILL_AREA_STYLE ('',( #54 ) ) ;
#250 = CLOSED_SHELL ( 'NONE', ( #302, #78, #257, #232 ) ) ;
#251 = FILL_AREA_STYLE_COLOUR ( '', #111 ) ;
#252 = ORIENTED_EDGE ( 'NONE', *, *, #99, .T. ) ;
#253 = CARTESIAN_POINT ( 'NONE',  ( 0.09375000000000001388, 1.375000000000000000, 1.148106374200644325E-17 ) ) ;
#254 = CARTESIAN_POINT ( 'NONE',  ( 0.000000000000000000, 0.000000000000000000, 0.000000000000000000 ) ) ;
#255 = VECTOR ( 'NONE', #167, 39.37007874015748143 ) ;
#256 = FILL_AREA_STYLE ('',( #156 ) ) ;
#257 = ADVANCED_FACE ( 'NONE', ( #131 ), #9, .T. ) ;
#258 = DIMENSIONAL_EXPONENTS ( 1.000000000000000000, 0.000000000000000000, 0.000000000000000000, 0.000000000000000000, 0.000000000000000000, 0.000000000000000000, 0.000000000000000000 ) ;
#259 = DIRECTION ( 'NONE',  ( -3.768143997376474441E-17, 1.000000000000000000, -0.000000000000000000 ) ) ;
#260 = UNCERTAINTY_MEASURE_WITH_UNIT (LENGTH_MEASURE( 1.000000000000000082E-05 ), #286, 'distance_accuracy_value', 'NONE');
#261 = COLOUR_RGB ( '',0.7921568627450980005, 0.8196078431372548767, 0.9333333333333333481 ) ;
#262 = PRESENTATION_LAYER_ASSIGNMENT (  '', '', ( #69 ) ) ;
#263 =( LENGTH_UNIT ( ) NAMED_UNIT ( * ) SI_UNIT ( $, .METRE. ) );
#264 = EDGE_LOOP ( 'NONE', ( #219, #272 ) ) ;
#265 = CIRCLE ( 'NONE', #188, 0.09375000000000006939 ) ;
#266 = EDGE_CURVE ( 'NONE', #309, #194, #176, .T. ) ;
#267 =( GEOMETRIC_REPRESENTATION_CONTEXT ( 3 ) GLOBAL_UNCERTAINTY_ASSIGNED_CONTEXT ( ( #139 ) ) GLOBAL_UNIT_ASSIGNED_CONTEXT ( ( #60, #12, #135 ) ) REPRESENTATION_CONTEXT ( 'NONE', 'WORKASPACE' ) );
#268 = LENGTH_MEASURE_WITH_UNIT ( LENGTH_MEASURE( 0.02539999999999999897 ), #86 );
#269 = CARTESIAN_POINT ( 'NONE',  ( 0.000000000000000000, 0.000000000000000000, 0.000000000000000000 ) ) ;
#270 = ORIENTED_EDGE ( 'NONE', *, *, #112, .T. ) ;
#271 = DIRECTION ( 'NONE',  ( -0.000000000000000000, -1.000000000000000000, -0.000000000000000000 ) ) ;
#272 = ORIENTED_EDGE ( 'NONE', *, *, #112, .F. ) ;
#273 = DIRECTION ( 'NONE',  ( 0.000000000000000000, 0.000000000000000000, -1.000000000000000000 ) ) ;
#274 = CIRCLE ( 'NONE', #129, 0.09375000000000006939 ) ;
#275 = CARTESIAN_POINT ( 'NONE',  ( -6.123233995736772199E-17, 3.000000000000000444, 0.000000000000000000 ) ) ;
#276 =( LENGTH_UNIT ( ) NAMED_UNIT ( * ) SI_UNIT ( $, .METRE. ) );
#277 = AXIS2_PLACEMENT_3D ( 'NONE', #27, #47, #242 ) ;
#278 = COLOUR_RGB ( '',1.000000000000000000, 0.000000000000000000, 0.000000000000000000 ) ;
#279 = SURFACE_STYLE_USAGE ( .BOTH. , #72 ) ;
#280 = PRODUCT_DEFINITION_FORMATION_WITH_SPECIFIED_SOURCE ( 'ANY', '', #177, .NOT_KNOWN. ) ;
#281 = FILL_AREA_STYLE ('',( #162 ) ) ;
#282 = DIRECTION ( 'NONE',  ( -3.768143997376474441E-17, 1.000000000000000000, -0.000000000000000000 ) ) ;
#283 = ORIENTED_EDGE ( 'NONE', *, *, #36, .T. ) ;
#284 =( LENGTH_UNIT ( ) NAMED_UNIT ( * ) SI_UNIT ( $, .METRE. ) );
#285 = AXIS2_PLACEMENT_3D ( 'NONE', #37, #64, #238 ) ;
#286 =( CONVERSION_BASED_UNIT ( 'INCH', #190 ) LENGTH_UNIT ( ) NAMED_UNIT ( #201 ) );
#287 = EDGE_LOOP ( 'NONE', ( #174, #28 ) ) ;
#288 = EDGE_LOOP ( 'NONE', ( #214, #53, #148, #106 ) ) ;
#289 = SURFACE_STYLE_USAGE ( .BOTH. , #102 ) ;
#290 = VERTEX_POINT ( 'NONE', #253 ) ;
#291 = CARTESIAN_POINT ( 'NONE',  ( 0.09375000000000001388, 3.000000000000000444, 1.148106374200644325E-17 ) ) ;
#292 = VERTEX_POINT ( 'NONE', #291 ) ;
#293 = DIRECTION ( 'NONE',  ( 0.000000000000000000, 0.000000000000000000, -1.000000000000000000 ) ) ;
#294 = AXIS2_PLACEMENT_3D ( 'NONE', #73, #140, #237 ) ;
#295 = AXIS2_PLACEMENT_3D ( 'NONE', #269, #52, #147 ) ;
#296 = EDGE_CURVE ( 'NONE', #309, #151, #244, .T. ) ;
#297 = CARTESIAN_POINT ( 'NONE',  ( -6.123233995736772199E-17, 3.000000000000000444, 0.000000000000000000 ) ) ;
#298 = AXIS2_PLACEMENT_3D ( 'NONE', #159, #34, #301 ) ;
#299 =( GEOMETRIC_REPRESENTATION_CONTEXT ( 3 ) GLOBAL_UNCERTAINTY_ASSIGNED_CONTEXT ( ( #4 ) ) GLOBAL_UNIT_ASSIGNED_CONTEXT ( ( #68, #163, #71 ) ) REPRESENTATION_CONTEXT ( 'NONE', 'WORKASPACE' ) );
#300 = DIMENSIONAL_EXPONENTS ( 1.000000000000000000, 0.000000000000000000, 0.000000000000000000, 0.000000000000000000, 0.000000000000000000, 0.000000000000000000, 0.000000000000000000 ) ;
#301 = DIRECTION ( 'NONE',  ( -1.000000000000000000, -3.768143997376474441E-17, 0.000000000000000000 ) ) ;
#302 = ADVANCED_FACE ( 'NONE', ( #108 ), #173, .T. ) ;
#303 = CARTESIAN_POINT ( 'NONE',  ( 0.000000000000000000, 1.375000000000000000, -0.09375000000000001388 ) ) ;
#304 = PRESENTATION_STYLE_ASSIGNMENT (( #279 ) ) ;
#305 = APPLICATION_PROTOCOL_DEFINITION ( 'draft international standard', 'automotive_design', 1998, #230 ) ;
#306 = PRESENTATION_STYLE_ASSIGNMENT (( #23 ) ) ;
#307 = AXIS2_PLACEMENT_3D ( 'NONE', #152, #35, #41 ) ;
#308 = EDGE_CURVE ( 'NONE', #192, #194, #207, .T. ) ;
#309 = VERTEX_POINT ( 'NONE', #303 ) ;
ENDSEC;
END-ISO-10303-21;
