ISO-10303-21;
HEADER;
FILE_DESCRIPTION (( 'STEP AP214' ),
    '1' );
FILE_NAME ('30587W.STEP',
    '2023-06-22T18:46:25',
    ( '' ),
    ( '' ),
    'SwSTEP 2.0',
    'SolidWorks 2023',
    '' );
FILE_SCHEMA (( 'AUTOMOTIVE_DESIGN' ));
ENDSEC;

DATA;
#1 = DIRECTION ( 'NONE',  ( -3.265724797726272713E-17, 1.000000000000000000, 0.000000000000000000 ) ) ;
#2 =( NAMED_UNIT ( * ) SI_UNIT ( $, .STERADIAN. ) SOLID_ANGLE_UNIT ( ) );
#3 = LENGTH_MEASURE_WITH_UNIT ( LENGTH_MEASURE( 0.02539999999999999897 ), #165 );
#4 = PRESENTATION_STYLE_ASSIGNMENT (( #102 ) ) ;
#5 = EDGE_CURVE ( 'NONE', #120, #78, #237, .T. ) ;
#6 = MECHANICAL_DESIGN_GEOMETRIC_PRESENTATION_REPRESENTATION (  '', ( #206 ), #284 ) ;
#7 = EDGE_LOOP ( 'NONE', ( #193, #212, #252, #181 ) ) ;
#8 = EDGE_CURVE ( 'NONE', #220, #14, #43, .T. ) ;
#9 = DIRECTION ( 'NONE',  ( 0.000000000000000000, 0.000000000000000000, -1.000000000000000000 ) ) ;
#10 = DIRECTION ( 'NONE',  ( -1.000000000000000000, 0.000000000000000000, 0.000000000000000000 ) ) ;
#11 = CIRCLE ( 'NONE', #304, 0.3125000000000000555 ) ;
#12 = LINE ( 'NONE', #273, #176 ) ;
#13 = CARTESIAN_POINT ( 'NONE',  ( 3.827021247335478926E-17, 0.000000000000000000, 0.3125000000000000000 ) ) ;
#14 = VERTEX_POINT ( 'NONE', #288 ) ;
#15 = EDGE_CURVE ( 'NONE', #131, #189, #299, .T. ) ;
#16 = CARTESIAN_POINT ( 'NONE',  ( -0.3125000000000001665, 3.500000000000000000, 0.000000000000000000 ) ) ;
#17 = STYLED_ITEM ( 'NONE', ( #27 ), #58 ) ;
#18 = CIRCLE ( 'NONE', #92, 0.3125000000000000000 ) ;
#19 = PRODUCT_DEFINITION_FORMATION_WITH_SPECIFIED_SOURCE ( 'ANY', '', #285, .NOT_KNOWN. ) ;
#20 = FILL_AREA_STYLE ('',( #183 ) ) ;
#21 = EDGE_CURVE ( 'NONE', #108, #90, #147, .T. ) ;
#22 =( GEOMETRIC_REPRESENTATION_CONTEXT ( 3 ) GLOBAL_UNCERTAINTY_ASSIGNED_CONTEXT ( ( #186 ) ) GLOBAL_UNIT_ASSIGNED_CONTEXT ( ( #218, #52, #244 ) ) REPRESENTATION_CONTEXT ( 'NONE', 'WORKASPACE' ) );
#23 = EDGE_LOOP ( 'NONE', ( #170, #253, #40, #195 ) ) ;
#24 = FILL_AREA_STYLE ('',( #256 ) ) ;
#25 = PLANE ( 'NONE',  #38 ) ;
#26 = CARTESIAN_POINT ( 'NONE',  ( 0.000000000000000000, 0.000000000000000000, 0.000000000000000000 ) ) ;
#27 = PRESENTATION_STYLE_ASSIGNMENT (( #258 ) ) ;
#28 = AXIS2_PLACEMENT_3D ( 'NONE', #87, #188, #276 ) ;
#29 =( CONVERSION_BASED_UNIT ( 'INCH', #104 ) LENGTH_UNIT ( ) NAMED_UNIT ( #73 ) );
#30 = FILL_AREA_STYLE ('',( #97 ) ) ;
#31 = APPLICATION_PROTOCOL_DEFINITION ( 'draft international standard', 'automotive_design', 1998, #242 ) ;
#32 = AXIS2_PLACEMENT_3D ( 'NONE', #162, #150, #286 ) ;
#33 =( NAMED_UNIT ( * ) PLANE_ANGLE_UNIT ( ) SI_UNIT ( $, .RADIAN. ) );
#34 = SURFACE_STYLE_FILL_AREA ( #30 ) ;
#35 = DIRECTION ( 'NONE',  ( 0.000000000000000000, 0.000000000000000000, 1.000000000000000000 ) ) ;
#36 = CARTESIAN_POINT ( 'NONE',  ( 0.000000000000000000, 0.000000000000000000, 0.000000000000000000 ) ) ;
#37 =( LENGTH_UNIT ( ) NAMED_UNIT ( * ) SI_UNIT ( $, .METRE. ) );
#38 = AXIS2_PLACEMENT_3D ( 'NONE', #308, #262, #283 ) ;
#39 = DIRECTION ( 'NONE',  ( -3.265724797726272713E-17, 1.000000000000000000, -0.000000000000000000 ) ) ;
#40 = ORIENTED_EDGE ( 'NONE', *, *, #89, .T. ) ;
#41 = UNCERTAINTY_MEASURE_WITH_UNIT (LENGTH_MEASURE( 1.000000000000000082E-05 ), #125, 'distance_accuracy_value', 'NONE');
#42 = FACE_OUTER_BOUND ( 'NONE', #184, .T. ) ;
#43 = CIRCLE ( 'NONE', #32, 0.3125000000000000000 ) ;
#44 = ORIENTED_EDGE ( 'NONE', *, *, #134, .T. ) ;
#45 = CARTESIAN_POINT ( 'NONE',  ( 0.000000000000000000, 1.625000000000000000, 0.000000000000000000 ) ) ;
#46 = AXIS2_PLACEMENT_3D ( 'NONE', #65, #84, #248 ) ;
#47 = STYLED_ITEM ( 'NONE', ( #269 ), #245 ) ;
#48 = DIMENSIONAL_EXPONENTS ( 1.000000000000000000, 0.000000000000000000, 0.000000000000000000, 0.000000000000000000, 0.000000000000000000, 0.000000000000000000, 0.000000000000000000 ) ;
#49 = SURFACE_STYLE_FILL_AREA ( #198 ) ;
#50 =( CONVERSION_BASED_UNIT ( 'INCH', #197 ) LENGTH_UNIT ( ) NAMED_UNIT ( #103 ) );
#51 =( LENGTH_UNIT ( ) NAMED_UNIT ( * ) SI_UNIT ( $, .METRE. ) );
#52 =( NAMED_UNIT ( * ) PLANE_ANGLE_UNIT ( ) SI_UNIT ( $, .RADIAN. ) );
#53 = DIMENSIONAL_EXPONENTS ( 1.000000000000000000, 0.000000000000000000, 0.000000000000000000, 0.000000000000000000, 0.000000000000000000, 0.000000000000000000, 0.000000000000000000 ) ;
#54 =( GEOMETRIC_REPRESENTATION_CONTEXT ( 3 ) GLOBAL_UNCERTAINTY_ASSIGNED_CONTEXT ( ( #41 ) ) GLOBAL_UNIT_ASSIGNED_CONTEXT ( ( #125, #251, #167 ) ) REPRESENTATION_CONTEXT ( 'NONE', 'WORKASPACE' ) );
#55 = AXIS2_PLACEMENT_3D ( 'NONE', #122, #1, #98 ) ;
#56 = PRESENTATION_STYLE_ASSIGNMENT (( #297 ) ) ;
#57 = CARTESIAN_POINT ( 'NONE',  ( -0.3125000000000000000, 1.625000000000000000, 0.000000000000000000 ) ) ;
#58 = ADVANCED_FACE ( 'NONE', ( #239 ), #148, .T. ) ;
#59 = UNCERTAINTY_MEASURE_WITH_UNIT (LENGTH_MEASURE( 1.000000000000000082E-05 ), #204, 'distance_accuracy_value', 'NONE');
#60 = CARTESIAN_POINT ( 'NONE',  ( 0.3125000000000000000, 1.625000000000000000, 3.827021247335478926E-17 ) ) ;
#61 = AXIS2_PLACEMENT_3D ( 'NONE', #161, #247, #221 ) ;
#62 = DIRECTION ( 'NONE',  ( -1.000000000000000000, 0.000000000000000000, 0.000000000000000000 ) ) ;
#63 = MANIFOLD_SOLID_BREP ( 'Revolve - Cutting Edge', #227 ) ;
#64 = ADVANCED_FACE ( 'NONE', ( #105 ), #263, .T. ) ;
#65 = CARTESIAN_POINT ( 'NONE',  ( 7.582401355855259480E-33, 1.625000000000000000, 0.000000000000000000 ) ) ;
#66 = ADVANCED_FACE ( 'NONE', ( #185 ), #223, .T. ) ;
#67 = PRESENTATION_LAYER_ASSIGNMENT (  '', '', ( #206 ) ) ;
#68 = ORIENTED_EDGE ( 'NONE', *, *, #5, .T. ) ;
#69 = EDGE_LOOP ( 'NONE', ( #158, #118 ) ) ;
#70 = PRESENTATION_LAYER_ASSIGNMENT (  '', '', ( #126 ) ) ;
#71 = DIRECTION ( 'NONE',  ( -0.000000000000000000, -1.000000000000000000, -0.000000000000000000 ) ) ;
#72 = EDGE_CURVE ( 'NONE', #90, #108, #11, .T. ) ;
#73 = DIMENSIONAL_EXPONENTS ( 1.000000000000000000, 0.000000000000000000, 0.000000000000000000, 0.000000000000000000, 0.000000000000000000, 0.000000000000000000, 0.000000000000000000 ) ;
#74 = SURFACE_SIDE_STYLE ('',( #79 ) ) ;
#75 = MECHANICAL_DESIGN_GEOMETRIC_PRESENTATION_REPRESENTATION (  '', ( #91 ), #22 ) ;
#76 = FILL_AREA_STYLE_COLOUR ( '', #279 ) ;
#77 = DIRECTION ( 'NONE',  ( -3.265724797726272713E-17, 1.000000000000000000, -0.000000000000000000 ) ) ;
#78 = VERTEX_POINT ( 'NONE', #60 ) ;
#79 = SURFACE_STYLE_FILL_AREA ( #268 ) ;
#80 = AXIS2_PLACEMENT_3D ( 'NONE', #290, #179, #264 ) ;
#81 = CARTESIAN_POINT ( 'NONE',  ( -6.123233995736759873E-17, 3.500000000000000000, 0.000000000000000000 ) ) ;
#82 = ADVANCED_BREP_SHAPE_REPRESENTATION ( '30587W', ( #63, #164, #192 ), #86 ) ;
#83 =( NAMED_UNIT ( * ) SI_UNIT ( $, .STERADIAN. ) SOLID_ANGLE_UNIT ( ) );
#84 = DIRECTION ( 'NONE',  ( -3.265724797726272713E-17, 1.000000000000000000, -0.000000000000000000 ) ) ;
#85 = CLOSED_SHELL ( 'NONE', ( #178, #294, #66, #291 ) ) ;
#86 =( GEOMETRIC_REPRESENTATION_CONTEXT ( 3 ) GLOBAL_UNCERTAINTY_ASSIGNED_CONTEXT ( ( #113 ) ) GLOBAL_UNIT_ASSIGNED_CONTEXT ( ( #50, #155, #94 ) ) REPRESENTATION_CONTEXT ( 'NONE', 'WORKASPACE' ) );
#87 = CARTESIAN_POINT ( 'NONE',  ( 7.582401355855259480E-33, 1.625000000000000000, 0.000000000000000000 ) ) ;
#88 = SURFACE_SIDE_STYLE ('',( #250 ) ) ;
#89 = EDGE_CURVE ( 'NONE', #189, #220, #12, .T. ) ;
#90 = VERTEX_POINT ( 'NONE', #295 ) ;
#91 = STYLED_ITEM ( 'NONE', ( #287 ), #63 ) ;
#92 = AXIS2_PLACEMENT_3D ( 'NONE', #36, #133, #9 ) ;
#93 = ORIENTED_EDGE ( 'NONE', *, *, #72, .F. ) ;
#94 =( NAMED_UNIT ( * ) SI_UNIT ( $, .STERADIAN. ) SOLID_ANGLE_UNIT ( ) );
#95 = ORIENTED_EDGE ( 'NONE', *, *, #224, .F. ) ;
#96 = FACE_OUTER_BOUND ( 'NONE', #255, .T. ) ;
#97 = FILL_AREA_STYLE_COLOUR ( '', #144 ) ;
#98 = DIRECTION ( 'NONE',  ( -1.000000000000000000, -3.265724797726272713E-17, 0.000000000000000000 ) ) ;
#99 = MECHANICAL_DESIGN_GEOMETRIC_PRESENTATION_REPRESENTATION (  '', ( #47 ), #171 ) ;
#100 = LINE ( 'NONE', #149, #128 ) ;
#101 =( LENGTH_UNIT ( ) NAMED_UNIT ( * ) SI_UNIT ( $, .METRE. ) );
#102 = SURFACE_STYLE_USAGE ( .BOTH. , #241 ) ;
#103 = DIMENSIONAL_EXPONENTS ( 1.000000000000000000, 0.000000000000000000, 0.000000000000000000, 0.000000000000000000, 0.000000000000000000, 0.000000000000000000, 0.000000000000000000 ) ;
#104 = LENGTH_MEASURE_WITH_UNIT ( LENGTH_MEASURE( 0.02539999999999999897 ), #174 );
#105 = FACE_OUTER_BOUND ( 'NONE', #23, .T. ) ;
#106 = CARTESIAN_POINT ( 'NONE',  ( 0.000000000000000000, 1.625000000000000000, 0.000000000000000000 ) ) ;
#107 = PRESENTATION_LAYER_ASSIGNMENT (  '', '', ( #47 ) ) ;
#108 = VERTEX_POINT ( 'NONE', #16 ) ;
#109 = CARTESIAN_POINT ( 'NONE',  ( 0.3124999999999999445, 3.500000000000000000, 3.827021247335478926E-17 ) ) ;
#110 = COLOUR_RGB ( '',1.000000000000000000, 0.000000000000000000, 0.000000000000000000 ) ;
#111 = LINE ( 'NONE', #109, #127 ) ;
#112 = CYLINDRICAL_SURFACE ( 'NONE', #61, 0.3125000000000000000 ) ;
#113 = UNCERTAINTY_MEASURE_WITH_UNIT (LENGTH_MEASURE( 1.000000000000000082E-05 ), #50, 'distance_accuracy_value', 'NONE');
#114 = CARTESIAN_POINT ( 'NONE',  ( 0.000000000000000000, 0.000000000000000000, 0.000000000000000000 ) ) ;
#115 = COLOUR_RGB ( '',0.7921568627450980005, 0.8196078431372548767, 0.9333333333333333481 ) ;
#116 = ORIENTED_EDGE ( 'NONE', *, *, #134, .F. ) ;
#117 = UNCERTAINTY_MEASURE_WITH_UNIT (LENGTH_MEASURE( 1.000000000000000082E-05 ), #137, 'distance_accuracy_value', 'NONE');
#118 = ORIENTED_EDGE ( 'NONE', *, *, #166, .T. ) ;
#119 = AXIS2_PLACEMENT_3D ( 'NONE', #81, #39, #10 ) ;
#120 = VERTEX_POINT ( 'NONE', #57 ) ;
#121 = EDGE_CURVE ( 'NONE', #78, #120, #289, .T. ) ;
#122 = CARTESIAN_POINT ( 'NONE',  ( 1.666399758513172697E-34, 1.625000000000000000, 0.000000000000000000 ) ) ;
#123 = DIRECTION ( 'NONE',  ( -0.000000000000000000, -1.000000000000000000, -0.000000000000000000 ) ) ;
#124 = APPLICATION_PROTOCOL_DEFINITION ( 'draft international standard', 'automotive_design', 1998, #211 ) ;
#125 =( CONVERSION_BASED_UNIT ( 'INCH', #303 ) LENGTH_UNIT ( ) NAMED_UNIT ( #307 ) );
#126 = STYLED_ITEM ( 'NONE', ( #205 ), #229 ) ;
#127 = VECTOR ( 'NONE', #163, 39.37007874015748143 ) ;
#128 = VECTOR ( 'NONE', #77, 39.37007874015748143 ) ;
#129 = DIMENSIONAL_EXPONENTS ( 1.000000000000000000, 0.000000000000000000, 0.000000000000000000, 0.000000000000000000, 0.000000000000000000, 0.000000000000000000, 0.000000000000000000 ) ;
#130 =( LENGTH_UNIT ( ) NAMED_UNIT ( * ) SI_UNIT ( $, .METRE. ) );
#131 = VERTEX_POINT ( 'NONE', #159 ) ;
#132 = SHAPE_DEFINITION_REPRESENTATION ( #199, #82 ) ;
#133 = DIRECTION ( 'NONE',  ( -0.000000000000000000, -1.000000000000000000, -0.000000000000000000 ) ) ;
#134 = EDGE_CURVE ( 'NONE', #78, #90, #111, .T. ) ;
#135 = MECHANICAL_DESIGN_GEOMETRIC_PRESENTATION_REPRESENTATION (  '', ( #265 ), #271 ) ;
#136 = VECTOR ( 'NONE', #208, 39.37007874015748143 ) ;
#137 =( CONVERSION_BASED_UNIT ( 'INCH', #301 ) LENGTH_UNIT ( ) NAMED_UNIT ( #48 ) );
#138 =( NAMED_UNIT ( * ) SI_UNIT ( $, .STERADIAN. ) SOLID_ANGLE_UNIT ( ) );
#139 = CARTESIAN_POINT ( 'NONE',  ( 0.000000000000000000, 1.625000000000000000, -0.3125000000000000000 ) ) ;
#140 = EDGE_LOOP ( 'NONE', ( #214, #142 ) ) ;
#141 = DIRECTION ( 'NONE',  ( -0.000000000000000000, -1.000000000000000000, -0.000000000000000000 ) ) ;
#142 = ORIENTED_EDGE ( 'NONE', *, *, #15, .F. ) ;
#143 = PRODUCT_DEFINITION ( 'UNKNOWN', '', #19, #261 ) ;
#144 = COLOUR_RGB ( '',1.000000000000000000, 0.000000000000000000, 0.000000000000000000 ) ;
#145 = FACE_OUTER_BOUND ( 'NONE', #140, .T. ) ;
#146 =( CONVERSION_BASED_UNIT ( 'INCH', #3 ) LENGTH_UNIT ( ) NAMED_UNIT ( #129 ) );
#147 = CIRCLE ( 'NONE', #80, 0.3125000000000000555 ) ;
#148 = CYLINDRICAL_SURFACE ( 'NONE', #154, 0.3125000000000000000 ) ;
#149 = CARTESIAN_POINT ( 'NONE',  ( -0.3125000000000000555, 3.500000000000000000, 0.000000000000000000 ) ) ;
#150 = DIRECTION ( 'NONE',  ( -0.000000000000000000, -1.000000000000000000, -0.000000000000000000 ) ) ;
#151 = FACE_OUTER_BOUND ( 'NONE', #213, .T. ) ;
#152 = SURFACE_STYLE_FILL_AREA ( #20 ) ;
#153 = LENGTH_MEASURE_WITH_UNIT ( LENGTH_MEASURE( 0.02539999999999999897 ), #51 );
#154 = AXIS2_PLACEMENT_3D ( 'NONE', #26, #123, #215 ) ;
#155 =( NAMED_UNIT ( * ) PLANE_ANGLE_UNIT ( ) SI_UNIT ( $, .RADIAN. ) );
#156 = EDGE_LOOP ( 'NONE', ( #116, #219, #270, #93 ) ) ;
#157 = SURFACE_STYLE_USAGE ( .BOTH. , #74 ) ;
#158 = ORIENTED_EDGE ( 'NONE', *, *, #8, .T. ) ;
#159 = CARTESIAN_POINT ( 'NONE',  ( 3.827021247335478926E-17, 1.625000000000000000, 0.3125000000000000000 ) ) ;
#160 = AXIS2_PLACEMENT_3D ( 'NONE', #169, #232, #254 ) ;
#161 = CARTESIAN_POINT ( 'NONE',  ( -6.123233995736759873E-17, 3.500000000000000000, 0.000000000000000000 ) ) ;
#162 = CARTESIAN_POINT ( 'NONE',  ( 0.000000000000000000, 0.000000000000000000, 0.000000000000000000 ) ) ;
#163 = DIRECTION ( 'NONE',  ( -3.265724797726272713E-17, 1.000000000000000000, -0.000000000000000000 ) ) ;
#164 = MANIFOLD_SOLID_BREP ( 'Revolve - Tool Body (Straight Shanked)', #85 ) ;
#165 =( LENGTH_UNIT ( ) NAMED_UNIT ( * ) SI_UNIT ( $, .METRE. ) );
#166 = EDGE_CURVE ( 'NONE', #14, #220, #18, .T. ) ;
#167 =( NAMED_UNIT ( * ) SI_UNIT ( $, .STERADIAN. ) SOLID_ANGLE_UNIT ( ) );
#168 = ORIENTED_EDGE ( 'NONE', *, *, #5, .F. ) ;
#169 = CARTESIAN_POINT ( 'NONE',  ( 0.000000000000000000, 1.625000000000000000, 0.000000000000000000 ) ) ;
#170 = ORIENTED_EDGE ( 'NONE', *, *, #191, .F. ) ;
#171 =( GEOMETRIC_REPRESENTATION_CONTEXT ( 3 ) GLOBAL_UNCERTAINTY_ASSIGNED_CONTEXT ( ( #249 ) ) GLOBAL_UNIT_ASSIGNED_CONTEXT ( ( #146, #175, #259 ) ) REPRESENTATION_CONTEXT ( 'NONE', 'WORKASPACE' ) );
#172 = DIRECTION ( 'NONE',  ( 0.000000000000000000, -1.000000000000000000, -0.000000000000000000 ) ) ;
#173 = DIRECTION ( 'NONE',  ( 0.000000000000000000, 0.000000000000000000, -1.000000000000000000 ) ) ;
#174 =( LENGTH_UNIT ( ) NAMED_UNIT ( * ) SI_UNIT ( $, .METRE. ) );
#175 =( NAMED_UNIT ( * ) PLANE_ANGLE_UNIT ( ) SI_UNIT ( $, .RADIAN. ) );
#176 = VECTOR ( 'NONE', #141, 39.37007874015748143 ) ;
#177 = COLOUR_RGB ( '',1.000000000000000000, 0.000000000000000000, 0.000000000000000000 ) ;
#178 = ADVANCED_FACE ( 'NONE', ( #42 ), #112, .T. ) ;
#179 = DIRECTION ( 'NONE',  ( -3.265724797726272713E-17, 1.000000000000000000, -0.000000000000000000 ) ) ;
#180 = PRODUCT_CONTEXT ( 'NONE', #211, 'mechanical' ) ;
#181 = ORIENTED_EDGE ( 'NONE', *, *, #89, .F. ) ;
#182 = DIRECTION ( 'NONE',  ( -0.000000000000000000, -1.000000000000000000, -0.000000000000000000 ) ) ;
#183 = FILL_AREA_STYLE_COLOUR ( '', #300 ) ;
#184 = EDGE_LOOP ( 'NONE', ( #68, #44, #230, #95 ) ) ;
#185 = FACE_OUTER_BOUND ( 'NONE', #156, .T. ) ;
#186 = UNCERTAINTY_MEASURE_WITH_UNIT (LENGTH_MEASURE( 1.000000000000000082E-05 ), #218, 'distance_accuracy_value', 'NONE');
#187 = FILL_AREA_STYLE ('',( #293 ) ) ;
#188 = DIRECTION ( 'NONE',  ( -3.265724797726272713E-17, 1.000000000000000000, -0.000000000000000000 ) ) ;
#189 = VERTEX_POINT ( 'NONE', #139 ) ;
#190 = FACE_OUTER_BOUND ( 'NONE', #69, .T. ) ;
#191 = EDGE_CURVE ( 'NONE', #131, #14, #225, .T. ) ;
#192 = AXIS2_PLACEMENT_3D ( 'NONE', #292, #35, #240 ) ;
#193 = ORIENTED_EDGE ( 'NONE', *, *, #234, .T. ) ;
#194 = DIRECTION ( 'NONE',  ( 0.000000000000000000, 0.000000000000000000, -1.000000000000000000 ) ) ;
#195 = ORIENTED_EDGE ( 'NONE', *, *, #166, .F. ) ;
#196 = SURFACE_SIDE_STYLE ('',( #306 ) ) ;
#197 = LENGTH_MEASURE_WITH_UNIT ( LENGTH_MEASURE( 0.02539999999999999897 ), #101 );
#198 = FILL_AREA_STYLE ('',( #216 ) ) ;
#199 = PRODUCT_DEFINITION_SHAPE ( 'NONE', 'NONE',  #143 ) ;
#200 =( NAMED_UNIT ( * ) PLANE_ANGLE_UNIT ( ) SI_UNIT ( $, .RADIAN. ) );
#201 = AXIS2_PLACEMENT_3D ( 'NONE', #114, #182, #207 ) ;
#202 = CIRCLE ( 'NONE', #233, 0.3125000000000000000 ) ;
#203 = LENGTH_MEASURE_WITH_UNIT ( LENGTH_MEASURE( 0.02539999999999999897 ), #266 );
#204 =( CONVERSION_BASED_UNIT ( 'INCH', #153 ) LENGTH_UNIT ( ) NAMED_UNIT ( #53 ) );
#205 = PRESENTATION_STYLE_ASSIGNMENT (( #235 ) ) ;
#206 = STYLED_ITEM ( 'NONE', ( #56 ), #164 ) ;
#207 = DIRECTION ( 'NONE',  ( 0.000000000000000000, 0.000000000000000000, -1.000000000000000000 ) ) ;
#208 = DIRECTION ( 'NONE',  ( -0.000000000000000000, -1.000000000000000000, -0.000000000000000000 ) ) ;
#209 = CARTESIAN_POINT ( 'NONE',  ( 0.000000000000000000, 0.000000000000000000, -0.3125000000000000000 ) ) ;
#210 = ORIENTED_EDGE ( 'NONE', *, *, #121, .F. ) ;
#211 = APPLICATION_CONTEXT ( 'automotive_design' ) ;
#212 = ORIENTED_EDGE ( 'NONE', *, *, #191, .T. ) ;
#213 = EDGE_LOOP ( 'NONE', ( #168, #210 ) ) ;
#214 = ORIENTED_EDGE ( 'NONE', *, *, #234, .F. ) ;
#215 = DIRECTION ( 'NONE',  ( 0.000000000000000000, 0.000000000000000000, -1.000000000000000000 ) ) ;
#216 = FILL_AREA_STYLE_COLOUR ( '', #110 ) ;
#217 = PRESENTATION_LAYER_ASSIGNMENT (  '', '', ( #17 ) ) ;
#218 =( CONVERSION_BASED_UNIT ( 'INCH', #203 ) LENGTH_UNIT ( ) NAMED_UNIT ( #236 ) );
#219 = ORIENTED_EDGE ( 'NONE', *, *, #121, .T. ) ;
#220 = VERTEX_POINT ( 'NONE', #209 ) ;
#221 = DIRECTION ( 'NONE',  ( -1.000000000000000000, 0.000000000000000000, 0.000000000000000000 ) ) ;
#222 = MECHANICAL_DESIGN_GEOMETRIC_PRESENTATION_REPRESENTATION (  '', ( #17 ), #54 ) ;
#223 = CYLINDRICAL_SURFACE ( 'NONE', #119, 0.3125000000000000000 ) ;
#224 = EDGE_CURVE ( 'NONE', #120, #108, #100, .T. ) ;
#225 = LINE ( 'NONE', #13, #136 ) ;
#226 = ORIENTED_EDGE ( 'NONE', *, *, #21, .T. ) ;
#227 = CLOSED_SHELL ( 'NONE', ( #58, #245, #64, #229 ) ) ;
#228 = PLANE ( 'NONE',  #280 ) ;
#229 = ADVANCED_FACE ( 'NONE', ( #190 ), #228, .T. ) ;
#230 = ORIENTED_EDGE ( 'NONE', *, *, #21, .F. ) ;
#231 = PLANE ( 'NONE',  #160 ) ;
#232 = DIRECTION ( 'NONE',  ( 0.000000000000000000, 1.000000000000000000, 0.000000000000000000 ) ) ;
#233 = AXIS2_PLACEMENT_3D ( 'NONE', #45, #305, #194 ) ;
#234 = EDGE_CURVE ( 'NONE', #189, #131, #202, .T. ) ;
#235 = SURFACE_STYLE_USAGE ( .BOTH. , #274 ) ;
#236 = DIMENSIONAL_EXPONENTS ( 1.000000000000000000, 0.000000000000000000, 0.000000000000000000, 0.000000000000000000, 0.000000000000000000, 0.000000000000000000, 0.000000000000000000 ) ;
#237 = CIRCLE ( 'NONE', #28, 0.3125000000000000000 ) ;
#238 = MECHANICAL_DESIGN_GEOMETRIC_PRESENTATION_REPRESENTATION (  '', ( #126 ), #243 ) ;
#239 = FACE_OUTER_BOUND ( 'NONE', #7, .T. ) ;
#240 = DIRECTION ( 'NONE',  ( 1.000000000000000000, 0.000000000000000000, 0.000000000000000000 ) ) ;
#241 = SURFACE_SIDE_STYLE ('',( #34 ) ) ;
#242 = APPLICATION_CONTEXT ( 'automotive_design' ) ;
#243 =( GEOMETRIC_REPRESENTATION_CONTEXT ( 3 ) GLOBAL_UNCERTAINTY_ASSIGNED_CONTEXT ( ( #296 ) ) GLOBAL_UNIT_ASSIGNED_CONTEXT ( ( #29, #200, #138 ) ) REPRESENTATION_CONTEXT ( 'NONE', 'WORKASPACE' ) );
#244 =( NAMED_UNIT ( * ) SI_UNIT ( $, .STERADIAN. ) SOLID_ANGLE_UNIT ( ) );
#245 = ADVANCED_FACE ( 'NONE', ( #145 ), #231, .T. ) ;
#246 = PRESENTATION_LAYER_ASSIGNMENT (  '', '', ( #265 ) ) ;
#247 = DIRECTION ( 'NONE',  ( -3.265724797726272713E-17, 1.000000000000000000, -0.000000000000000000 ) ) ;
#248 = DIRECTION ( 'NONE',  ( -1.000000000000000000, 0.000000000000000000, 0.000000000000000000 ) ) ;
#249 = UNCERTAINTY_MEASURE_WITH_UNIT (LENGTH_MEASURE( 1.000000000000000082E-05 ), #146, 'distance_accuracy_value', 'NONE');
#250 = SURFACE_STYLE_FILL_AREA ( #187 ) ;
#251 =( NAMED_UNIT ( * ) PLANE_ANGLE_UNIT ( ) SI_UNIT ( $, .RADIAN. ) );
#252 = ORIENTED_EDGE ( 'NONE', *, *, #8, .F. ) ;
#253 = ORIENTED_EDGE ( 'NONE', *, *, #15, .T. ) ;
#254 = DIRECTION ( 'NONE',  ( 0.000000000000000000, -0.000000000000000000, 1.000000000000000000 ) ) ;
#255 = EDGE_LOOP ( 'NONE', ( #226, #302 ) ) ;
#256 = FILL_AREA_STYLE_COLOUR ( '', #177 ) ;
#257 = AXIS2_PLACEMENT_3D ( 'NONE', #106, #71, #173 ) ;
#258 = SURFACE_STYLE_USAGE ( .BOTH. , #267 ) ;
#259 =( NAMED_UNIT ( * ) SI_UNIT ( $, .STERADIAN. ) SOLID_ANGLE_UNIT ( ) );
#260 = DIRECTION ( 'NONE',  ( 0.000000000000000000, 0.000000000000000000, -1.000000000000000000 ) ) ;
#261 = PRODUCT_DEFINITION_CONTEXT ( 'detailed design', #242, 'design' ) ;
#262 = DIRECTION ( 'NONE',  ( 3.265724797726272713E-17, -1.000000000000000000, 0.000000000000000000 ) ) ;
#263 = CYLINDRICAL_SURFACE ( 'NONE', #201, 0.3125000000000000000 ) ;
#264 = DIRECTION ( 'NONE',  ( -1.000000000000000000, 0.000000000000000000, 0.000000000000000000 ) ) ;
#265 = STYLED_ITEM ( 'NONE', ( #4 ), #64 ) ;
#266 =( LENGTH_UNIT ( ) NAMED_UNIT ( * ) SI_UNIT ( $, .METRE. ) );
#267 = SURFACE_SIDE_STYLE ('',( #49 ) ) ;
#268 = FILL_AREA_STYLE ('',( #76 ) ) ;
#269 = PRESENTATION_STYLE_ASSIGNMENT (( #282 ) ) ;
#270 = ORIENTED_EDGE ( 'NONE', *, *, #224, .T. ) ;
#271 =( GEOMETRIC_REPRESENTATION_CONTEXT ( 3 ) GLOBAL_UNCERTAINTY_ASSIGNED_CONTEXT ( ( #59 ) ) GLOBAL_UNIT_ASSIGNED_CONTEXT ( ( #204, #33, #2 ) ) REPRESENTATION_CONTEXT ( 'NONE', 'WORKASPACE' ) );
#272 =( NAMED_UNIT ( * ) PLANE_ANGLE_UNIT ( ) SI_UNIT ( $, .RADIAN. ) );
#273 = CARTESIAN_POINT ( 'NONE',  ( 0.000000000000000000, 0.000000000000000000, -0.3125000000000000000 ) ) ;
#274 = SURFACE_SIDE_STYLE ('',( #152 ) ) ;
#275 = PRESENTATION_LAYER_ASSIGNMENT (  '', '', ( #91 ) ) ;
#276 = DIRECTION ( 'NONE',  ( -1.000000000000000000, 0.000000000000000000, 0.000000000000000000 ) ) ;
#277 = CARTESIAN_POINT ( 'NONE',  ( -6.123233995736759873E-17, 3.500000000000000000, 0.000000000000000000 ) ) ;
#278 = PRODUCT_RELATED_PRODUCT_CATEGORY ( 'part', '', ( #285 ) ) ;
#279 = COLOUR_RGB ( '',0.7921568627450980005, 0.8196078431372548767, 0.9333333333333333481 ) ;
#280 = AXIS2_PLACEMENT_3D ( 'NONE', #281, #172, #260 ) ;
#281 = CARTESIAN_POINT ( 'NONE',  ( 0.000000000000000000, 0.000000000000000000, 0.000000000000000000 ) ) ;
#282 = SURFACE_STYLE_USAGE ( .BOTH. , #196 ) ;
#283 = DIRECTION ( 'NONE',  ( 1.000000000000000000, 3.265724797726272713E-17, 0.000000000000000000 ) ) ;
#284 =( GEOMETRIC_REPRESENTATION_CONTEXT ( 3 ) GLOBAL_UNCERTAINTY_ASSIGNED_CONTEXT ( ( #117 ) ) GLOBAL_UNIT_ASSIGNED_CONTEXT ( ( #137, #272, #83 ) ) REPRESENTATION_CONTEXT ( 'NONE', 'WORKASPACE' ) );
#285 = PRODUCT ( '30587W', '30587W', '', ( #180 ) ) ;
#286 = DIRECTION ( 'NONE',  ( 0.000000000000000000, 0.000000000000000000, -1.000000000000000000 ) ) ;
#287 = PRESENTATION_STYLE_ASSIGNMENT (( #157 ) ) ;
#288 = CARTESIAN_POINT ( 'NONE',  ( 3.827021247335478926E-17, 0.000000000000000000, 0.3125000000000000000 ) ) ;
#289 = CIRCLE ( 'NONE', #46, 0.3125000000000000000 ) ;
#290 = CARTESIAN_POINT ( 'NONE',  ( -6.123233995736759873E-17, 3.500000000000000000, 0.000000000000000000 ) ) ;
#291 = ADVANCED_FACE ( 'NONE', ( #96 ), #25, .F. ) ;
#292 = CARTESIAN_POINT ( 'NONE',  ( 0.000000000000000000, 0.000000000000000000, 0.000000000000000000 ) ) ;
#293 = FILL_AREA_STYLE_COLOUR ( '', #115 ) ;
#294 = ADVANCED_FACE ( 'NONE', ( #151 ), #309, .F. ) ;
#295 = CARTESIAN_POINT ( 'NONE',  ( 0.3125000000000000000, 3.500000000000000000, 3.827021247335478926E-17 ) ) ;
#296 = UNCERTAINTY_MEASURE_WITH_UNIT (LENGTH_MEASURE( 1.000000000000000082E-05 ), #29, 'distance_accuracy_value', 'NONE');
#297 = SURFACE_STYLE_USAGE ( .BOTH. , #88 ) ;
#298 = DIRECTION ( 'NONE',  ( -3.265724797726272713E-17, 1.000000000000000000, -0.000000000000000000 ) ) ;
#299 = CIRCLE ( 'NONE', #257, 0.3125000000000000000 ) ;
#300 = COLOUR_RGB ( '',1.000000000000000000, 0.000000000000000000, 0.000000000000000000 ) ;
#301 = LENGTH_MEASURE_WITH_UNIT ( LENGTH_MEASURE( 0.02539999999999999897 ), #37 );
#302 = ORIENTED_EDGE ( 'NONE', *, *, #72, .T. ) ;
#303 = LENGTH_MEASURE_WITH_UNIT ( LENGTH_MEASURE( 0.02539999999999999897 ), #130 );
#304 = AXIS2_PLACEMENT_3D ( 'NONE', #277, #298, #62 ) ;
#305 = DIRECTION ( 'NONE',  ( -0.000000000000000000, -1.000000000000000000, -0.000000000000000000 ) ) ;
#306 = SURFACE_STYLE_FILL_AREA ( #24 ) ;
#307 = DIMENSIONAL_EXPONENTS ( 1.000000000000000000, 0.000000000000000000, 0.000000000000000000, 0.000000000000000000, 0.000000000000000000, 0.000000000000000000, 0.000000000000000000 ) ;
#308 = CARTESIAN_POINT ( 'NONE',  ( 0.3125000000000000000, 3.500000000000000000, 0.000000000000000000 ) ) ;
#309 = PLANE ( 'NONE',  #55 ) ;
ENDSEC;
END-ISO-10303-21;
