ISO-10303-21;
HEADER;
FILE_DESCRIPTION (( 'STEP AP214' ),
    '1' );
FILE_NAME ('Micro_MMBM-003-3X.STEP',
    '2021-09-03T16:21:37',
    ( '' ),
    ( '' ),
    'SwSTEP 2.0',
    'SolidWorks 2020',
    '' );
FILE_SCHEMA (( 'AUTOMOTIVE_DESIGN' ));
ENDSEC;

DATA;
#1 = CYLINDRICAL_SURFACE ( 'NONE', #300, 0.005904909450000129893 ) ;
#2 = DIMENSIONAL_EXPONENTS ( 1.000000000000000000, 0.0000000000000000000, 0.0000000000000000000, 0.0000000000000000000, 0.0000000000000000000, 0.0000000000000000000, 0.0000000000000000000 ) ;
#3 = CARTESIAN_POINT ( 'NONE',  ( -0.005904909450000129893, 0.0000000000000000000, 0.0000000000000000000 ) ) ;
#4 = ORIENTED_EDGE ( 'NONE', *, *, #190, .T. ) ;
#5 = COLOUR_RGB ( '',0.7921568627450980005, 0.8196078431372548767, 0.9333333333333333481 ) ;
#6 = ORIENTED_EDGE ( 'NONE', *, *, #95, .F. ) ;
#7 = ADVANCED_FACE ( 'NONE', ( #206 ), #233, .T. ) ;
#8 = ORIENTED_EDGE ( 'NONE', *, *, #171, .T. ) ;
#9 = ORIENTED_EDGE ( 'NONE', *, *, #170, .F. ) ;
#10 = VECTOR ( 'NONE', #342, 39.37007874015748143 ) ;
#11 = CONICAL_SURFACE ( 'NONE', #162, 0.06374000000000018540, 0.7853981633974528309 ) ;
#12 = VERTEX_POINT ( 'NONE', #324 ) ;
#13 = DIRECTION ( 'NONE',  ( -1.000000000000000000, 0.0000000000000000000, 0.0000000000000000000 ) ) ;
#14 = EDGE_CURVE ( 'NONE', #12, #193, #134, .T. ) ;
#15 = EDGE_CURVE ( 'NONE', #12, #94, #189, .T. ) ;
#16 = DIRECTION ( 'NONE',  ( -0.0000000000000000000, -0.0000000000000000000, -1.000000000000000000 ) ) ;
#17 = AXIS2_PLACEMENT_3D ( 'NONE', #132, #164, #74 ) ;
#18 = APPLICATION_CONTEXT ( 'automotive_design' ) ;
#19 = CIRCLE ( 'NONE', #68, 0.005904909450000129893 ) ;
#20 = LINE ( 'NONE', #3, #45 ) ;
#21 = AXIS2_PLACEMENT_3D ( 'NONE', #241, #175, #301 ) ;
#22 = DIRECTION ( 'NONE',  ( -0.0000000000000000000, 0.0000000000000000000, -1.000000000000000000 ) ) ;
#23 = EDGE_CURVE ( 'NONE', #124, #160, #265, .T. ) ;
#24 = DIRECTION ( 'NONE',  ( 1.000000000000000000, 0.0000000000000000000, 0.0000000000000000000 ) ) ;
#25 = CARTESIAN_POINT ( 'NONE',  ( -0.07874000000000001831, 0.0000000000000000000, 0.1181100000000002287 ) ) ;
#26 = CARTESIAN_POINT ( 'NONE',  ( 0.0000000000000000000, 0.0000000000000000000, 0.0000000000000000000 ) ) ;
#27 = AXIS2_PLACEMENT_3D ( 'NONE', #297, #78, #205 ) ;
#28 = DIRECTION ( 'NONE',  ( -1.000000000000000000, 0.0000000000000000000, 0.0000000000000000000 ) ) ;
#29 = CYLINDRICAL_SURFACE ( 'NONE', #271, 0.07874000000000001831 ) ;
#30 = CARTESIAN_POINT ( 'NONE',  ( 0.0000000000000000000, 0.0000000000000000000, 1.968503999999999809 ) ) ;
#31 = ADVANCED_FACE ( 'NONE', ( #208 ), #201, .T. ) ;
#32 = DIRECTION ( 'NONE',  ( -1.000000000000000000, 0.0000000000000000000, 0.0000000000000000000 ) ) ;
#33 = AXIS2_PLACEMENT_3D ( 'NONE', #139, #272, #276 ) ;
#34 = ORIENTED_EDGE ( 'NONE', *, *, #187, .F. ) ;
#35 = ADVANCED_FACE ( 'NONE', ( #232 ), #71, .T. ) ;
#36 =( NAMED_UNIT ( * ) PLANE_ANGLE_UNIT ( ) SI_UNIT ( $, .RADIAN. ) );
#37 = ORIENTED_EDGE ( 'NONE', *, *, #141, .F. ) ;
#38 = ORIENTED_EDGE ( 'NONE', *, *, #58, .F. ) ;
#39 = AXIS2_PLACEMENT_3D ( 'NONE', #303, #210, #218 ) ;
#40 = EDGE_LOOP ( 'NONE', ( #8, #286 ) ) ;
#41 = LENGTH_MEASURE_WITH_UNIT ( LENGTH_MEASURE( 0.02539999999999999897 ), #185 );
#42 = VERTEX_POINT ( 'NONE', #343 ) ;
#43 = ORIENTED_EDGE ( 'NONE', *, *, #167, .F. ) ;
#44 = UNCERTAINTY_MEASURE_WITH_UNIT (LENGTH_MEASURE( 1.000000000000000082E-05 ), #378, 'distance_accuracy_value', 'NONE');
#45 = VECTOR ( 'NONE', #277, 39.37007874015748143 ) ;
#46 = DIRECTION ( 'NONE',  ( 0.0000000000000000000, 0.0000000000000000000, -1.000000000000000000 ) ) ;
#47 = CARTESIAN_POINT ( 'NONE',  ( 0.005904909450000129893, 7.231428457197616621E-19, 0.01181100000000002287 ) ) ;
#48 = DIRECTION ( 'NONE',  ( -0.0000000000000000000, -0.0000000000000000000, -1.000000000000000000 ) ) ;
#49 = EDGE_CURVE ( 'NONE', #94, #220, #321, .T. ) ;
#50 = CARTESIAN_POINT ( 'NONE',  ( 0.07874000000000001831, 9.642868896486260050E-18, 0.1181100000000002287 ) ) ;
#51 = DIRECTION ( 'NONE',  ( -1.000000000000000000, 0.0000000000000000000, 0.0000000000000000000 ) ) ;
#52 = CARTESIAN_POINT ( 'NONE',  ( 0.0000000000000000000, 0.0000000000000000000, 1.968503999999999809 ) ) ;
#53 = PLANE ( 'NONE',  #335 ) ;
#54 = AXIS2_PLACEMENT_3D ( 'NONE', #354, #82, #182 ) ;
#55 = CYLINDRICAL_SURFACE ( 'NONE', #133, 0.005512000000000010815 ) ;
#56 = CARTESIAN_POINT ( 'NONE',  ( 0.005904909450000129893, 7.231428457197616621E-19, 0.01181100000000002287 ) ) ;
#57 = DIRECTION ( 'NONE',  ( -0.0000000000000000000, -0.0000000000000000000, -1.000000000000000000 ) ) ;
#58 = EDGE_CURVE ( 'NONE', #160, #113, #290, .T. ) ;
#59 = DIRECTION ( 'NONE',  ( -1.000000000000000000, 0.0000000000000000000, 0.0000000000000000000 ) ) ;
#60 = FACE_OUTER_BOUND ( 'NONE', #195, .T. ) ;
#61 = STYLED_ITEM ( 'NONE', ( #81 ), #360 ) ;
#62 = CARTESIAN_POINT ( 'NONE',  ( 0.0000000000000000000, 0.0000000000000000000, 0.01181100000000002287 ) ) ;
#63 = VERTEX_POINT ( 'NONE', #294 ) ;
#64 = ORIENTED_EDGE ( 'NONE', *, *, #14, .F. ) ;
#65 = UNCERTAINTY_MEASURE_WITH_UNIT (LENGTH_MEASURE( 1.000000000000000082E-05 ), #225, 'distance_accuracy_value', 'NONE');
#66 = SURFACE_STYLE_USAGE ( .BOTH. , #257 ) ;
#67 = ORIENTED_EDGE ( 'NONE', *, *, #14, .T. ) ;
#68 = AXIS2_PLACEMENT_3D ( 'NONE', #240, #332, #377 ) ;
#69 = VERTEX_POINT ( 'NONE', #104 ) ;
#70 = ORIENTED_EDGE ( 'NONE', *, *, #141, .T. ) ;
#71 = CYLINDRICAL_SURFACE ( 'NONE', #102, 0.005904909450000129893 ) ;
#72 = CIRCLE ( 'NONE', #115, 0.06374000000000018540 ) ;
#73 = CARTESIAN_POINT ( 'NONE',  ( 0.0000000000000000000, 0.0000000000000000000, 0.01181100000000002287 ) ) ;
#74 = DIRECTION ( 'NONE',  ( -1.000000000000000000, 0.0000000000000000000, 0.0000000000000000000 ) ) ;
#75 = CARTESIAN_POINT ( 'NONE',  ( 0.0000000000000000000, 0.0000000000000000000, 0.0000000000000000000 ) ) ;
#76 = EDGE_CURVE ( 'NONE', #124, #163, #161, .T. ) ;
#77 = AXIS2_PLACEMENT_3D ( 'NONE', #62, #330, #59 ) ;
#78 = DIRECTION ( 'NONE',  ( 0.0000000000000000000, 0.0000000000000000000, 1.000000000000000000 ) ) ;
#79 = DIRECTION ( 'NONE',  ( -0.0000000000000000000, -0.0000000000000000000, -1.000000000000000000 ) ) ;
#80 = DIRECTION ( 'NONE',  ( -0.0000000000000000000, -0.0000000000000000000, -1.000000000000000000 ) ) ;
#81 = PRESENTATION_STYLE_ASSIGNMENT (( #85 ) ) ;
#82 = DIRECTION ( 'NONE',  ( -0.0000000000000000000, -0.0000000000000000000, -1.000000000000000000 ) ) ;
#83 = AXIS2_PLACEMENT_3D ( 'NONE', #293, #235, #13 ) ;
#84 =( GEOMETRIC_REPRESENTATION_CONTEXT ( 3 ) GLOBAL_UNCERTAINTY_ASSIGNED_CONTEXT ( ( #65 ) ) GLOBAL_UNIT_ASSIGNED_CONTEXT ( ( #225, #36, #126 ) ) REPRESENTATION_CONTEXT ( 'NONE', 'WORKASPACE' ) );
#85 = SURFACE_STYLE_USAGE ( .BOTH. , #333 ) ;
#86 = FACE_OUTER_BOUND ( 'NONE', #292, .T. ) ;
#87 = DIRECTION ( 'NONE',  ( -0.0000000000000000000, -0.0000000000000000000, -1.000000000000000000 ) ) ;
#88 = DIRECTION ( 'NONE',  ( -1.000000000000000000, 0.0000000000000000000, 0.0000000000000000000 ) ) ;
#89 = LINE ( 'NONE', #112, #323 ) ;
#90 = ORIENTED_EDGE ( 'NONE', *, *, #256, .T. ) ;
#91 = CIRCLE ( 'NONE', #318, 0.07874000000000001831 ) ;
#92 =( LENGTH_UNIT ( ) NAMED_UNIT ( * ) SI_UNIT ( $, .METRE. ) );
#93 = ORIENTED_EDGE ( 'NONE', *, *, #154, .T. ) ;
#94 = VERTEX_POINT ( 'NONE', #370 ) ;
#95 = EDGE_CURVE ( 'NONE', #281, #63, #266, .T. ) ;
#96 = VERTEX_POINT ( 'NONE', #172 ) ;
#97 = ORIENTED_EDGE ( 'NONE', *, *, #23, .T. ) ;
#98 = CIRCLE ( 'NONE', #54, 0.005904909450000129893 ) ;
#99 = ORIENTED_EDGE ( 'NONE', *, *, #159, .T. ) ;
#100 = DIRECTION ( 'NONE',  ( -0.0000000000000000000, -0.0000000000000000000, -1.000000000000000000 ) ) ;
#101 = CARTESIAN_POINT ( 'NONE',  ( 0.0000000000000000000, 0.0000000000000000000, 1.953504000000000129 ) ) ;
#102 = AXIS2_PLACEMENT_3D ( 'NONE', #75, #238, #51 ) ;
#103 = PRESENTATION_LAYER_ASSIGNMENT (  '', '', ( #234 ) ) ;
#104 = CARTESIAN_POINT ( 'NONE',  ( 0.06374000000000018540, 8.724383797125754882E-18, 1.968503999999999809 ) ) ;
#105 = DIRECTION ( 'NONE',  ( 0.0000000000000000000, 0.0000000000000000000, -1.000000000000000000 ) ) ;
#106 = FACE_OUTER_BOUND ( 'NONE', #334, .T. ) ;
#107 = CIRCLE ( 'NONE', #244, 0.005904909450000129893 ) ;
#108 = FACE_OUTER_BOUND ( 'NONE', #152, .T. ) ;
#109 = ADVANCED_FACE ( 'NONE', ( #131, #106 ), #344, .T. ) ;
#110 = DIRECTION ( 'NONE',  ( -0.0000000000000000000, -0.0000000000000000000, -1.000000000000000000 ) ) ;
#111 = DIRECTION ( 'NONE',  ( -0.0000000000000000000, -0.0000000000000000000, -1.000000000000000000 ) ) ;
#112 = CARTESIAN_POINT ( 'NONE',  ( -0.06374000000000018540, 0.0000000000000000000, 1.968503999999999809 ) ) ;
#113 = VERTEX_POINT ( 'NONE', #50 ) ;
#114 = CARTESIAN_POINT ( 'NONE',  ( 0.005512000000000010815, 6.750253156900224774E-19, 0.0000000000000000000 ) ) ;
#115 = AXIS2_PLACEMENT_3D ( 'NONE', #52, #326, #331 ) ;
#116 = ADVANCED_FACE ( 'NONE', ( #264 ), #169, .T. ) ;
#117 = CARTESIAN_POINT ( 'NONE',  ( 0.0000000000000000000, 0.0000000000000000000, 1.968503999999999809 ) ) ;
#118 =( CONVERSION_BASED_UNIT ( 'INCH', #149 ) LENGTH_UNIT ( ) NAMED_UNIT ( #121 ) );
#119 = PRODUCT_RELATED_PRODUCT_CATEGORY ( 'part', '', ( #215 ) ) ;
#120 = ORIENTED_EDGE ( 'NONE', *, *, #125, .T. ) ;
#121 = DIMENSIONAL_EXPONENTS ( 1.000000000000000000, 0.0000000000000000000, 0.0000000000000000000, 0.0000000000000000000, 0.0000000000000000000, 0.0000000000000000000, 0.0000000000000000000 ) ;
#122 = EDGE_CURVE ( 'NONE', #193, #96, #368, .T. ) ;
#123 = ORIENTED_EDGE ( 'NONE', *, *, #316, .T. ) ;
#124 = VERTEX_POINT ( 'NONE', #166 ) ;
#125 = EDGE_CURVE ( 'NONE', #163, #124, #91, .T. ) ;
#126 =( NAMED_UNIT ( * ) SI_UNIT ( $, .STERADIAN. ) SOLID_ANGLE_UNIT ( ) );
#127 = ORIENTED_EDGE ( 'NONE', *, *, #49, .T. ) ;
#128 = VECTOR ( 'NONE', #375, 39.37007874015748143 ) ;
#129 = DIRECTION ( 'NONE',  ( -0.0000000000000000000, -0.0000000000000000000, -1.000000000000000000 ) ) ;
#130 = EDGE_CURVE ( 'NONE', #163, #113, #136, .T. ) ;
#131 = FACE_BOUND ( 'NONE', #315, .T. ) ;
#132 = CARTESIAN_POINT ( 'NONE',  ( 0.0000000000000000000, 0.0000000000000000000, 0.1181100000000002287 ) ) ;
#133 = AXIS2_PLACEMENT_3D ( 'NONE', #143, #87, #280 ) ;
#134 = LINE ( 'NONE', #47, #259 ) ;
#135 = APPLICATION_CONTEXT ( 'automotive_design' ) ;
#136 = LINE ( 'NONE', #268, #359 ) ;
#137 = DIRECTION ( 'NONE',  ( 1.000000000000000000, 0.0000000000000000000, 0.0000000000000000000 ) ) ;
#138 =( GEOMETRIC_REPRESENTATION_CONTEXT ( 3 ) GLOBAL_UNCERTAINTY_ASSIGNED_CONTEXT ( ( #203 ) ) GLOBAL_UNIT_ASSIGNED_CONTEXT ( ( #118, #355, #147 ) ) REPRESENTATION_CONTEXT ( 'NONE', 'WORKASPACE' ) );
#139 = CARTESIAN_POINT ( 'NONE',  ( 0.0000000000000000000, 0.0000000000000000000, 0.01403930022054169884 ) ) ;
#140 = DIRECTION ( 'NONE',  ( -0.7071067811865507924, 0.0000000000000000000, -0.7071067811865443531 ) ) ;
#141 = EDGE_CURVE ( 'NONE', #193, #220, #107, .T. ) ;
#142 = DIRECTION ( 'NONE',  ( -1.000000000000000000, 0.0000000000000000000, 0.0000000000000000000 ) ) ;
#143 = CARTESIAN_POINT ( 'NONE',  ( 0.0000000000000000000, 0.0000000000000000000, 0.0000000000000000000 ) ) ;
#144 = DIRECTION ( 'NONE',  ( 0.0000000000000000000, 0.0000000000000000000, 1.000000000000000000 ) ) ;
#145 = DIRECTION ( 'NONE',  ( -1.000000000000000000, 0.0000000000000000000, 0.0000000000000000000 ) ) ;
#146 = CARTESIAN_POINT ( 'NONE',  ( -0.005904909450000129893, 0.0000000000000000000, 0.01181100000000002287 ) ) ;
#147 =( NAMED_UNIT ( * ) SI_UNIT ( $, .STERADIAN. ) SOLID_ANGLE_UNIT ( ) );
#148 = PRODUCT_DEFINITION_SHAPE ( 'NONE', 'NONE',  #308 ) ;
#149 = LENGTH_MEASURE_WITH_UNIT ( LENGTH_MEASURE( 0.02539999999999999897 ), #306 );
#150 = ORIENTED_EDGE ( 'NONE', *, *, #125, .F. ) ;
#151 = ORIENTED_EDGE ( 'NONE', *, *, #159, .F. ) ;
#152 = EDGE_LOOP ( 'NONE', ( #260, #184, #338, #223 ) ) ;
#153 = MECHANICAL_DESIGN_GEOMETRIC_PRESENTATION_REPRESENTATION (  '', ( #234 ), #84 ) ;
#154 = EDGE_CURVE ( 'NONE', #281, #12, #214, .T. ) ;
#155 = FILL_AREA_STYLE_COLOUR ( '', #5 ) ;
#156 = ORIENTED_EDGE ( 'NONE', *, *, #366, .F. ) ;
#157 = ADVANCED_FACE ( 'NONE', ( #211 ), #328, .T. ) ;
#158 = EDGE_LOOP ( 'NONE', ( #64, #337, #127, #37 ) ) ;
#159 = EDGE_CURVE ( 'NONE', #63, #281, #191, .T. ) ;
#160 = VERTEX_POINT ( 'NONE', #25 ) ;
#161 = CIRCLE ( 'NONE', #373, 0.07874000000000001831 ) ;
#162 = AXIS2_PLACEMENT_3D ( 'NONE', #30, #299, #142 ) ;
#163 = VERTEX_POINT ( 'NONE', #305 ) ;
#164 = DIRECTION ( 'NONE',  ( -0.0000000000000000000, -0.0000000000000000000, -1.000000000000000000 ) ) ;
#165 = ADVANCED_FACE ( 'NONE', ( #108 ), #374, .T. ) ;
#166 = CARTESIAN_POINT ( 'NONE',  ( -0.07874000000000001831, 0.0000000000000000000, 1.953504000000000129 ) ) ;
#167 = EDGE_CURVE ( 'NONE', #69, #163, #179, .T. ) ;
#168 = AXIS2_PLACEMENT_3D ( 'NONE', #329, #242, #137 ) ;
#169 = PLANE ( 'NONE',  #27 ) ;
#170 = EDGE_CURVE ( 'NONE', #42, #69, #72, .T. ) ;
#171 = EDGE_CURVE ( 'NONE', #282, #96, #19, .T. ) ;
#172 = CARTESIAN_POINT ( 'NONE',  ( 0.005904909450000129893, 7.231428457197616621E-19, 0.0000000000000000000 ) ) ;
#173 = DIRECTION ( 'NONE',  ( -0.0000000000000000000, -0.0000000000000000000, -1.000000000000000000 ) ) ;
#174 = PRODUCT_DEFINITION_FORMATION_WITH_SPECIFIED_SOURCE ( 'ANY', '', #215, .NOT_KNOWN. ) ;
#175 = DIRECTION ( 'NONE',  ( -0.0000000000000000000, -0.0000000000000000000, -1.000000000000000000 ) ) ;
#176 = DIRECTION ( 'NONE',  ( -1.000000000000000000, 0.0000000000000000000, 0.0000000000000000000 ) ) ;
#177 = LENGTH_MEASURE_WITH_UNIT ( LENGTH_MEASURE( 0.02539999999999999897 ), #92 );
#178 = ADVANCED_FACE ( 'NONE', ( #60 ), #11, .T. ) ;
#179 = LINE ( 'NONE', #245, #128 ) ;
#180 = FILL_AREA_STYLE ('',( #275 ) ) ;
#181 = AXIS2_PLACEMENT_3D ( 'NONE', #320, #100, #295 ) ;
#182 = DIRECTION ( 'NONE',  ( -1.000000000000000000, 0.0000000000000000000, 0.0000000000000000000 ) ) ;
#183 = MECHANICAL_DESIGN_GEOMETRIC_PRESENTATION_REPRESENTATION (  '', ( #61 ), #278 ) ;
#184 = ORIENTED_EDGE ( 'NONE', *, *, #95, .T. ) ;
#185 =( LENGTH_UNIT ( ) NAMED_UNIT ( * ) SI_UNIT ( $, .METRE. ) );
#186 = ORIENTED_EDGE ( 'NONE', *, *, #190, .F. ) ;
#187 = EDGE_CURVE ( 'NONE', #63, #94, #269, .T. ) ;
#188 = ORIENTED_EDGE ( 'NONE', *, *, #204, .F. ) ;
#189 = CIRCLE ( 'NONE', #181, 0.005512000000000010815 ) ;
#190 = EDGE_CURVE ( 'NONE', #69, #42, #339, .T. ) ;
#191 = CIRCLE ( 'NONE', #307, 0.005512000000000010815 ) ;
#192 = CARTESIAN_POINT ( 'NONE',  ( 0.0000000000000000000, 0.0000000000000000000, 0.0000000000000000000 ) ) ;
#193 = VERTEX_POINT ( 'NONE', #56 ) ;
#194 = PRODUCT_CONTEXT ( 'NONE', #18, 'mechanical' ) ;
#195 = EDGE_LOOP ( 'NONE', ( #43, #9, #197, #150 ) ) ;
#196 = DIRECTION ( 'NONE',  ( 1.000000000000000000, 0.0000000000000000000, 0.0000000000000000000 ) ) ;
#197 = ORIENTED_EDGE ( 'NONE', *, *, #366, .T. ) ;
#198 = ADVANCED_BREP_SHAPE_REPRESENTATION ( 'Micro_MMBM-003-3X', ( #360, #313 ), #138 ) ;
#199 = DIRECTION ( 'NONE',  ( -0.1736481776669298038, 0.0000000000000000000, -0.9848077530122082424 ) ) ;
#200 = CIRCLE ( 'NONE', #77, 0.005904909450000129893 ) ;
#201 = CYLINDRICAL_SURFACE ( 'NONE', #213, 0.07874000000000001831 ) ;
#202 = ADVANCED_FACE ( 'NONE', ( #351 ), #53, .F. ) ;
#203 = UNCERTAINTY_MEASURE_WITH_UNIT (LENGTH_MEASURE( 1.000000000000000082E-05 ), #118, 'distance_accuracy_value', 'NONE');
#204 = EDGE_CURVE ( 'NONE', #94, #12, #364, .T. ) ;
#205 = DIRECTION ( 'NONE',  ( 1.000000000000000000, 0.0000000000000000000, -0.0000000000000000000 ) ) ;
#206 = FACE_OUTER_BOUND ( 'NONE', #158, .T. ) ;
#207 = AXIS2_PLACEMENT_3D ( 'NONE', #117, #349, #28 ) ;
#208 = FACE_OUTER_BOUND ( 'NONE', #258, .T. ) ;
#209 = EDGE_CURVE ( 'NONE', #96, #282, #98, .T. ) ;
#210 = DIRECTION ( 'NONE',  ( -0.0000000000000000000, -0.0000000000000000000, -1.000000000000000000 ) ) ;
#211 = FACE_OUTER_BOUND ( 'NONE', #314, .T. ) ;
#212 = FACE_OUTER_BOUND ( 'NONE', #341, .T. ) ;
#213 = AXIS2_PLACEMENT_3D ( 'NONE', #262, #16, #367 ) ;
#214 = LINE ( 'NONE', #114, #296 ) ;
#215 = PRODUCT ( 'Micro_MMBM-003-3X', 'Micro_MMBM-003-3X', '', ( #194 ) ) ;
#216 = CARTESIAN_POINT ( 'NONE',  ( 0.0000000000000000000, 0.0000000000000000000, 0.0000000000000000000 ) ) ;
#217 =( NAMED_UNIT ( * ) PLANE_ANGLE_UNIT ( ) SI_UNIT ( $, .RADIAN. ) );
#218 = DIRECTION ( 'NONE',  ( -1.000000000000000000, 0.0000000000000000000, 0.0000000000000000000 ) ) ;
#219 = ADVANCED_FACE ( 'NONE', ( #86 ), #1, .T. ) ;
#220 = VERTEX_POINT ( 'NONE', #146 ) ;
#221 = AXIS2_PLACEMENT_3D ( 'NONE', #345, #22, #298 ) ;
#222 = CIRCLE ( 'NONE', #21, 0.07874000000000001831 ) ;
#223 = ORIENTED_EDGE ( 'NONE', *, *, #15, .F. ) ;
#224 = ORIENTED_EDGE ( 'NONE', *, *, #256, .F. ) ;
#225 =( CONVERSION_BASED_UNIT ( 'INCH', #41 ) LENGTH_UNIT ( ) NAMED_UNIT ( #311 ) );
#226 = EDGE_LOOP ( 'NONE', ( #365, #376, #38, #228 ) ) ;
#227 = AXIS2_PLACEMENT_3D ( 'NONE', #372, #110, #88 ) ;
#228 = ORIENTED_EDGE ( 'NONE', *, *, #23, .F. ) ;
#229 = SURFACE_STYLE_FILL_AREA ( #291 ) ;
#230 = ORIENTED_EDGE ( 'NONE', *, *, #49, .F. ) ;
#231 = DIRECTION ( 'NONE',  ( -1.000000000000000000, 0.0000000000000000000, 0.0000000000000000000 ) ) ;
#232 = FACE_OUTER_BOUND ( 'NONE', #250, .T. ) ;
#233 = CONICAL_SURFACE ( 'NONE', #352, 0.005904909450000129893, 0.1745329251994324482 ) ;
#234 = STYLED_ITEM ( 'NONE', ( #252 ), #198 ) ;
#235 = DIRECTION ( 'NONE',  ( -0.0000000000000000000, -0.0000000000000000000, -1.000000000000000000 ) ) ;
#236 = CARTESIAN_POINT ( 'NONE',  ( -0.005904909450000129893, 0.0000000000000000000, 0.01181100000000002287 ) ) ;
#237 = ADVANCED_FACE ( 'NONE', ( #356 ), #379, .T. ) ;
#238 = DIRECTION ( 'NONE',  ( -0.0000000000000000000, -0.0000000000000000000, -1.000000000000000000 ) ) ;
#239 = VECTOR ( 'NONE', #199, 39.37007874015748143 ) ;
#240 = CARTESIAN_POINT ( 'NONE',  ( 0.0000000000000000000, 0.0000000000000000000, 0.0000000000000000000 ) ) ;
#241 = CARTESIAN_POINT ( 'NONE',  ( 0.0000000000000000000, 0.0000000000000000000, 0.1181100000000002287 ) ) ;
#242 = DIRECTION ( 'NONE',  ( 0.0000000000000000000, 0.0000000000000000000, 1.000000000000000000 ) ) ;
#243 = ORIENTED_EDGE ( 'NONE', *, *, #167, .T. ) ;
#244 = AXIS2_PLACEMENT_3D ( 'NONE', #279, #173, #348 ) ;
#245 = CARTESIAN_POINT ( 'NONE',  ( 0.06374000000000018540, 7.805898697765251255E-18, 1.968503999999999809 ) ) ;
#246 = EDGE_CURVE ( 'NONE', #113, #160, #222, .T. ) ;
#247 = DIRECTION ( 'NONE',  ( 1.000000000000000000, 0.0000000000000000000, -0.0000000000000000000 ) ) ;
#248 = DIRECTION ( 'NONE',  ( -0.0000000000000000000, -0.0000000000000000000, -1.000000000000000000 ) ) ;
#249 = APPLICATION_PROTOCOL_DEFINITION ( 'draft international standard', 'automotive_design', 1998, #18 ) ;
#250 = EDGE_LOOP ( 'NONE', ( #123, #336, #358, #224 ) ) ;
#251 = VECTOR ( 'NONE', #111, 39.37007874015748143 ) ;
#252 = PRESENTATION_STYLE_ASSIGNMENT (( #66 ) ) ;
#253 = ORIENTED_EDGE ( 'NONE', *, *, #76, .F. ) ;
#254 = DIRECTION ( 'NONE',  ( 0.0000000000000000000, 0.0000000000000000000, 1.000000000000000000 ) ) ;
#255 = ORIENTED_EDGE ( 'NONE', *, *, #316, .F. ) ;
#256 = EDGE_CURVE ( 'NONE', #220, #282, #20, .T. ) ;
#257 = SURFACE_SIDE_STYLE ('',( #229 ) ) ;
#258 = EDGE_LOOP ( 'NONE', ( #284, #120, #97, #340 ) ) ;
#259 = VECTOR ( 'NONE', #369, 39.37007874015748143 ) ;
#260 = ORIENTED_EDGE ( 'NONE', *, *, #154, .F. ) ;
#261 = PRODUCT_DEFINITION_CONTEXT ( 'detailed design', #135, 'design' ) ;
#262 = CARTESIAN_POINT ( 'NONE',  ( 0.0000000000000000000, 0.0000000000000000000, 1.968503999999999809 ) ) ;
#263 = CLOSED_SHELL ( 'NONE', ( #35, #289, #237, #157, #287, #31, #116, #178, #109, #7, #165, #219, #202 ) ) ;
#264 = FACE_OUTER_BOUND ( 'NONE', #362, .T. ) ;
#265 = LINE ( 'NONE', #319, #10 ) ;
#266 = CIRCLE ( 'NONE', #83, 0.005512000000000010815 ) ;
#267 = CARTESIAN_POINT ( 'NONE',  ( 0.005904909450000129893, 7.231428457197616621E-19, 0.0000000000000000000 ) ) ;
#268 = CARTESIAN_POINT ( 'NONE',  ( 0.07874000000000001831, 9.642868896486260050E-18, 1.968503999999999809 ) ) ;
#269 = LINE ( 'NONE', #325, #251 ) ;
#270 = VECTOR ( 'NONE', #48, 39.37007874015748143 ) ;
#271 = AXIS2_PLACEMENT_3D ( 'NONE', #304, #248, #145 ) ;
#272 = DIRECTION ( 'NONE',  ( -0.0000000000000000000, -0.0000000000000000000, -1.000000000000000000 ) ) ;
#273 = FACE_OUTER_BOUND ( 'NONE', #226, .T. ) ;
#274 = CARTESIAN_POINT ( 'NONE',  ( 0.0000000000000000000, 0.0000000000000000000, 0.1181100000000002287 ) ) ;
#275 = FILL_AREA_STYLE_COLOUR ( '', #283 ) ;
#276 = DIRECTION ( 'NONE',  ( -1.000000000000000000, 0.0000000000000000000, 0.0000000000000000000 ) ) ;
#277 = DIRECTION ( 'NONE',  ( -0.0000000000000000000, -0.0000000000000000000, -1.000000000000000000 ) ) ;
#278 =( GEOMETRIC_REPRESENTATION_CONTEXT ( 3 ) GLOBAL_UNCERTAINTY_ASSIGNED_CONTEXT ( ( #44 ) ) GLOBAL_UNIT_ASSIGNED_CONTEXT ( ( #378, #217, #353 ) ) REPRESENTATION_CONTEXT ( 'NONE', 'WORKASPACE' ) );
#279 = CARTESIAN_POINT ( 'NONE',  ( 0.0000000000000000000, 0.0000000000000000000, 0.01181100000000002287 ) ) ;
#280 = DIRECTION ( 'NONE',  ( -1.000000000000000000, 0.0000000000000000000, 0.0000000000000000000 ) ) ;
#281 = VERTEX_POINT ( 'NONE', #350 ) ;
#282 = VERTEX_POINT ( 'NONE', #357 ) ;
#283 = COLOUR_RGB ( '',0.7921568627450980005, 0.8196078431372548767, 0.9333333333333333481 ) ;
#284 = ORIENTED_EDGE ( 'NONE', *, *, #130, .F. ) ;
#285 = SHAPE_DEFINITION_REPRESENTATION ( #148, #198 ) ;
#286 = ORIENTED_EDGE ( 'NONE', *, *, #209, .T. ) ;
#287 = ADVANCED_FACE ( 'NONE', ( #273 ), #29, .T. ) ;
#288 = EDGE_LOOP ( 'NONE', ( #363, #67, #255, #230 ) ) ;
#289 = ADVANCED_FACE ( 'NONE', ( #212 ), #55, .T. ) ;
#290 = CIRCLE ( 'NONE', #17, 0.07874000000000001831 ) ;
#291 = FILL_AREA_STYLE ('',( #155 ) ) ;
#292 = EDGE_LOOP ( 'NONE', ( #361, #70, #90, #312 ) ) ;
#293 = CARTESIAN_POINT ( 'NONE',  ( 0.0000000000000000000, 0.0000000000000000000, 0.1181100000000002287 ) ) ;
#294 = CARTESIAN_POINT ( 'NONE',  ( -0.005512000000000010815, 0.0000000000000000000, 0.1181100000000002287 ) ) ;
#295 = DIRECTION ( 'NONE',  ( -1.000000000000000000, 0.0000000000000000000, 0.0000000000000000000 ) ) ;
#296 = VECTOR ( 'NONE', #79, 39.37007874015748143 ) ;
#297 = CARTESIAN_POINT ( 'NONE',  ( 0.0000000000000000000, 0.0000000000000000000, 1.968503999999999809 ) ) ;
#298 = DIRECTION ( 'NONE',  ( -1.000000000000000000, 0.0000000000000000000, 0.0000000000000000000 ) ) ;
#299 = DIRECTION ( 'NONE',  ( 0.0000000000000000000, 0.0000000000000000000, -1.000000000000000000 ) ) ;
#300 = AXIS2_PLACEMENT_3D ( 'NONE', #216, #57, #32 ) ;
#301 = DIRECTION ( 'NONE',  ( -1.000000000000000000, 0.0000000000000000000, 0.0000000000000000000 ) ) ;
#302 = ORIENTED_EDGE ( 'NONE', *, *, #58, .T. ) ;
#303 = CARTESIAN_POINT ( 'NONE',  ( 0.0000000000000000000, 0.0000000000000000000, 0.0000000000000000000 ) ) ;
#304 = CARTESIAN_POINT ( 'NONE',  ( 0.0000000000000000000, 0.0000000000000000000, 1.968503999999999809 ) ) ;
#305 = CARTESIAN_POINT ( 'NONE',  ( 0.07874000000000001831, 9.642868896486260050E-18, 1.953504000000000129 ) ) ;
#306 =( LENGTH_UNIT ( ) NAMED_UNIT ( * ) SI_UNIT ( $, .METRE. ) );
#307 = AXIS2_PLACEMENT_3D ( 'NONE', #274, #80, #176 ) ;
#308 = PRODUCT_DEFINITION ( 'UNKNOWN', '', #174, #261 ) ;
#309 = APPLICATION_PROTOCOL_DEFINITION ( 'draft international standard', 'automotive_design', 1998, #135 ) ;
#310 = ORIENTED_EDGE ( 'NONE', *, *, #246, .T. ) ;
#311 = DIMENSIONAL_EXPONENTS ( 1.000000000000000000, 0.0000000000000000000, 0.0000000000000000000, 0.0000000000000000000, 0.0000000000000000000, 0.0000000000000000000, 0.0000000000000000000 ) ;
#312 = ORIENTED_EDGE ( 'NONE', *, *, #209, .F. ) ;
#313 = AXIS2_PLACEMENT_3D ( 'NONE', #192, #254, #196 ) ;
#314 = EDGE_LOOP ( 'NONE', ( #186, #243, #253, #156 ) ) ;
#315 = EDGE_LOOP ( 'NONE', ( #151, #6 ) ) ;
#316 = EDGE_CURVE ( 'NONE', #220, #193, #200, .T. ) ;
#317 = ORIENTED_EDGE ( 'NONE', *, *, #170, .T. ) ;
#318 = AXIS2_PLACEMENT_3D ( 'NONE', #101, #105, #24 ) ;
#319 = CARTESIAN_POINT ( 'NONE',  ( -0.07874000000000001831, 0.0000000000000000000, 1.968503999999999809 ) ) ;
#320 = CARTESIAN_POINT ( 'NONE',  ( 0.0000000000000000000, 0.0000000000000000000, 0.01403930022054169884 ) ) ;
#321 = LINE ( 'NONE', #236, #239 ) ;
#322 = DIRECTION ( 'NONE',  ( 1.000000000000000000, 0.0000000000000000000, 0.0000000000000000000 ) ) ;
#323 = VECTOR ( 'NONE', #140, 39.37007874015748143 ) ;
#324 = CARTESIAN_POINT ( 'NONE',  ( 0.005512000000000010815, 6.990840807048919734E-19, 0.01403930022054169884 ) ) ;
#325 = CARTESIAN_POINT ( 'NONE',  ( -0.005512000000000010815, 0.0000000000000000000, 0.0000000000000000000 ) ) ;
#326 = DIRECTION ( 'NONE',  ( 0.0000000000000000000, 0.0000000000000000000, 1.000000000000000000 ) ) ;
#327 = SURFACE_STYLE_FILL_AREA ( #180 ) ;
#328 = CONICAL_SURFACE ( 'NONE', #207, 0.06374000000000018540, 0.7853981633974528309 ) ;
#329 = CARTESIAN_POINT ( 'NONE',  ( 0.0000000000000000000, 0.0000000000000000000, 1.968503999999999809 ) ) ;
#330 = DIRECTION ( 'NONE',  ( -0.0000000000000000000, -0.0000000000000000000, -1.000000000000000000 ) ) ;
#331 = DIRECTION ( 'NONE',  ( 1.000000000000000000, 0.0000000000000000000, 0.0000000000000000000 ) ) ;
#332 = DIRECTION ( 'NONE',  ( -0.0000000000000000000, -0.0000000000000000000, -1.000000000000000000 ) ) ;
#333 = SURFACE_SIDE_STYLE ('',( #327 ) ) ;
#334 = EDGE_LOOP ( 'NONE', ( #302, #310 ) ) ;
#335 = AXIS2_PLACEMENT_3D ( 'NONE', #26, #144, #247 ) ;
#336 = ORIENTED_EDGE ( 'NONE', *, *, #122, .T. ) ;
#337 = ORIENTED_EDGE ( 'NONE', *, *, #15, .T. ) ;
#338 = ORIENTED_EDGE ( 'NONE', *, *, #187, .T. ) ;
#339 = CIRCLE ( 'NONE', #168, 0.06374000000000018540 ) ;
#340 = ORIENTED_EDGE ( 'NONE', *, *, #246, .F. ) ;
#341 = EDGE_LOOP ( 'NONE', ( #99, #93, #188, #34 ) ) ;
#342 = DIRECTION ( 'NONE',  ( -0.0000000000000000000, -0.0000000000000000000, -1.000000000000000000 ) ) ;
#343 = CARTESIAN_POINT ( 'NONE',  ( -0.06374000000000018540, 0.0000000000000000000, 1.968503999999999809 ) ) ;
#344 = PLANE ( 'NONE',  #221 ) ;
#345 = CARTESIAN_POINT ( 'NONE',  ( 0.005512000000000010815, 0.0000000000000000000, 0.1181100000000002287 ) ) ;
#346 = CARTESIAN_POINT ( 'NONE',  ( 0.0000000000000000000, 0.0000000000000000000, 1.953504000000000129 ) ) ;
#347 = PRESENTATION_LAYER_ASSIGNMENT (  '', '', ( #61 ) ) ;
#348 = DIRECTION ( 'NONE',  ( -1.000000000000000000, 0.0000000000000000000, 0.0000000000000000000 ) ) ;
#349 = DIRECTION ( 'NONE',  ( 0.0000000000000000000, 0.0000000000000000000, -1.000000000000000000 ) ) ;
#350 = CARTESIAN_POINT ( 'NONE',  ( 0.005512000000000010815, 6.750253156900224774E-19, 0.1181100000000002287 ) ) ;
#351 = FACE_OUTER_BOUND ( 'NONE', #40, .T. ) ;
#352 = AXIS2_PLACEMENT_3D ( 'NONE', #73, #129, #231 ) ;
#353 =( NAMED_UNIT ( * ) SI_UNIT ( $, .STERADIAN. ) SOLID_ANGLE_UNIT ( ) );
#354 = CARTESIAN_POINT ( 'NONE',  ( 0.0000000000000000000, 0.0000000000000000000, 0.0000000000000000000 ) ) ;
#355 =( NAMED_UNIT ( * ) PLANE_ANGLE_UNIT ( ) SI_UNIT ( $, .RADIAN. ) );
#356 = FACE_OUTER_BOUND ( 'NONE', #288, .T. ) ;
#357 = CARTESIAN_POINT ( 'NONE',  ( -0.005904909450000129893, 0.0000000000000000000, 0.0000000000000000000 ) ) ;
#358 = ORIENTED_EDGE ( 'NONE', *, *, #171, .F. ) ;
#359 = VECTOR ( 'NONE', #371, 39.37007874015748143 ) ;
#360 = MANIFOLD_SOLID_BREP ( 'Cut-Revolve1', #263 ) ;
#361 = ORIENTED_EDGE ( 'NONE', *, *, #122, .F. ) ;
#362 = EDGE_LOOP ( 'NONE', ( #317, #4 ) ) ;
#363 = ORIENTED_EDGE ( 'NONE', *, *, #204, .T. ) ;
#364 = CIRCLE ( 'NONE', #33, 0.005512000000000010815 ) ;
#365 = ORIENTED_EDGE ( 'NONE', *, *, #76, .T. ) ;
#366 = EDGE_CURVE ( 'NONE', #42, #124, #89, .T. ) ;
#367 = DIRECTION ( 'NONE',  ( -1.000000000000000000, 0.0000000000000000000, 0.0000000000000000000 ) ) ;
#368 = LINE ( 'NONE', #267, #270 ) ;
#369 = DIRECTION ( 'NONE',  ( 0.1736481776669298038, 2.126576849575764827E-17, -0.9848077530122082424 ) ) ;
#370 = CARTESIAN_POINT ( 'NONE',  ( -0.005512000000000010815, 0.0000000000000000000, 0.01403930022054169884 ) ) ;
#371 = DIRECTION ( 'NONE',  ( -0.0000000000000000000, -0.0000000000000000000, -1.000000000000000000 ) ) ;
#372 = CARTESIAN_POINT ( 'NONE',  ( 0.0000000000000000000, 0.0000000000000000000, 0.01181100000000002287 ) ) ;
#373 = AXIS2_PLACEMENT_3D ( 'NONE', #346, #46, #322 ) ;
#374 = CYLINDRICAL_SURFACE ( 'NONE', #39, 0.005512000000000010815 ) ;
#375 = DIRECTION ( 'NONE',  ( 0.7071067811865507924, 8.659560562354973534E-17, -0.7071067811865443531 ) ) ;
#376 = ORIENTED_EDGE ( 'NONE', *, *, #130, .T. ) ;
#377 = DIRECTION ( 'NONE',  ( -1.000000000000000000, 0.0000000000000000000, 0.0000000000000000000 ) ) ;
#378 =( CONVERSION_BASED_UNIT ( 'INCH', #177 ) LENGTH_UNIT ( ) NAMED_UNIT ( #2 ) );
#379 = CONICAL_SURFACE ( 'NONE', #227, 0.005904909450000129893, 0.1745329251994324482 ) ;
ENDSEC;
END-ISO-10303-21;
