ISO-10303-21;
HEADER;
FILE_DESCRIPTION (( 'STEP AP214' ),
    '1' );
FILE_NAME ('82394.STEP',
    '2023-06-23T05:38:17',
    ( '' ),
    ( '' ),
    'SwSTEP 2.0',
    'SolidWorks 2023',
    '' );
FILE_SCHEMA (( 'AUTOMOTIVE_DESIGN' ));
ENDSEC;

DATA;
#1 = CARTESIAN_POINT ( 'NONE',  ( 0.000000000000000000, 0.000000000000000000, 0.000000000000000000 ) ) ;
#2 = PRESENTATION_STYLE_ASSIGNMENT (( #88 ) ) ;
#3 = CARTESIAN_POINT ( 'NONE',  ( 0.000000000000000000, 0.000000000000000000, 0.000000000000000000 ) ) ;
#4 = ORIENTED_EDGE ( 'NONE', *, *, #302, .T. ) ;
#5 = STYLED_ITEM ( 'NONE', ( #118 ), #292 ) ;
#6 = PLANE ( 'NONE',  #226 ) ;
#7 = VERTEX_POINT ( 'NONE', #52 ) ;
#8 = VERTEX_POINT ( 'NONE', #102 ) ;
#9 = DIMENSIONAL_EXPONENTS ( 1.000000000000000000, 0.000000000000000000, 0.000000000000000000, 0.000000000000000000, 0.000000000000000000, 0.000000000000000000, 0.000000000000000000 ) ;
#10 = SURFACE_STYLE_FILL_AREA ( #133 ) ;
#11 = CARTESIAN_POINT ( 'NONE',  ( 0.000000000000000000, 1.250000000000000000, 0.000000000000000000 ) ) ;
#12 = EDGE_CURVE ( 'NONE', #8, #225, #145, .T. ) ;
#13 = ADVANCED_FACE ( 'NONE', ( #276 ), #149, .T. ) ;
#14 = AXIS2_PLACEMENT_3D ( 'NONE', #109, #228, #132 ) ;
#15 =( GEOMETRIC_REPRESENTATION_CONTEXT ( 3 ) GLOBAL_UNCERTAINTY_ASSIGNED_CONTEXT ( ( #61 ) ) GLOBAL_UNIT_ASSIGNED_CONTEXT ( ( #202, #231, #179 ) ) REPRESENTATION_CONTEXT ( 'NONE', 'WORKASPACE' ) );
#16 =( CONVERSION_BASED_UNIT ( 'INCH', #281 ) LENGTH_UNIT ( ) NAMED_UNIT ( #220 ) );
#17 = DIRECTION ( 'NONE',  ( -0.000000000000000000, -1.000000000000000000, -0.000000000000000000 ) ) ;
#18 =( LENGTH_UNIT ( ) NAMED_UNIT ( * ) SI_UNIT ( $, .METRE. ) );
#19 = DIRECTION ( 'NONE',  ( -3.498990854706726443E-17, 1.000000000000000000, -0.000000000000000000 ) ) ;
#20 = CYLINDRICAL_SURFACE ( 'NONE', #307, 0.1562500000000000000 ) ;
#21 = AXIS2_PLACEMENT_3D ( 'NONE', #289, #191, #265 ) ;
#22 = DIRECTION ( 'NONE',  ( -1.000000000000000000, 0.000000000000000000, 0.000000000000000000 ) ) ;
#23 = FILL_AREA_STYLE ('',( #167 ) ) ;
#24 = SURFACE_SIDE_STYLE ('',( #46 ) ) ;
#25 = DIRECTION ( 'NONE',  ( 0.000000000000000000, 0.000000000000000000, -1.000000000000000000 ) ) ;
#26 = AXIS2_PLACEMENT_3D ( 'NONE', #189, #90, #162 ) ;
#27 = DIRECTION ( 'NONE',  ( 1.000000000000000000, 3.498990854706726443E-17, 0.000000000000000000 ) ) ;
#28 = FACE_OUTER_BOUND ( 'NONE', #244, .T. ) ;
#29 = PRESENTATION_STYLE_ASSIGNMENT (( #275 ) ) ;
#30 = SURFACE_STYLE_USAGE ( .BOTH. , #184 ) ;
#31 = PRODUCT_RELATED_PRODUCT_CATEGORY ( 'part', '', ( #264 ) ) ;
#32 = DIMENSIONAL_EXPONENTS ( 1.000000000000000000, 0.000000000000000000, 0.000000000000000000, 0.000000000000000000, 0.000000000000000000, 0.000000000000000000, 0.000000000000000000 ) ;
#33 = DIRECTION ( 'NONE',  ( 0.000000000000000000, 0.000000000000000000, -1.000000000000000000 ) ) ;
#34 = VERTEX_POINT ( 'NONE', #56 ) ;
#35 = ORIENTED_EDGE ( 'NONE', *, *, #302, .F. ) ;
#36 = DIRECTION ( 'NONE',  ( -3.498990854706726443E-17, 1.000000000000000000, -0.000000000000000000 ) ) ;
#37 = ORIENTED_EDGE ( 'NONE', *, *, #205, .F. ) ;
#38 = ADVANCED_BREP_SHAPE_REPRESENTATION ( '82394', ( #82, #292, #62 ), #246 ) ;
#39 =( NAMED_UNIT ( * ) PLANE_ANGLE_UNIT ( ) SI_UNIT ( $, .RADIAN. ) );
#40 = CLOSED_SHELL ( 'NONE', ( #144, #241, #129, #13 ) ) ;
#41 = ORIENTED_EDGE ( 'NONE', *, *, #43, .F. ) ;
#42 = AXIS2_PLACEMENT_3D ( 'NONE', #11, #57, #283 ) ;
#43 = EDGE_CURVE ( 'NONE', #225, #174, #146, .T. ) ;
#44 = CARTESIAN_POINT ( 'NONE',  ( -6.123233995736772199E-17, 3.000000000000000444, 0.000000000000000000 ) ) ;
#45 = EDGE_CURVE ( 'NONE', #8, #298, #172, .T. ) ;
#46 = SURFACE_STYLE_FILL_AREA ( #263 ) ;
#47 = SURFACE_SIDE_STYLE ('',( #290 ) ) ;
#48 = AXIS2_PLACEMENT_3D ( 'NONE', #3, #141, #33 ) ;
#49 = CARTESIAN_POINT ( 'NONE',  ( -0.1562500000000001110, 3.000000000000000444, 0.000000000000000000 ) ) ;
#50 = DIMENSIONAL_EXPONENTS ( 1.000000000000000000, 0.000000000000000000, 0.000000000000000000, 0.000000000000000000, 0.000000000000000000, 0.000000000000000000, 0.000000000000000000 ) ;
#51 = ORIENTED_EDGE ( 'NONE', *, *, #12, .T. ) ;
#52 = CARTESIAN_POINT ( 'NONE',  ( -0.1562500000000000000, 1.250000000000000000, 0.000000000000000000 ) ) ;
#53 = PRESENTATION_LAYER_ASSIGNMENT (  '', '', ( #299 ) ) ;
#54 = ORIENTED_EDGE ( 'NONE', *, *, #209, .F. ) ;
#55 = ORIENTED_EDGE ( 'NONE', *, *, #209, .T. ) ;
#56 = CARTESIAN_POINT ( 'NONE',  ( 0.1562500000000000000, 1.250000000000000000, 1.913510623667739771E-17 ) ) ;
#57 = DIRECTION ( 'NONE',  ( -0.000000000000000000, -1.000000000000000000, -0.000000000000000000 ) ) ;
#58 = PRESENTATION_STYLE_ASSIGNMENT (( #198 ) ) ;
#59 = MECHANICAL_DESIGN_GEOMETRIC_PRESENTATION_REPRESENTATION (  '', ( #299 ), #72 ) ;
#60 =( NAMED_UNIT ( * ) SI_UNIT ( $, .STERADIAN. ) SOLID_ANGLE_UNIT ( ) );
#61 = UNCERTAINTY_MEASURE_WITH_UNIT (LENGTH_MEASURE( 1.000000000000000082E-05 ), #202, 'distance_accuracy_value', 'NONE');
#62 = AXIS2_PLACEMENT_3D ( 'NONE', #113, #215, #158 ) ;
#63 = CARTESIAN_POINT ( 'NONE',  ( -0.1562500000000001388, 3.000000000000000444, 0.000000000000000000 ) ) ;
#64 = UNCERTAINTY_MEASURE_WITH_UNIT (LENGTH_MEASURE( 1.000000000000000082E-05 ), #193, 'distance_accuracy_value', 'NONE');
#65 = AXIS2_PLACEMENT_3D ( 'NONE', #185, #288, #27 ) ;
#66 = CARTESIAN_POINT ( 'NONE',  ( -6.123233995736772199E-17, 3.000000000000000444, 0.000000000000000000 ) ) ;
#67 = CARTESIAN_POINT ( 'NONE',  ( 0.000000000000000000, 1.250000000000000000, 0.000000000000000000 ) ) ;
#68 = FILL_AREA_STYLE ('',( #186 ) ) ;
#69 = FACE_OUTER_BOUND ( 'NONE', #173, .T. ) ;
#70 = AXIS2_PLACEMENT_3D ( 'NONE', #303, #157, #278 ) ;
#71 = CARTESIAN_POINT ( 'NONE',  ( 0.1562500000000000000, 3.000000000000000444, 1.913510623667739771E-17 ) ) ;
#72 =( GEOMETRIC_REPRESENTATION_CONTEXT ( 3 ) GLOBAL_UNCERTAINTY_ASSIGNED_CONTEXT ( ( #134 ) ) GLOBAL_UNIT_ASSIGNED_CONTEXT ( ( #103, #192, #194 ) ) REPRESENTATION_CONTEXT ( 'NONE', 'WORKASPACE' ) );
#73 =( LENGTH_UNIT ( ) NAMED_UNIT ( * ) SI_UNIT ( $, .METRE. ) );
#74 = EDGE_LOOP ( 'NONE', ( #120, #190 ) ) ;
#75 = DIRECTION ( 'NONE',  ( -3.498990854706726443E-17, 1.000000000000000000, -0.000000000000000000 ) ) ;
#76 = SURFACE_SIDE_STYLE ('',( #183 ) ) ;
#77 = EDGE_LOOP ( 'NONE', ( #219, #125, #223, #96 ) ) ;
#78 = MECHANICAL_DESIGN_GEOMETRIC_PRESENTATION_REPRESENTATION (  '', ( #136 ), #15 ) ;
#79 =( LENGTH_UNIT ( ) NAMED_UNIT ( * ) SI_UNIT ( $, .METRE. ) );
#80 =( NAMED_UNIT ( * ) SI_UNIT ( $, .STERADIAN. ) SOLID_ANGLE_UNIT ( ) );
#81 =( GEOMETRIC_REPRESENTATION_CONTEXT ( 3 ) GLOBAL_UNCERTAINTY_ASSIGNED_CONTEXT ( ( #64 ) ) GLOBAL_UNIT_ASSIGNED_CONTEXT ( ( #193, #39, #80 ) ) REPRESENTATION_CONTEXT ( 'NONE', 'WORKASPACE' ) );
#82 = MANIFOLD_SOLID_BREP ( 'Revolve - Cutting Edge', #40 ) ;
#83 = COLOUR_RGB ( '',0.7921568627450980005, 0.8196078431372548767, 0.9333333333333333481 ) ;
#84 = DIRECTION ( 'NONE',  ( -0.000000000000000000, -1.000000000000000000, -0.000000000000000000 ) ) ;
#85 = UNCERTAINTY_MEASURE_WITH_UNIT (LENGTH_MEASURE( 1.000000000000000082E-05 ), #260, 'distance_accuracy_value', 'NONE');
#86 = FACE_OUTER_BOUND ( 'NONE', #100, .T. ) ;
#87 = FILL_AREA_STYLE_COLOUR ( '', #139 ) ;
#88 = SURFACE_STYLE_USAGE ( .BOTH. , #47 ) ;
#89 = PRODUCT_CONTEXT ( 'NONE', #243, 'mechanical' ) ;
#90 = DIRECTION ( 'NONE',  ( -3.498990854706726443E-17, 1.000000000000000000, -0.000000000000000000 ) ) ;
#91 = EDGE_CURVE ( 'NONE', #277, #105, #159, .T. ) ;
#92 = DIRECTION ( 'NONE',  ( 0.000000000000000000, 0.000000000000000000, -1.000000000000000000 ) ) ;
#93 = PRODUCT_DEFINITION_CONTEXT ( 'detailed design', #261, 'design' ) ;
#94 = DIRECTION ( 'NONE',  ( 0.000000000000000000, 1.000000000000000000, 0.000000000000000000 ) ) ;
#95 = ADVANCED_FACE ( 'NONE', ( #107 ), #280, .F. ) ;
#96 = ORIENTED_EDGE ( 'NONE', *, *, #91, .F. ) ;
#97 =( NAMED_UNIT ( * ) PLANE_ANGLE_UNIT ( ) SI_UNIT ( $, .RADIAN. ) );
#98 = DIRECTION ( 'NONE',  ( 0.000000000000000000, 0.000000000000000000, -1.000000000000000000 ) ) ;
#99 = AXIS2_PLACEMENT_3D ( 'NONE', #67, #291, #160 ) ;
#100 = EDGE_LOOP ( 'NONE', ( #35, #142, #51, #37 ) ) ;
#101 = EDGE_CURVE ( 'NONE', #34, #7, #284, .T. ) ;
#102 = CARTESIAN_POINT ( 'NONE',  ( 0.000000000000000000, 1.250000000000000000, -0.1562500000000000000 ) ) ;
#103 =( CONVERSION_BASED_UNIT ( 'INCH', #240 ) LENGTH_UNIT ( ) NAMED_UNIT ( #9 ) );
#104 = ORIENTED_EDGE ( 'NONE', *, *, #234, .T. ) ;
#105 = VERTEX_POINT ( 'NONE', #63 ) ;
#106 = DIMENSIONAL_EXPONENTS ( 1.000000000000000000, 0.000000000000000000, 0.000000000000000000, 0.000000000000000000, 0.000000000000000000, 0.000000000000000000, 0.000000000000000000 ) ;
#107 = FACE_OUTER_BOUND ( 'NONE', #195, .T. ) ;
#108 =( GEOMETRIC_REPRESENTATION_CONTEXT ( 3 ) GLOBAL_UNCERTAINTY_ASSIGNED_CONTEXT ( ( #85 ) ) GLOBAL_UNIT_ASSIGNED_CONTEXT ( ( #260, #301, #60 ) ) REPRESENTATION_CONTEXT ( 'NONE', 'WORKASPACE' ) );
#109 = CARTESIAN_POINT ( 'NONE',  ( 0.000000000000000000, 0.000000000000000000, 0.000000000000000000 ) ) ;
#110 =( NAMED_UNIT ( * ) SI_UNIT ( $, .STERADIAN. ) SOLID_ANGLE_UNIT ( ) );
#111 = CIRCLE ( 'NONE', #26, 0.1562500000000000000 ) ;
#112 =( NAMED_UNIT ( * ) PLANE_ANGLE_UNIT ( ) SI_UNIT ( $, .RADIAN. ) );
#113 = CARTESIAN_POINT ( 'NONE',  ( 0.000000000000000000, 0.000000000000000000, 0.000000000000000000 ) ) ;
#114 = PRODUCT_DEFINITION ( 'UNKNOWN', '', #204, #93 ) ;
#115 = AXIS2_PLACEMENT_3D ( 'NONE', #66, #75, #216 ) ;
#116 =( NAMED_UNIT ( * ) PLANE_ANGLE_UNIT ( ) SI_UNIT ( $, .RADIAN. ) );
#117 = CARTESIAN_POINT ( 'NONE',  ( 0.1562499999999999722, 3.000000000000000444, 1.913510623667739771E-17 ) ) ;
#118 = PRESENTATION_STYLE_ASSIGNMENT (( #30 ) ) ;
#119 = CARTESIAN_POINT ( 'NONE',  ( 0.000000000000000000, 1.250000000000000000, 0.000000000000000000 ) ) ;
#120 = ORIENTED_EDGE ( 'NONE', *, *, #43, .T. ) ;
#121 = STYLED_ITEM ( 'NONE', ( #58 ), #13 ) ;
#122 = CARTESIAN_POINT ( 'NONE',  ( 1.913510623667739463E-17, 0.000000000000000000, 0.1562500000000000000 ) ) ;
#123 = PRESENTATION_LAYER_ASSIGNMENT (  '', '', ( #153 ) ) ;
#124 = ADVANCED_FACE ( 'NONE', ( #305 ), #266, .T. ) ;
#125 = ORIENTED_EDGE ( 'NONE', *, *, #101, .T. ) ;
#126 = ORIENTED_EDGE ( 'NONE', *, *, #210, .F. ) ;
#127 = MECHANICAL_DESIGN_GEOMETRIC_PRESENTATION_REPRESENTATION (  '', ( #5 ), #81 ) ;
#128 = ORIENTED_EDGE ( 'NONE', *, *, #101, .F. ) ;
#129 = ADVANCED_FACE ( 'NONE', ( #86 ), #20, .T. ) ;
#130 = CARTESIAN_POINT ( 'NONE',  ( 1.913510623667739463E-17, 1.250000000000000000, 0.1562500000000000000 ) ) ;
#131 = DIRECTION ( 'NONE',  ( -1.000000000000000000, 0.000000000000000000, 0.000000000000000000 ) ) ;
#132 = DIRECTION ( 'NONE',  ( 0.000000000000000000, 0.000000000000000000, -1.000000000000000000 ) ) ;
#133 = FILL_AREA_STYLE ('',( #180 ) ) ;
#134 = UNCERTAINTY_MEASURE_WITH_UNIT (LENGTH_MEASURE( 1.000000000000000082E-05 ), #103, 'distance_accuracy_value', 'NONE');
#135 = APPLICATION_PROTOCOL_DEFINITION ( 'draft international standard', 'automotive_design', 1998, #243 ) ;
#136 = STYLED_ITEM ( 'NONE', ( #203 ), #82 ) ;
#137 = PRESENTATION_STYLE_ASSIGNMENT (( #308 ) ) ;
#138 = DIRECTION ( 'NONE',  ( 0.000000000000000000, -0.000000000000000000, 1.000000000000000000 ) ) ;
#139 = COLOUR_RGB ( '',1.000000000000000000, 0.000000000000000000, 0.000000000000000000 ) ;
#140 = FACE_OUTER_BOUND ( 'NONE', #297, .T. ) ;
#141 = DIRECTION ( 'NONE',  ( -0.000000000000000000, -1.000000000000000000, -0.000000000000000000 ) ) ;
#142 = ORIENTED_EDGE ( 'NONE', *, *, #154, .T. ) ;
#143 = CARTESIAN_POINT ( 'NONE',  ( 0.000000000000000000, 0.000000000000000000, 0.000000000000000000 ) ) ;
#144 = ADVANCED_FACE ( 'NONE', ( #69 ), #208, .T. ) ;
#145 = LINE ( 'NONE', #248, #217 ) ;
#146 = CIRCLE ( 'NONE', #14, 0.1562500000000000000 ) ;
#147 = MECHANICAL_DESIGN_GEOMETRIC_PRESENTATION_REPRESENTATION (  '', ( #153 ), #155 ) ;
#148 = PRESENTATION_LAYER_ASSIGNMENT (  '', '', ( #229 ) ) ;
#149 = PLANE ( 'NONE',  #70 ) ;
#150 = ORIENTED_EDGE ( 'NONE', *, *, #199, .F. ) ;
#151 = DIRECTION ( 'NONE',  ( -0.000000000000000000, -1.000000000000000000, -0.000000000000000000 ) ) ;
#152 = ORIENTED_EDGE ( 'NONE', *, *, #91, .T. ) ;
#153 = STYLED_ITEM ( 'NONE', ( #2 ), #241 ) ;
#154 = EDGE_CURVE ( 'NONE', #298, #8, #279, .T. ) ;
#155 =( GEOMETRIC_REPRESENTATION_CONTEXT ( 3 ) GLOBAL_UNCERTAINTY_ASSIGNED_CONTEXT ( ( #218 ) ) GLOBAL_UNIT_ASSIGNED_CONTEXT ( ( #268, #116, #221 ) ) REPRESENTATION_CONTEXT ( 'NONE', 'WORKASPACE' ) );
#156 =( LENGTH_UNIT ( ) NAMED_UNIT ( * ) SI_UNIT ( $, .METRE. ) );
#157 = DIRECTION ( 'NONE',  ( 0.000000000000000000, -1.000000000000000000, -0.000000000000000000 ) ) ;
#158 = DIRECTION ( 'NONE',  ( 1.000000000000000000, 0.000000000000000000, 0.000000000000000000 ) ) ;
#159 = CIRCLE ( 'NONE', #239, 0.1562500000000000833 ) ;
#160 = DIRECTION ( 'NONE',  ( -1.000000000000000000, 0.000000000000000000, 0.000000000000000000 ) ) ;
#161 = UNCERTAINTY_MEASURE_WITH_UNIT (LENGTH_MEASURE( 1.000000000000000082E-05 ), #187, 'distance_accuracy_value', 'NONE');
#162 = DIRECTION ( 'NONE',  ( -1.000000000000000000, 0.000000000000000000, 0.000000000000000000 ) ) ;
#163 = APPLICATION_PROTOCOL_DEFINITION ( 'draft international standard', 'automotive_design', 1998, #261 ) ;
#164 = FILL_AREA_STYLE_COLOUR ( '', #213 ) ;
#165 = PRODUCT_DEFINITION_SHAPE ( 'NONE', 'NONE',  #114 ) ;
#166 = AXIS2_PLACEMENT_3D ( 'NONE', #119, #17, #25 ) ;
#167 = FILL_AREA_STYLE_COLOUR ( '', #232 ) ;
#168 = ORIENTED_EDGE ( 'NONE', *, *, #199, .T. ) ;
#169 = LINE ( 'NONE', #49, #294 ) ;
#170 = DIMENSIONAL_EXPONENTS ( 1.000000000000000000, 0.000000000000000000, 0.000000000000000000, 0.000000000000000000, 0.000000000000000000, 0.000000000000000000, 0.000000000000000000 ) ;
#171 = DIRECTION ( 'NONE',  ( -0.000000000000000000, -1.000000000000000000, -0.000000000000000000 ) ) ;
#172 = CIRCLE ( 'NONE', #42, 0.1562500000000000000 ) ;
#173 = EDGE_LOOP ( 'NONE', ( #222, #4, #41, #254 ) ) ;
#174 = VERTEX_POINT ( 'NONE', #122 ) ;
#175 = FACE_OUTER_BOUND ( 'NONE', #274, .T. ) ;
#176 = LENGTH_MEASURE_WITH_UNIT ( LENGTH_MEASURE( 0.02539999999999999897 ), #18 );
#177 = CARTESIAN_POINT ( 'NONE',  ( 1.913510623667739463E-17, 0.000000000000000000, 0.1562500000000000000 ) ) ;
#178 = CIRCLE ( 'NONE', #115, 0.1562500000000000833 ) ;
#179 =( NAMED_UNIT ( * ) SI_UNIT ( $, .STERADIAN. ) SOLID_ANGLE_UNIT ( ) );
#180 = FILL_AREA_STYLE_COLOUR ( '', #257 ) ;
#181 = CIRCLE ( 'NONE', #200, 0.1562500000000000000 ) ;
#182 = SURFACE_STYLE_USAGE ( .BOTH. , #201 ) ;
#183 = SURFACE_STYLE_FILL_AREA ( #270 ) ;
#184 = SURFACE_SIDE_STYLE ('',( #238 ) ) ;
#185 = CARTESIAN_POINT ( 'NONE',  ( 0.1562500000000000000, 3.000000000000000444, 0.000000000000000000 ) ) ;
#186 = FILL_AREA_STYLE_COLOUR ( '', #83 ) ;
#187 =( CONVERSION_BASED_UNIT ( 'INCH', #235 ) LENGTH_UNIT ( ) NAMED_UNIT ( #50 ) );
#188 = LINE ( 'NONE', #117, #287 ) ;
#189 = CARTESIAN_POINT ( 'NONE',  ( 0.000000000000000000, 1.250000000000000000, 0.000000000000000000 ) ) ;
#190 = ORIENTED_EDGE ( 'NONE', *, *, #205, .T. ) ;
#191 = DIRECTION ( 'NONE',  ( -3.498990854706726443E-17, 1.000000000000000000, 0.000000000000000000 ) ) ;
#192 =( NAMED_UNIT ( * ) PLANE_ANGLE_UNIT ( ) SI_UNIT ( $, .RADIAN. ) );
#193 =( CONVERSION_BASED_UNIT ( 'INCH', #224 ) LENGTH_UNIT ( ) NAMED_UNIT ( #170 ) );
#194 =( NAMED_UNIT ( * ) SI_UNIT ( $, .STERADIAN. ) SOLID_ANGLE_UNIT ( ) );
#195 = EDGE_LOOP ( 'NONE', ( #168, #152 ) ) ;
#196 = MECHANICAL_DESIGN_GEOMETRIC_PRESENTATION_REPRESENTATION (  '', ( #229 ), #258 ) ;
#197 = DIMENSIONAL_EXPONENTS ( 1.000000000000000000, 0.000000000000000000, 0.000000000000000000, 0.000000000000000000, 0.000000000000000000, 0.000000000000000000, 0.000000000000000000 ) ;
#198 = SURFACE_STYLE_USAGE ( .BOTH. , #282 ) ;
#199 = EDGE_CURVE ( 'NONE', #105, #277, #178, .T. ) ;
#200 = AXIS2_PLACEMENT_3D ( 'NONE', #143, #293, #98 ) ;
#201 = SURFACE_SIDE_STYLE ('',( #10 ) ) ;
#202 =( CONVERSION_BASED_UNIT ( 'INCH', #259 ) LENGTH_UNIT ( ) NAMED_UNIT ( #106 ) );
#203 = PRESENTATION_STYLE_ASSIGNMENT (( #182 ) ) ;
#204 = PRODUCT_DEFINITION_FORMATION_WITH_SPECIFIED_SOURCE ( 'ANY', '', #264, .NOT_KNOWN. ) ;
#205 = EDGE_CURVE ( 'NONE', #174, #225, #181, .T. ) ;
#206 = MECHANICAL_DESIGN_GEOMETRIC_PRESENTATION_REPRESENTATION (  '', ( #121 ), #108 ) ;
#207 = AXIS2_PLACEMENT_3D ( 'NONE', #236, #214, #22 ) ;
#208 = CYLINDRICAL_SURFACE ( 'NONE', #48, 0.1562500000000000000 ) ;
#209 = EDGE_CURVE ( 'NONE', #7, #34, #111, .T. ) ;
#210 = EDGE_CURVE ( 'NONE', #7, #105, #169, .T. ) ;
#211 = DIRECTION ( 'NONE',  ( -3.498990854706726443E-17, 1.000000000000000000, -0.000000000000000000 ) ) ;
#212 = AXIS2_PLACEMENT_3D ( 'NONE', #227, #36, #250 ) ;
#213 = COLOUR_RGB ( '',1.000000000000000000, 0.000000000000000000, 0.000000000000000000 ) ;
#214 = DIRECTION ( 'NONE',  ( -3.498990854706726443E-17, 1.000000000000000000, -0.000000000000000000 ) ) ;
#215 = DIRECTION ( 'NONE',  ( 0.000000000000000000, 0.000000000000000000, 1.000000000000000000 ) ) ;
#216 = DIRECTION ( 'NONE',  ( -1.000000000000000000, 0.000000000000000000, 0.000000000000000000 ) ) ;
#217 = VECTOR ( 'NONE', #171, 39.37007874015748143 ) ;
#218 = UNCERTAINTY_MEASURE_WITH_UNIT (LENGTH_MEASURE( 1.000000000000000082E-05 ), #268, 'distance_accuracy_value', 'NONE');
#219 = ORIENTED_EDGE ( 'NONE', *, *, #234, .F. ) ;
#220 = DIMENSIONAL_EXPONENTS ( 1.000000000000000000, 0.000000000000000000, 0.000000000000000000, 0.000000000000000000, 0.000000000000000000, 0.000000000000000000, 0.000000000000000000 ) ;
#221 =( NAMED_UNIT ( * ) SI_UNIT ( $, .STERADIAN. ) SOLID_ANGLE_UNIT ( ) );
#222 = ORIENTED_EDGE ( 'NONE', *, *, #45, .T. ) ;
#223 = ORIENTED_EDGE ( 'NONE', *, *, #210, .T. ) ;
#224 = LENGTH_MEASURE_WITH_UNIT ( LENGTH_MEASURE( 0.02539999999999999897 ), #79 );
#225 = VERTEX_POINT ( 'NONE', #306 ) ;
#226 = AXIS2_PLACEMENT_3D ( 'NONE', #309, #94, #138 ) ;
#227 = CARTESIAN_POINT ( 'NONE',  ( -6.123233995736772199E-17, 3.000000000000000444, 0.000000000000000000 ) ) ;
#228 = DIRECTION ( 'NONE',  ( -0.000000000000000000, -1.000000000000000000, -0.000000000000000000 ) ) ;
#229 = STYLED_ITEM ( 'NONE', ( #137 ), #129 ) ;
#230 = ADVANCED_FACE ( 'NONE', ( #28 ), #271, .F. ) ;
#231 =( NAMED_UNIT ( * ) PLANE_ANGLE_UNIT ( ) SI_UNIT ( $, .RADIAN. ) );
#232 = COLOUR_RGB ( '',1.000000000000000000, 0.000000000000000000, 0.000000000000000000 ) ;
#233 = SHAPE_DEFINITION_REPRESENTATION ( #165, #38 ) ;
#234 = EDGE_CURVE ( 'NONE', #34, #277, #188, .T. ) ;
#235 = LENGTH_MEASURE_WITH_UNIT ( LENGTH_MEASURE( 0.02539999999999999897 ), #286 );
#236 = CARTESIAN_POINT ( 'NONE',  ( -6.123233995736772199E-17, 3.000000000000000444, 0.000000000000000000 ) ) ;
#237 = UNCERTAINTY_MEASURE_WITH_UNIT (LENGTH_MEASURE( 1.000000000000000082E-05 ), #16, 'distance_accuracy_value', 'NONE');
#238 = SURFACE_STYLE_FILL_AREA ( #68 ) ;
#239 = AXIS2_PLACEMENT_3D ( 'NONE', #44, #19, #131 ) ;
#240 = LENGTH_MEASURE_WITH_UNIT ( LENGTH_MEASURE( 0.02539999999999999897 ), #73 );
#241 = ADVANCED_FACE ( 'NONE', ( #140 ), #6, .T. ) ;
#242 = CYLINDRICAL_SURFACE ( 'NONE', #212, 0.1562500000000000278 ) ;
#243 = APPLICATION_CONTEXT ( 'automotive_design' ) ;
#244 = EDGE_LOOP ( 'NONE', ( #54, #128 ) ) ;
#245 = LENGTH_MEASURE_WITH_UNIT ( LENGTH_MEASURE( 0.02539999999999999897 ), #273 );
#246 =( GEOMETRIC_REPRESENTATION_CONTEXT ( 3 ) GLOBAL_UNCERTAINTY_ASSIGNED_CONTEXT ( ( #237 ) ) GLOBAL_UNIT_ASSIGNED_CONTEXT ( ( #16, #97, #295 ) ) REPRESENTATION_CONTEXT ( 'NONE', 'WORKASPACE' ) );
#247 = CLOSED_SHELL ( 'NONE', ( #296, #230, #124, #95 ) ) ;
#248 = CARTESIAN_POINT ( 'NONE',  ( 0.000000000000000000, 0.000000000000000000, -0.1562500000000000000 ) ) ;
#249 = PRESENTATION_LAYER_ASSIGNMENT (  '', '', ( #136 ) ) ;
#250 = DIRECTION ( 'NONE',  ( -1.000000000000000000, 0.000000000000000000, 0.000000000000000000 ) ) ;
#251 = FILL_AREA_STYLE_COLOUR ( '', #262 ) ;
#252 = ORIENTED_EDGE ( 'NONE', *, *, #154, .F. ) ;
#253 =( LENGTH_UNIT ( ) NAMED_UNIT ( * ) SI_UNIT ( $, .METRE. ) );
#254 = ORIENTED_EDGE ( 'NONE', *, *, #12, .F. ) ;
#255 = LINE ( 'NONE', #177, #304 ) ;
#256 = FILL_AREA_STYLE ('',( #251 ) ) ;
#257 = COLOUR_RGB ( '',0.7921568627450980005, 0.8196078431372548767, 0.9333333333333333481 ) ;
#258 =( GEOMETRIC_REPRESENTATION_CONTEXT ( 3 ) GLOBAL_UNCERTAINTY_ASSIGNED_CONTEXT ( ( #161 ) ) GLOBAL_UNIT_ASSIGNED_CONTEXT ( ( #187, #112, #110 ) ) REPRESENTATION_CONTEXT ( 'NONE', 'WORKASPACE' ) );
#259 = LENGTH_MEASURE_WITH_UNIT ( LENGTH_MEASURE( 0.02539999999999999897 ), #156 );
#260 =( CONVERSION_BASED_UNIT ( 'INCH', #176 ) LENGTH_UNIT ( ) NAMED_UNIT ( #32 ) );
#261 = APPLICATION_CONTEXT ( 'automotive_design' ) ;
#262 = COLOUR_RGB ( '',1.000000000000000000, 0.000000000000000000, 0.000000000000000000 ) ;
#263 = FILL_AREA_STYLE ('',( #87 ) ) ;
#264 = PRODUCT ( '82394', '82394', '', ( #89 ) ) ;
#265 = DIRECTION ( 'NONE',  ( -1.000000000000000000, -3.498990854706726443E-17, 0.000000000000000000 ) ) ;
#266 = CYLINDRICAL_SURFACE ( 'NONE', #207, 0.1562500000000000278 ) ;
#267 = DIRECTION ( 'NONE',  ( -3.498990854706726443E-17, 1.000000000000000000, -0.000000000000000000 ) ) ;
#268 =( CONVERSION_BASED_UNIT ( 'INCH', #245 ) LENGTH_UNIT ( ) NAMED_UNIT ( #197 ) );
#269 = PRESENTATION_LAYER_ASSIGNMENT (  '', '', ( #5 ) ) ;
#270 = FILL_AREA_STYLE ('',( #164 ) ) ;
#271 = PLANE ( 'NONE',  #21 ) ;
#272 = ORIENTED_EDGE ( 'NONE', *, *, #45, .F. ) ;
#273 =( LENGTH_UNIT ( ) NAMED_UNIT ( * ) SI_UNIT ( $, .METRE. ) );
#274 = EDGE_LOOP ( 'NONE', ( #55, #104, #150, #126 ) ) ;
#275 = SURFACE_STYLE_USAGE ( .BOTH. , #76 ) ;
#276 = FACE_OUTER_BOUND ( 'NONE', #74, .T. ) ;
#277 = VERTEX_POINT ( 'NONE', #71 ) ;
#278 = DIRECTION ( 'NONE',  ( 0.000000000000000000, 0.000000000000000000, -1.000000000000000000 ) ) ;
#279 = CIRCLE ( 'NONE', #166, 0.1562500000000000000 ) ;
#280 = PLANE ( 'NONE',  #65 ) ;
#281 = LENGTH_MEASURE_WITH_UNIT ( LENGTH_MEASURE( 0.02539999999999999897 ), #253 );
#282 = SURFACE_SIDE_STYLE ('',( #285 ) ) ;
#283 = DIRECTION ( 'NONE',  ( 0.000000000000000000, 0.000000000000000000, -1.000000000000000000 ) ) ;
#284 = CIRCLE ( 'NONE', #99, 0.1562500000000000000 ) ;
#285 = SURFACE_STYLE_FILL_AREA ( #256 ) ;
#286 =( LENGTH_UNIT ( ) NAMED_UNIT ( * ) SI_UNIT ( $, .METRE. ) );
#287 = VECTOR ( 'NONE', #211, 39.37007874015748143 ) ;
#288 = DIRECTION ( 'NONE',  ( 3.498990854706726443E-17, -1.000000000000000000, 0.000000000000000000 ) ) ;
#289 = CARTESIAN_POINT ( 'NONE',  ( 9.564794532282272738E-35, 1.250000000000000000, 0.000000000000000000 ) ) ;
#290 = SURFACE_STYLE_FILL_AREA ( #23 ) ;
#291 = DIRECTION ( 'NONE',  ( -3.498990854706726443E-17, 1.000000000000000000, -0.000000000000000000 ) ) ;
#292 = MANIFOLD_SOLID_BREP ( 'Revolve - Tool Body (Straight Shanked)', #247 ) ;
#293 = DIRECTION ( 'NONE',  ( -0.000000000000000000, -1.000000000000000000, -0.000000000000000000 ) ) ;
#294 = VECTOR ( 'NONE', #267, 39.37007874015748143 ) ;
#295 =( NAMED_UNIT ( * ) SI_UNIT ( $, .STERADIAN. ) SOLID_ANGLE_UNIT ( ) );
#296 = ADVANCED_FACE ( 'NONE', ( #175 ), #242, .T. ) ;
#297 = EDGE_LOOP ( 'NONE', ( #272, #252 ) ) ;
#298 = VERTEX_POINT ( 'NONE', #130 ) ;
#299 = STYLED_ITEM ( 'NONE', ( #29 ), #144 ) ;
#300 = PRESENTATION_LAYER_ASSIGNMENT (  '', '', ( #121 ) ) ;
#301 =( NAMED_UNIT ( * ) PLANE_ANGLE_UNIT ( ) SI_UNIT ( $, .RADIAN. ) );
#302 = EDGE_CURVE ( 'NONE', #298, #174, #255, .T. ) ;
#303 = CARTESIAN_POINT ( 'NONE',  ( 0.000000000000000000, 0.000000000000000000, 0.000000000000000000 ) ) ;
#304 = VECTOR ( 'NONE', #151, 39.37007874015748143 ) ;
#305 = FACE_OUTER_BOUND ( 'NONE', #77, .T. ) ;
#306 = CARTESIAN_POINT ( 'NONE',  ( 0.000000000000000000, 0.000000000000000000, -0.1562500000000000000 ) ) ;
#307 = AXIS2_PLACEMENT_3D ( 'NONE', #1, #84, #92 ) ;
#308 = SURFACE_STYLE_USAGE ( .BOTH. , #24 ) ;
#309 = CARTESIAN_POINT ( 'NONE',  ( 0.000000000000000000, 1.250000000000000000, 0.000000000000000000 ) ) ;
ENDSEC;
END-ISO-10303-21;
