ISO-10303-21;
HEADER;
FILE_DESCRIPTION (( 'STEP AP214' ),
    '1' );
FILE_NAME ('59940.STEP',
    '2023-06-23T00:05:26',
    ( '' ),
    ( '' ),
    'SwSTEP 2.0',
    'SolidWorks 2023',
    '' );
FILE_SCHEMA (( 'AUTOMOTIVE_DESIGN' ));
ENDSEC;

DATA;
#1 = CARTESIAN_POINT ( 'NONE',  ( 0.000000000000000000, 0.5000000000000000000, -0.1250000000000000000 ) ) ;
#2 = CLOSED_SHELL ( 'NONE', ( #65, #157, #255, #122 ) ) ;
#3 = STYLED_ITEM ( 'NONE', ( #118 ), #141 ) ;
#4 = FILL_AREA_STYLE ('',( #128 ) ) ;
#5 = LENGTH_MEASURE_WITH_UNIT ( LENGTH_MEASURE( 0.02539999999999999897 ), #77 );
#6 = AXIS2_PLACEMENT_3D ( 'NONE', #31, #25, #267 ) ;
#7 = CARTESIAN_POINT ( 'NONE',  ( 0.000000000000000000, 0.5000000000000000000, 0.000000000000000000 ) ) ;
#8 =( GEOMETRIC_REPRESENTATION_CONTEXT ( 3 ) GLOBAL_UNCERTAINTY_ASSIGNED_CONTEXT ( ( #295 ) ) GLOBAL_UNIT_ASSIGNED_CONTEXT ( ( #189, #190, #192 ) ) REPRESENTATION_CONTEXT ( 'NONE', 'WORKASPACE' ) );
#9 = DIRECTION ( 'NONE',  ( 1.632862398863137774E-16, 1.000000000000000000, -0.000000000000000000 ) ) ;
#10 = ORIENTED_EDGE ( 'NONE', *, *, #299, .F. ) ;
#11 = ADVANCED_FACE ( 'NONE', ( #37 ), #134, .T. ) ;
#12 = CARTESIAN_POINT ( 'NONE',  ( 1.530808498934191509E-17, 0.000000000000000000, 0.1250000000000000000 ) ) ;
#13 = VERTEX_POINT ( 'NONE', #64 ) ;
#14 =( LENGTH_UNIT ( ) NAMED_UNIT ( * ) SI_UNIT ( $, .METRE. ) );
#15 = APPLICATION_PROTOCOL_DEFINITION ( 'draft international standard', 'automotive_design', 1998, #173 ) ;
#16 =( CONVERSION_BASED_UNIT ( 'INCH', #278 ) LENGTH_UNIT ( ) NAMED_UNIT ( #126 ) );
#17 = PRESENTATION_STYLE_ASSIGNMENT (( #229 ) ) ;
#18 = MECHANICAL_DESIGN_GEOMETRIC_PRESENTATION_REPRESENTATION (  '', ( #108 ), #208 ) ;
#19 = CARTESIAN_POINT ( 'NONE',  ( 0.000000000000000000, 0.000000000000000000, -0.1250000000000000000 ) ) ;
#20 = EDGE_CURVE ( 'NONE', #54, #305, #199, .T. ) ;
#21 = DIRECTION ( 'NONE',  ( -0.000000000000000000, -1.000000000000000000, -0.000000000000000000 ) ) ;
#22 = CARTESIAN_POINT ( 'NONE',  ( 0.000000000000000000, 0.5000000000000000000, 0.000000000000000000 ) ) ;
#23 = CARTESIAN_POINT ( 'NONE',  ( 2.449293598294706414E-16, 2.000000000000000000, 0.000000000000000000 ) ) ;
#24 = AXIS2_PLACEMENT_3D ( 'NONE', #94, #303, #133 ) ;
#25 = DIRECTION ( 'NONE',  ( 1.632862398863137774E-16, 1.000000000000000000, -0.000000000000000000 ) ) ;
#26 = AXIS2_PLACEMENT_3D ( 'NONE', #209, #167, #95 ) ;
#27 = UNCERTAINTY_MEASURE_WITH_UNIT (LENGTH_MEASURE( 1.000000000000000082E-05 ), #256, 'distance_accuracy_value', 'NONE');
#28 = CARTESIAN_POINT ( 'NONE',  ( 1.530808498934191509E-17, 0.000000000000000000, 0.1250000000000000000 ) ) ;
#29 = SURFACE_SIDE_STYLE ('',( #195 ) ) ;
#30 = ORIENTED_EDGE ( 'NONE', *, *, #148, .F. ) ;
#31 = CARTESIAN_POINT ( 'NONE',  ( 1.666399758513175690E-33, 0.5000000000000000000, 0.000000000000000000 ) ) ;
#32 = DIMENSIONAL_EXPONENTS ( 1.000000000000000000, 0.000000000000000000, 0.000000000000000000, 0.000000000000000000, 0.000000000000000000, 0.000000000000000000, 0.000000000000000000 ) ;
#33 = CIRCLE ( 'NONE', #234, 0.1249999999999997641 ) ;
#34 = EDGE_LOOP ( 'NONE', ( #130, #154 ) ) ;
#35 = ORIENTED_EDGE ( 'NONE', *, *, #75, .F. ) ;
#36 =( NAMED_UNIT ( * ) SI_UNIT ( $, .STERADIAN. ) SOLID_ANGLE_UNIT ( ) );
#37 = FACE_OUTER_BOUND ( 'NONE', #194, .T. ) ;
#38 = PRESENTATION_STYLE_ASSIGNMENT (( #107 ) ) ;
#39 = FILL_AREA_STYLE_COLOUR ( '', #83 ) ;
#40 = ORIENTED_EDGE ( 'NONE', *, *, #132, .F. ) ;
#41 = ADVANCED_FACE ( 'NONE', ( #300 ), #85, .T. ) ;
#42 = CIRCLE ( 'NONE', #88, 0.1250000000000000000 ) ;
#43 = DIRECTION ( 'NONE',  ( 1.632862398863137774E-16, 1.000000000000000000, -0.000000000000000000 ) ) ;
#44 = CARTESIAN_POINT ( 'NONE',  ( 2.449293598294706414E-16, 2.000000000000000000, 0.000000000000000000 ) ) ;
#45 = SURFACE_SIDE_STYLE ('',( #96 ) ) ;
#46 =( GEOMETRIC_REPRESENTATION_CONTEXT ( 3 ) GLOBAL_UNCERTAINTY_ASSIGNED_CONTEXT ( ( #222 ) ) GLOBAL_UNIT_ASSIGNED_CONTEXT ( ( #216, #123, #211 ) ) REPRESENTATION_CONTEXT ( 'NONE', 'WORKASPACE' ) );
#47 = AXIS2_PLACEMENT_3D ( 'NONE', #23, #48, #74 ) ;
#48 = DIRECTION ( 'NONE',  ( 1.632862398863137774E-16, 1.000000000000000000, -0.000000000000000000 ) ) ;
#49 = CARTESIAN_POINT ( 'NONE',  ( 1.530808498934191509E-17, 0.5000000000000000000, 0.1250000000000000000 ) ) ;
#50 = VERTEX_POINT ( 'NONE', #281 ) ;
#51 = PRODUCT_DEFINITION_FORMATION_WITH_SPECIFIED_SOURCE ( 'ANY', '', #227, .NOT_KNOWN. ) ;
#52 = SURFACE_STYLE_USAGE ( .BOTH. , #29 ) ;
#53 = VERTEX_POINT ( 'NONE', #1 ) ;
#54 = VERTEX_POINT ( 'NONE', #170 ) ;
#55 = PRODUCT_DEFINITION_CONTEXT ( 'detailed design', #273, 'design' ) ;
#56 = MECHANICAL_DESIGN_GEOMETRIC_PRESENTATION_REPRESENTATION (  '', ( #80 ), #307 ) ;
#57 =( NAMED_UNIT ( * ) PLANE_ANGLE_UNIT ( ) SI_UNIT ( $, .RADIAN. ) );
#58 = MECHANICAL_DESIGN_GEOMETRIC_PRESENTATION_REPRESENTATION (  '', ( #257 ), #8 ) ;
#59 = UNCERTAINTY_MEASURE_WITH_UNIT (LENGTH_MEASURE( 1.000000000000000082E-05 ), #169, 'distance_accuracy_value', 'NONE');
#60 = EDGE_LOOP ( 'NONE', ( #224, #226 ) ) ;
#61 = CARTESIAN_POINT ( 'NONE',  ( -0.1249999999999995143, 2.000000000000000000, 0.000000000000000000 ) ) ;
#62 =( NAMED_UNIT ( * ) PLANE_ANGLE_UNIT ( ) SI_UNIT ( $, .RADIAN. ) );
#63 = AXIS2_PLACEMENT_3D ( 'NONE', #121, #91, #149 ) ;
#64 = CARTESIAN_POINT ( 'NONE',  ( 0.1249999999999999861, 2.000000000000000000, 1.530808498934190893E-17 ) ) ;
#65 = ADVANCED_FACE ( 'NONE', ( #146 ), #70, .T. ) ;
#66 = PRESENTATION_STYLE_ASSIGNMENT (( #276 ) ) ;
#67 = PRESENTATION_LAYER_ASSIGNMENT (  '', '', ( #108 ) ) ;
#68 = STYLED_ITEM ( 'NONE', ( #106 ), #204 ) ;
#69 = FILL_AREA_STYLE_COLOUR ( '', #176 ) ;
#70 = CYLINDRICAL_SURFACE ( 'NONE', #47, 0.1249999999999998751 ) ;
#71 = CARTESIAN_POINT ( 'NONE',  ( 0.1250000000000000000, 2.000000000000000000, 0.000000000000000000 ) ) ;
#72 = LINE ( 'NONE', #28, #193 ) ;
#73 = MECHANICAL_DESIGN_GEOMETRIC_PRESENTATION_REPRESENTATION (  '', ( #3 ), #219 ) ;
#74 = DIRECTION ( 'NONE',  ( -1.000000000000000000, 0.000000000000000000, 0.000000000000000000 ) ) ;
#75 = EDGE_CURVE ( 'NONE', #131, #53, #200, .T. ) ;
#76 = SURFACE_STYLE_USAGE ( .BOTH. , #264 ) ;
#77 =( LENGTH_UNIT ( ) NAMED_UNIT ( * ) SI_UNIT ( $, .METRE. ) );
#78 = EDGE_LOOP ( 'NONE', ( #140, #265, #246, #241 ) ) ;
#79 = DIMENSIONAL_EXPONENTS ( 1.000000000000000000, 0.000000000000000000, 0.000000000000000000, 0.000000000000000000, 0.000000000000000000, 0.000000000000000000, 0.000000000000000000 ) ;
#80 = STYLED_ITEM ( 'NONE', ( #291 ), #230 ) ;
#81 = ORIENTED_EDGE ( 'NONE', *, *, #132, .T. ) ;
#82 = DIRECTION ( 'NONE',  ( 0.000000000000000000, 1.000000000000000000, 0.000000000000000000 ) ) ;
#83 = COLOUR_RGB ( '',1.000000000000000000, 0.000000000000000000, 0.000000000000000000 ) ;
#84 = CIRCLE ( 'NONE', #258, 0.1250000000000000000 ) ;
#85 = PLANE ( 'NONE',  #26 ) ;
#86 = CARTESIAN_POINT ( 'NONE',  ( 0.1250000000000001110, 2.000000000000000000, 1.530808498934189968E-17 ) ) ;
#87 = DIRECTION ( 'NONE',  ( -0.000000000000000000, -1.000000000000000000, -0.000000000000000000 ) ) ;
#88 = AXIS2_PLACEMENT_3D ( 'NONE', #129, #177, #181 ) ;
#89 = EDGE_CURVE ( 'NONE', #13, #305, #33, .T. ) ;
#90 = ORIENTED_EDGE ( 'NONE', *, *, #262, .F. ) ;
#91 = DIRECTION ( 'NONE',  ( -0.000000000000000000, -1.000000000000000000, -0.000000000000000000 ) ) ;
#92 = LENGTH_MEASURE_WITH_UNIT ( LENGTH_MEASURE( 0.02539999999999999897 ), #144 );
#93 = PRESENTATION_LAYER_ASSIGNMENT (  '', '', ( #68 ) ) ;
#94 = CARTESIAN_POINT ( 'NONE',  ( 0.000000000000000000, 0.000000000000000000, 0.000000000000000000 ) ) ;
#95 = DIRECTION ( 'NONE',  ( 0.000000000000000000, 0.000000000000000000, -1.000000000000000000 ) ) ;
#96 = SURFACE_STYLE_FILL_AREA ( #205 ) ;
#97 = CARTESIAN_POINT ( 'NONE',  ( 0.000000000000000000, 0.000000000000000000, 0.000000000000000000 ) ) ;
#98 = DIRECTION ( 'NONE',  ( 1.000000000000000000, 0.000000000000000000, 0.000000000000000000 ) ) ;
#99 = EDGE_CURVE ( 'NONE', #244, #292, #304, .T. ) ;
#100 = CARTESIAN_POINT ( 'NONE',  ( 2.449293598294706414E-16, 2.000000000000000000, 0.000000000000000000 ) ) ;
#101 = APPLICATION_PROTOCOL_DEFINITION ( 'draft international standard', 'automotive_design', 1998, #273 ) ;
#102 = DIRECTION ( 'NONE',  ( -1.000000000000000000, 0.000000000000000000, 0.000000000000000000 ) ) ;
#103 = DIMENSIONAL_EXPONENTS ( 1.000000000000000000, 0.000000000000000000, 0.000000000000000000, 0.000000000000000000, 0.000000000000000000, 0.000000000000000000, 0.000000000000000000 ) ;
#104 = CARTESIAN_POINT ( 'NONE',  ( 0.000000000000000000, 0.5000000000000001110, 0.000000000000000000 ) ) ;
#105 = AXIS2_PLACEMENT_3D ( 'NONE', #97, #187, #172 ) ;
#106 = PRESENTATION_STYLE_ASSIGNMENT (( #76 ) ) ;
#107 = SURFACE_STYLE_USAGE ( .BOTH. , #145 ) ;
#108 = STYLED_ITEM ( 'NONE', ( #38 ), #233 ) ;
#109 = DIRECTION ( 'NONE',  ( -0.000000000000000000, -1.000000000000000000, -0.000000000000000000 ) ) ;
#110 = SURFACE_SIDE_STYLE ('',( #184 ) ) ;
#111 =( GEOMETRIC_REPRESENTATION_CONTEXT ( 3 ) GLOBAL_UNCERTAINTY_ASSIGNED_CONTEXT ( ( #27 ) ) GLOBAL_UNIT_ASSIGNED_CONTEXT ( ( #256, #62, #143 ) ) REPRESENTATION_CONTEXT ( 'NONE', 'WORKASPACE' ) );
#112 = FILL_AREA_STYLE ('',( #69 ) ) ;
#113 = DIRECTION ( 'NONE',  ( 0.000000000000000000, 0.000000000000000000, -1.000000000000000000 ) ) ;
#114 = SURFACE_STYLE_FILL_AREA ( #116 ) ;
#115 = COLOUR_RGB ( '',1.000000000000000000, 0.000000000000000000, 0.000000000000000000 ) ;
#116 = FILL_AREA_STYLE ('',( #254 ) ) ;
#117 = FILL_AREA_STYLE_COLOUR ( '', #203 ) ;
#118 = PRESENTATION_STYLE_ASSIGNMENT (( #147 ) ) ;
#119 = LINE ( 'NONE', #86, #166 ) ;
#120 =( NAMED_UNIT ( * ) PLANE_ANGLE_UNIT ( ) SI_UNIT ( $, .RADIAN. ) );
#121 = CARTESIAN_POINT ( 'NONE',  ( 0.000000000000000000, 0.5000000000000000000, 0.000000000000000000 ) ) ;
#122 = ADVANCED_FACE ( 'NONE', ( #259 ), #263, .F. ) ;
#123 =( NAMED_UNIT ( * ) PLANE_ANGLE_UNIT ( ) SI_UNIT ( $, .RADIAN. ) );
#124 = CIRCLE ( 'NONE', #24, 0.1250000000000000000 ) ;
#125 =( LENGTH_UNIT ( ) NAMED_UNIT ( * ) SI_UNIT ( $, .METRE. ) );
#126 = DIMENSIONAL_EXPONENTS ( 1.000000000000000000, 0.000000000000000000, 0.000000000000000000, 0.000000000000000000, 0.000000000000000000, 0.000000000000000000, 0.000000000000000000 ) ;
#127 = EDGE_LOOP ( 'NONE', ( #90, #35 ) ) ;
#128 = FILL_AREA_STYLE_COLOUR ( '', #142 ) ;
#129 = CARTESIAN_POINT ( 'NONE',  ( 0.000000000000000000, 0.5000000000000001110, 0.000000000000000000 ) ) ;
#130 = ORIENTED_EDGE ( 'NONE', *, *, #299, .T. ) ;
#131 = VERTEX_POINT ( 'NONE', #49 ) ;
#132 = EDGE_CURVE ( 'NONE', #53, #292, #150, .T. ) ;
#133 = DIRECTION ( 'NONE',  ( 0.000000000000000000, 0.000000000000000000, -1.000000000000000000 ) ) ;
#134 = CYLINDRICAL_SURFACE ( 'NONE', #301, 0.1250000000000000000 ) ;
#135 = PRESENTATION_LAYER_ASSIGNMENT (  '', '', ( #80 ) ) ;
#136 =( NAMED_UNIT ( * ) SI_UNIT ( $, .STERADIAN. ) SOLID_ANGLE_UNIT ( ) );
#137 = COLOUR_RGB ( '',1.000000000000000000, 0.000000000000000000, 0.000000000000000000 ) ;
#138 =( CONVERSION_BASED_UNIT ( 'INCH', #260 ) LENGTH_UNIT ( ) NAMED_UNIT ( #214 ) );
#139 = FILL_AREA_STYLE ('',( #39 ) ) ;
#140 = ORIENTED_EDGE ( 'NONE', *, *, #180, .T. ) ;
#141 = MANIFOLD_SOLID_BREP ( 'Revolve - Tool Body (Straight Shanked)', #2 ) ;
#142 = COLOUR_RGB ( '',1.000000000000000000, 0.000000000000000000, 0.000000000000000000 ) ;
#143 =( NAMED_UNIT ( * ) SI_UNIT ( $, .STERADIAN. ) SOLID_ANGLE_UNIT ( ) );
#144 =( LENGTH_UNIT ( ) NAMED_UNIT ( * ) SI_UNIT ( $, .METRE. ) );
#145 = SURFACE_SIDE_STYLE ('',( #283 ) ) ;
#146 = FACE_OUTER_BOUND ( 'NONE', #78, .T. ) ;
#147 = SURFACE_STYLE_USAGE ( .BOTH. , #45 ) ;
#148 = EDGE_CURVE ( 'NONE', #131, #244, #72, .T. ) ;
#149 = DIRECTION ( 'NONE',  ( 0.000000000000000000, 0.000000000000000000, -1.000000000000000000 ) ) ;
#150 = LINE ( 'NONE', #19, #282 ) ;
#151 = FILL_AREA_STYLE ('',( #297 ) ) ;
#152 = ORIENTED_EDGE ( 'NONE', *, *, #75, .T. ) ;
#153 = DIRECTION ( 'NONE',  ( 0.000000000000000000, 0.000000000000000000, 1.000000000000000000 ) ) ;
#154 = ORIENTED_EDGE ( 'NONE', *, *, #99, .T. ) ;
#155 = SURFACE_STYLE_FILL_AREA ( #4 ) ;
#156 = ORIENTED_EDGE ( 'NONE', *, *, #180, .F. ) ;
#157 = ADVANCED_FACE ( 'NONE', ( #206 ), #239, .F. ) ;
#158 = CARTESIAN_POINT ( 'NONE',  ( 0.000000000000000000, 0.000000000000000000, -0.1250000000000000000 ) ) ;
#159 = DIRECTION ( 'NONE',  ( 0.000000000000000000, 0.000000000000000000, -1.000000000000000000 ) ) ;
#160 = AXIS2_PLACEMENT_3D ( 'NONE', #44, #308, #207 ) ;
#161 = DIRECTION ( 'NONE',  ( 1.632862398863137774E-16, 1.000000000000000000, -0.000000000000000000 ) ) ;
#162 = UNCERTAINTY_MEASURE_WITH_UNIT (LENGTH_MEASURE( 1.000000000000000082E-05 ), #294, 'distance_accuracy_value', 'NONE');
#163 = DIMENSIONAL_EXPONENTS ( 1.000000000000000000, 0.000000000000000000, 0.000000000000000000, 0.000000000000000000, 0.000000000000000000, 0.000000000000000000, 0.000000000000000000 ) ;
#164 = CARTESIAN_POINT ( 'NONE',  ( -0.1249999999999996392, 2.000000000000000000, 0.000000000000000000 ) ) ;
#165 = LENGTH_MEASURE_WITH_UNIT ( LENGTH_MEASURE( 0.02539999999999999897 ), #14 );
#166 = VECTOR ( 'NONE', #277, 39.37007874015748143 ) ;
#167 = DIRECTION ( 'NONE',  ( 0.000000000000000000, -1.000000000000000000, -0.000000000000000000 ) ) ;
#168 = PRESENTATION_LAYER_ASSIGNMENT (  '', '', ( #257 ) ) ;
#169 =( CONVERSION_BASED_UNIT ( 'INCH', #92 ) LENGTH_UNIT ( ) NAMED_UNIT ( #32 ) );
#170 = CARTESIAN_POINT ( 'NONE',  ( -0.1250000000000000000, 0.5000000000000001110, 0.000000000000000000 ) ) ;
#171 = AXIS2_PLACEMENT_3D ( 'NONE', #7, #82, #237 ) ;
#172 = DIRECTION ( 'NONE',  ( 0.000000000000000000, 0.000000000000000000, -1.000000000000000000 ) ) ;
#173 = APPLICATION_CONTEXT ( 'automotive_design' ) ;
#174 = FACE_OUTER_BOUND ( 'NONE', #175, .T. ) ;
#175 = EDGE_LOOP ( 'NONE', ( #30, #152, #81, #248 ) ) ;
#176 = COLOUR_RGB ( '',0.7921568627450980005, 0.8196078431372548767, 0.9333333333333333481 ) ;
#177 = DIRECTION ( 'NONE',  ( 1.632862398863137774E-16, 1.000000000000000000, -0.000000000000000000 ) ) ;
#178 = ORIENTED_EDGE ( 'NONE', *, *, #20, .T. ) ;
#179 = UNCERTAINTY_MEASURE_WITH_UNIT (LENGTH_MEASURE( 1.000000000000000082E-05 ), #16, 'distance_accuracy_value', 'NONE');
#180 = EDGE_CURVE ( 'NONE', #54, #50, #42, .T. ) ;
#181 = DIRECTION ( 'NONE',  ( -1.000000000000000000, 0.000000000000000000, 0.000000000000000000 ) ) ;
#182 = DIMENSIONAL_EXPONENTS ( 1.000000000000000000, 0.000000000000000000, 0.000000000000000000, 0.000000000000000000, 0.000000000000000000, 0.000000000000000000, 0.000000000000000000 ) ;
#183 =( NAMED_UNIT ( * ) PLANE_ANGLE_UNIT ( ) SI_UNIT ( $, .RADIAN. ) );
#184 = SURFACE_STYLE_FILL_AREA ( #139 ) ;
#185 = CYLINDRICAL_SURFACE ( 'NONE', #160, 0.1249999999999998751 ) ;
#186 = MECHANICAL_DESIGN_GEOMETRIC_PRESENTATION_REPRESENTATION (  '', ( #68 ), #46 ) ;
#187 = DIRECTION ( 'NONE',  ( -0.000000000000000000, -1.000000000000000000, -0.000000000000000000 ) ) ;
#188 = AXIS2_PLACEMENT_3D ( 'NONE', #236, #153, #98 ) ;
#189 =( CONVERSION_BASED_UNIT ( 'INCH', #288 ) LENGTH_UNIT ( ) NAMED_UNIT ( #182 ) );
#190 =( NAMED_UNIT ( * ) PLANE_ANGLE_UNIT ( ) SI_UNIT ( $, .RADIAN. ) );
#191 = PRODUCT_CONTEXT ( 'NONE', #173, 'mechanical' ) ;
#192 =( NAMED_UNIT ( * ) SI_UNIT ( $, .STERADIAN. ) SOLID_ANGLE_UNIT ( ) );
#193 = VECTOR ( 'NONE', #272, 39.37007874015748143 ) ;
#194 = EDGE_LOOP ( 'NONE', ( #250, #221, #10, #40 ) ) ;
#195 = SURFACE_STYLE_FILL_AREA ( #151 ) ;
#196 = EDGE_LOOP ( 'NONE', ( #156, #198 ) ) ;
#197 = EDGE_CURVE ( 'NONE', #50, #54, #261, .T. ) ;
#198 = ORIENTED_EDGE ( 'NONE', *, *, #197, .F. ) ;
#199 = LINE ( 'NONE', #164, #284 ) ;
#200 = CIRCLE ( 'NONE', #63, 0.1250000000000000000 ) ;
#201 = FACE_OUTER_BOUND ( 'NONE', #215, .T. ) ;
#202 =( LENGTH_UNIT ( ) NAMED_UNIT ( * ) SI_UNIT ( $, .METRE. ) );
#203 = COLOUR_RGB ( '',0.7921568627450980005, 0.8196078431372548767, 0.9333333333333333481 ) ;
#204 = ADVANCED_FACE ( 'NONE', ( #220 ), #245, .T. ) ;
#205 = FILL_AREA_STYLE ('',( #117 ) ) ;
#206 = FACE_OUTER_BOUND ( 'NONE', #196, .T. ) ;
#207 = DIRECTION ( 'NONE',  ( -1.000000000000000000, 0.000000000000000000, 0.000000000000000000 ) ) ;
#208 =( GEOMETRIC_REPRESENTATION_CONTEXT ( 3 ) GLOBAL_UNCERTAINTY_ASSIGNED_CONTEXT ( ( #298 ) ) GLOBAL_UNIT_ASSIGNED_CONTEXT ( ( #138, #183, #136 ) ) REPRESENTATION_CONTEXT ( 'NONE', 'WORKASPACE' ) );
#209 = CARTESIAN_POINT ( 'NONE',  ( 0.000000000000000000, 0.000000000000000000, 0.000000000000000000 ) ) ;
#210 = MECHANICAL_DESIGN_GEOMETRIC_PRESENTATION_REPRESENTATION (  '', ( #242 ), #111 ) ;
#211 =( NAMED_UNIT ( * ) SI_UNIT ( $, .STERADIAN. ) SOLID_ANGLE_UNIT ( ) );
#212 = AXIS2_PLACEMENT_3D ( 'NONE', #100, #289, #102 ) ;
#213 = EDGE_CURVE ( 'NONE', #305, #13, #225, .T. ) ;
#214 = DIMENSIONAL_EXPONENTS ( 1.000000000000000000, 0.000000000000000000, 0.000000000000000000, 0.000000000000000000, 0.000000000000000000, 0.000000000000000000, 0.000000000000000000 ) ;
#215 = EDGE_LOOP ( 'NONE', ( #218, #268, #178, #270 ) ) ;
#216 =( CONVERSION_BASED_UNIT ( 'INCH', #217 ) LENGTH_UNIT ( ) NAMED_UNIT ( #79 ) );
#217 = LENGTH_MEASURE_WITH_UNIT ( LENGTH_MEASURE( 0.02539999999999999897 ), #125 );
#218 = ORIENTED_EDGE ( 'NONE', *, *, #275, .F. ) ;
#219 =( GEOMETRIC_REPRESENTATION_CONTEXT ( 3 ) GLOBAL_UNCERTAINTY_ASSIGNED_CONTEXT ( ( #59 ) ) GLOBAL_UNIT_ASSIGNED_CONTEXT ( ( #169, #120, #286 ) ) REPRESENTATION_CONTEXT ( 'NONE', 'WORKASPACE' ) );
#220 = FACE_OUTER_BOUND ( 'NONE', #127, .T. ) ;
#221 = ORIENTED_EDGE ( 'NONE', *, *, #148, .T. ) ;
#222 = UNCERTAINTY_MEASURE_WITH_UNIT (LENGTH_MEASURE( 1.000000000000000082E-05 ), #216, 'distance_accuracy_value', 'NONE');
#223 =( NAMED_UNIT ( * ) PLANE_ANGLE_UNIT ( ) SI_UNIT ( $, .RADIAN. ) );
#224 = ORIENTED_EDGE ( 'NONE', *, *, #213, .T. ) ;
#225 = CIRCLE ( 'NONE', #212, 0.1249999999999997641 ) ;
#226 = ORIENTED_EDGE ( 'NONE', *, *, #89, .T. ) ;
#227 = PRODUCT ( '59940', '59940', '', ( #191 ) ) ;
#228 =( LENGTH_UNIT ( ) NAMED_UNIT ( * ) SI_UNIT ( $, .METRE. ) );
#229 = SURFACE_STYLE_USAGE ( .BOTH. , #110 ) ;
#230 = ADVANCED_FACE ( 'NONE', ( #174 ), #243, .T. ) ;
#231 = CARTESIAN_POINT ( 'NONE',  ( 0.000000000000000000, 0.000000000000000000, 0.000000000000000000 ) ) ;
#232 = DIRECTION ( 'NONE',  ( -1.000000000000000000, 0.000000000000000000, 0.000000000000000000 ) ) ;
#233 = MANIFOLD_SOLID_BREP ( 'Revolve - Cutting Edge', #274 ) ;
#234 = AXIS2_PLACEMENT_3D ( 'NONE', #235, #43, #232 ) ;
#235 = CARTESIAN_POINT ( 'NONE',  ( 2.449293598294706414E-16, 2.000000000000000000, 0.000000000000000000 ) ) ;
#236 = CARTESIAN_POINT ( 'NONE',  ( 0.000000000000000000, 0.000000000000000000, 0.000000000000000000 ) ) ;
#237 = DIRECTION ( 'NONE',  ( 0.000000000000000000, -0.000000000000000000, 1.000000000000000000 ) ) ;
#238 = PRODUCT_RELATED_PRODUCT_CATEGORY ( 'part', '', ( #227 ) ) ;
#239 = PLANE ( 'NONE',  #6 ) ;
#240 =( GEOMETRIC_REPRESENTATION_CONTEXT ( 3 ) GLOBAL_UNCERTAINTY_ASSIGNED_CONTEXT ( ( #179 ) ) GLOBAL_UNIT_ASSIGNED_CONTEXT ( ( #16, #223, #36 ) ) REPRESENTATION_CONTEXT ( 'NONE', 'WORKASPACE' ) );
#241 = ORIENTED_EDGE ( 'NONE', *, *, #20, .F. ) ;
#242 = STYLED_ITEM ( 'NONE', ( #66 ), #11 ) ;
#243 = CYLINDRICAL_SURFACE ( 'NONE', #249, 0.1250000000000000000 ) ;
#244 = VERTEX_POINT ( 'NONE', #12 ) ;
#245 = PLANE ( 'NONE',  #171 ) ;
#246 = ORIENTED_EDGE ( 'NONE', *, *, #213, .F. ) ;
#247 =( NAMED_UNIT ( * ) SI_UNIT ( $, .STERADIAN. ) SOLID_ANGLE_UNIT ( ) );
#248 = ORIENTED_EDGE ( 'NONE', *, *, #99, .F. ) ;
#249 = AXIS2_PLACEMENT_3D ( 'NONE', #252, #109, #113 ) ;
#250 = ORIENTED_EDGE ( 'NONE', *, *, #262, .T. ) ;
#251 =( LENGTH_UNIT ( ) NAMED_UNIT ( * ) SI_UNIT ( $, .METRE. ) );
#252 = CARTESIAN_POINT ( 'NONE',  ( 0.000000000000000000, 0.000000000000000000, 0.000000000000000000 ) ) ;
#253 = SURFACE_SIDE_STYLE ('',( #114 ) ) ;
#254 = FILL_AREA_STYLE_COLOUR ( '', #137 ) ;
#255 = ADVANCED_FACE ( 'NONE', ( #201 ), #185, .T. ) ;
#256 =( CONVERSION_BASED_UNIT ( 'INCH', #165 ) LENGTH_UNIT ( ) NAMED_UNIT ( #163 ) );
#257 = STYLED_ITEM ( 'NONE', ( #17 ), #41 ) ;
#258 = AXIS2_PLACEMENT_3D ( 'NONE', #22, #285, #302 ) ;
#259 = FACE_OUTER_BOUND ( 'NONE', #60, .T. ) ;
#260 = LENGTH_MEASURE_WITH_UNIT ( LENGTH_MEASURE( 0.02539999999999999897 ), #251 );
#261 = CIRCLE ( 'NONE', #293, 0.1250000000000000000 ) ;
#262 = EDGE_CURVE ( 'NONE', #53, #131, #84, .T. ) ;
#263 = PLANE ( 'NONE',  #266 ) ;
#264 = SURFACE_SIDE_STYLE ('',( #155 ) ) ;
#265 = ORIENTED_EDGE ( 'NONE', *, *, #275, .T. ) ;
#266 = AXIS2_PLACEMENT_3D ( 'NONE', #71, #306, #309 ) ;
#267 = DIRECTION ( 'NONE',  ( -1.000000000000000000, 1.632862398863137774E-16, 0.000000000000000000 ) ) ;
#268 = ORIENTED_EDGE ( 'NONE', *, *, #197, .T. ) ;
#269 = DIRECTION ( 'NONE',  ( -1.000000000000000000, 0.000000000000000000, 0.000000000000000000 ) ) ;
#270 = ORIENTED_EDGE ( 'NONE', *, *, #89, .F. ) ;
#271 = ADVANCED_BREP_SHAPE_REPRESENTATION ( '59940', ( #233, #141, #188 ), #240 ) ;
#272 = DIRECTION ( 'NONE',  ( -0.000000000000000000, -1.000000000000000000, -0.000000000000000000 ) ) ;
#273 = APPLICATION_CONTEXT ( 'automotive_design' ) ;
#274 = CLOSED_SHELL ( 'NONE', ( #11, #204, #230, #41 ) ) ;
#275 = EDGE_CURVE ( 'NONE', #50, #13, #119, .T. ) ;
#276 = SURFACE_STYLE_USAGE ( .BOTH. , #253 ) ;
#277 = DIRECTION ( 'NONE',  ( 1.632862398863137774E-16, 1.000000000000000000, -0.000000000000000000 ) ) ;
#278 = LENGTH_MEASURE_WITH_UNIT ( LENGTH_MEASURE( 0.02539999999999999897 ), #228 );
#279 = PRESENTATION_LAYER_ASSIGNMENT (  '', '', ( #3 ) ) ;
#280 = PRESENTATION_LAYER_ASSIGNMENT (  '', '', ( #242 ) ) ;
#281 = CARTESIAN_POINT ( 'NONE',  ( 0.1249999999999999861, 0.5000000000000001110, 1.530808498934190893E-17 ) ) ;
#282 = VECTOR ( 'NONE', #21, 39.37007874015748143 ) ;
#283 = SURFACE_STYLE_FILL_AREA ( #112 ) ;
#284 = VECTOR ( 'NONE', #161, 39.37007874015748143 ) ;
#285 = DIRECTION ( 'NONE',  ( -0.000000000000000000, -1.000000000000000000, -0.000000000000000000 ) ) ;
#286 =( NAMED_UNIT ( * ) SI_UNIT ( $, .STERADIAN. ) SOLID_ANGLE_UNIT ( ) );
#287 = PRODUCT_DEFINITION ( 'UNKNOWN', '', #51, #55 ) ;
#288 = LENGTH_MEASURE_WITH_UNIT ( LENGTH_MEASURE( 0.02539999999999999897 ), #202 );
#289 = DIRECTION ( 'NONE',  ( 1.632862398863137774E-16, 1.000000000000000000, -0.000000000000000000 ) ) ;
#290 = SHAPE_DEFINITION_REPRESENTATION ( #296, #271 ) ;
#291 = PRESENTATION_STYLE_ASSIGNMENT (( #52 ) ) ;
#292 = VERTEX_POINT ( 'NONE', #158 ) ;
#293 = AXIS2_PLACEMENT_3D ( 'NONE', #104, #9, #269 ) ;
#294 =( CONVERSION_BASED_UNIT ( 'INCH', #5 ) LENGTH_UNIT ( ) NAMED_UNIT ( #103 ) );
#295 = UNCERTAINTY_MEASURE_WITH_UNIT (LENGTH_MEASURE( 1.000000000000000082E-05 ), #189, 'distance_accuracy_value', 'NONE');
#296 = PRODUCT_DEFINITION_SHAPE ( 'NONE', 'NONE',  #287 ) ;
#297 = FILL_AREA_STYLE_COLOUR ( '', #115 ) ;
#298 = UNCERTAINTY_MEASURE_WITH_UNIT (LENGTH_MEASURE( 1.000000000000000082E-05 ), #138, 'distance_accuracy_value', 'NONE');
#299 = EDGE_CURVE ( 'NONE', #292, #244, #124, .T. ) ;
#300 = FACE_OUTER_BOUND ( 'NONE', #34, .T. ) ;
#301 = AXIS2_PLACEMENT_3D ( 'NONE', #231, #87, #159 ) ;
#302 = DIRECTION ( 'NONE',  ( 0.000000000000000000, 0.000000000000000000, -1.000000000000000000 ) ) ;
#303 = DIRECTION ( 'NONE',  ( -0.000000000000000000, -1.000000000000000000, -0.000000000000000000 ) ) ;
#304 = CIRCLE ( 'NONE', #105, 0.1250000000000000000 ) ;
#305 = VERTEX_POINT ( 'NONE', #61 ) ;
#306 = DIRECTION ( 'NONE',  ( -1.632862398863137774E-16, -1.000000000000000000, 0.000000000000000000 ) ) ;
#307 =( GEOMETRIC_REPRESENTATION_CONTEXT ( 3 ) GLOBAL_UNCERTAINTY_ASSIGNED_CONTEXT ( ( #162 ) ) GLOBAL_UNIT_ASSIGNED_CONTEXT ( ( #294, #57, #247 ) ) REPRESENTATION_CONTEXT ( 'NONE', 'WORKASPACE' ) );
#308 = DIRECTION ( 'NONE',  ( 1.632862398863137774E-16, 1.000000000000000000, -0.000000000000000000 ) ) ;
#309 = DIRECTION ( 'NONE',  ( 1.000000000000000000, -1.632862398863137774E-16, 0.000000000000000000 ) ) ;
ENDSEC;
END-ISO-10303-21;
