ISO-10303-21;
HEADER;
FILE_DESCRIPTION (( 'STEP AP214' ),
    '1' );
FILE_NAME ('82955.STEP',
    '2023-06-23T07:40:56',
    ( '' ),
    ( '' ),
    'SwSTEP 2.0',
    'SolidWorks 2023',
    '' );
FILE_SCHEMA (( 'AUTOMOTIVE_DESIGN' ));
ENDSEC;

DATA;
#1 =( CONVERSION_BASED_UNIT ( 'INCH', #305 ) LENGTH_UNIT ( ) NAMED_UNIT ( #288 ) );
#2 = CARTESIAN_POINT ( 'NONE',  ( -0.1093500000000000028, 0.4374999999999998890, 0.000000000000000000 ) ) ;
#3 =( NAMED_UNIT ( * ) PLANE_ANGLE_UNIT ( ) SI_UNIT ( $, .RADIAN. ) );
#4 = AXIS2_PLACEMENT_3D ( 'NONE', #44, #129, #124 ) ;
#5 =( NAMED_UNIT ( * ) SI_UNIT ( $, .STERADIAN. ) SOLID_ANGLE_UNIT ( ) );
#6 =( LENGTH_UNIT ( ) NAMED_UNIT ( * ) SI_UNIT ( $, .METRE. ) );
#7 = SURFACE_STYLE_FILL_AREA ( #239 ) ;
#8 = FILL_AREA_STYLE ('',( #285 ) ) ;
#9 = CIRCLE ( 'NONE', #260, 0.1093500000000000028 ) ;
#10 = DIRECTION ( 'NONE',  ( 0.000000000000000000, 0.000000000000000000, -1.000000000000000000 ) ) ;
#11 = CARTESIAN_POINT ( 'NONE',  ( -1.276542776722964990E-18, 0.4804980216144644212, 0.000000000000000000 ) ) ;
#12 = SHAPE_DEFINITION_REPRESENTATION ( #20, #48 ) ;
#13 = DIRECTION ( 'NONE',  ( -2.968840725205704707E-17, 1.000000000000000000, -0.000000000000000000 ) ) ;
#14 = EDGE_CURVE ( 'NONE', #215, #160, #333, .T. ) ;
#15 = DIRECTION ( 'NONE',  ( 0.3420201433256695456, 0.9396926207859080948, 4.188538737677002858E-17 ) ) ;
#16 = EDGE_LOOP ( 'NONE', ( #273, #271, #346, #75 ) ) ;
#17 = CIRCLE ( 'NONE', #321, 0.1093500000000000028 ) ;
#18 = DIRECTION ( 'NONE',  ( -1.000000000000000000, 0.000000000000000000, 0.000000000000000000 ) ) ;
#19 = ORIENTED_EDGE ( 'NONE', *, *, #112, .T. ) ;
#20 = PRODUCT_DEFINITION_SHAPE ( 'NONE', 'NONE',  #23 ) ;
#21 = CARTESIAN_POINT ( 'NONE',  ( -6.123233995736766036E-17, 2.500000000000000000, 0.000000000000000000 ) ) ;
#22 = ORIENTED_EDGE ( 'NONE', *, *, #222, .T. ) ;
#23 = PRODUCT_DEFINITION ( 'UNKNOWN', '', #207, #175 ) ;
#24 = CONICAL_SURFACE ( 'NONE', #147, 0.1093500000000000028, 0.3490658503988668393 ) ;
#25 = DIRECTION ( 'NONE',  ( -2.968840725205704707E-17, 1.000000000000000000, -0.000000000000000000 ) ) ;
#26 =( LENGTH_UNIT ( ) NAMED_UNIT ( * ) SI_UNIT ( $, .METRE. ) );
#27 =( CONVERSION_BASED_UNIT ( 'INCH', #30 ) LENGTH_UNIT ( ) NAMED_UNIT ( #232 ) );
#28 = ADVANCED_FACE ( 'NONE', ( #35 ), #240, .T. ) ;
#29 = CARTESIAN_POINT ( 'NONE',  ( -6.123233995736766036E-17, 2.500000000000000000, 0.000000000000000000 ) ) ;
#30 = LENGTH_MEASURE_WITH_UNIT ( LENGTH_MEASURE( 0.02539999999999999897 ), #282 );
#31 = DIMENSIONAL_EXPONENTS ( 1.000000000000000000, 0.000000000000000000, 0.000000000000000000, 0.000000000000000000, 0.000000000000000000, 0.000000000000000000, 0.000000000000000000 ) ;
#32 = PRESENTATION_LAYER_ASSIGNMENT (  '', '', ( #315 ) ) ;
#33 =( CONVERSION_BASED_UNIT ( 'INCH', #306 ) LENGTH_UNIT ( ) NAMED_UNIT ( #31 ) );
#34 = MECHANICAL_DESIGN_GEOMETRIC_PRESENTATION_REPRESENTATION (  '', ( #310 ), #123 ) ;
#35 = FACE_OUTER_BOUND ( 'NONE', #308, .T. ) ;
#36 = LINE ( 'NONE', #225, #304 ) ;
#37 =( LENGTH_UNIT ( ) NAMED_UNIT ( * ) SI_UNIT ( $, .METRE. ) );
#38 = EDGE_LOOP ( 'NONE', ( #217, #359, #224, #59 ) ) ;
#39 = CYLINDRICAL_SURFACE ( 'NONE', #164, 0.1093500000000000028 ) ;
#40 = DIRECTION ( 'NONE',  ( -1.000000000000000000, 0.000000000000000000, 0.000000000000000000 ) ) ;
#41 =( NAMED_UNIT ( * ) SI_UNIT ( $, .STERADIAN. ) SOLID_ANGLE_UNIT ( ) );
#42 = LENGTH_MEASURE_WITH_UNIT ( LENGTH_MEASURE( 0.02539999999999999897 ), #125 );
#43 = AXIS2_PLACEMENT_3D ( 'NONE', #161, #13, #159 ) ;
#44 = CARTESIAN_POINT ( 'NONE',  ( 0.000000000000000000, 0.4375000000000000000, 0.000000000000000000 ) ) ;
#45 = DIRECTION ( 'NONE',  ( -0.000000000000000000, -1.000000000000000000, -0.000000000000000000 ) ) ;
#46 = CIRCLE ( 'NONE', #296, 0.1250000000000000000 ) ;
#47 = MANIFOLD_SOLID_BREP ( 'Revolve - Cutting Edge', #265 ) ;
#48 = ADVANCED_BREP_SHAPE_REPRESENTATION ( '82955', ( #47, #287, #358 ), #69 ) ;
#49 = UNCERTAINTY_MEASURE_WITH_UNIT (LENGTH_MEASURE( 1.000000000000000082E-05 ), #202, 'distance_accuracy_value', 'NONE');
#50 = EDGE_LOOP ( 'NONE', ( #250, #322 ) ) ;
#51 = CARTESIAN_POINT ( 'NONE',  ( -1.276542776722964990E-18, 0.4804980216144644212, 0.000000000000000000 ) ) ;
#52 = CYLINDRICAL_SURFACE ( 'NONE', #128, 0.1249999999999999584 ) ;
#53 = SURFACE_SIDE_STYLE ('',( #326 ) ) ;
#54 = APPLICATION_CONTEXT ( 'automotive_design' ) ;
#55 = SURFACE_STYLE_USAGE ( .BOTH. , #307 ) ;
#56 = EDGE_LOOP ( 'NONE', ( #155, #22, #162, #349 ) ) ;
#57 = CIRCLE ( 'NONE', #276, 0.1093500000000000028 ) ;
#58 = DIRECTION ( 'NONE',  ( -1.000000000000000000, 0.000000000000000000, 0.000000000000000000 ) ) ;
#59 = ORIENTED_EDGE ( 'NONE', *, *, #14, .F. ) ;
#60 = DIRECTION ( 'NONE',  ( -0.3420201433256696011, 0.9396926207859079838, 0.000000000000000000 ) ) ;
#61 = DIRECTION ( 'NONE',  ( -2.968840725205704707E-17, 1.000000000000000000, -0.000000000000000000 ) ) ;
#62 = AXIS2_PLACEMENT_3D ( 'NONE', #149, #100, #295 ) ;
#63 = COLOUR_RGB ( '',1.000000000000000000, 0.000000000000000000, 0.000000000000000000 ) ;
#64 = ORIENTED_EDGE ( 'NONE', *, *, #137, .T. ) ;
#65 = ORIENTED_EDGE ( 'NONE', *, *, #72, .F. ) ;
#66 = CARTESIAN_POINT ( 'NONE',  ( 0.1249999999999999306, 2.500000000000000000, 0.000000000000000000 ) ) ;
#67 = SURFACE_SIDE_STYLE ('',( #242 ) ) ;
#68 = PRESENTATION_LAYER_ASSIGNMENT (  '', '', ( #74 ) ) ;
#69 =( GEOMETRIC_REPRESENTATION_CONTEXT ( 3 ) GLOBAL_UNCERTAINTY_ASSIGNED_CONTEXT ( ( #145 ) ) GLOBAL_UNIT_ASSIGNED_CONTEXT ( ( #312, #338, #41 ) ) REPRESENTATION_CONTEXT ( 'NONE', 'WORKASPACE' ) );
#70 = SURFACE_STYLE_USAGE ( .BOTH. , #67 ) ;
#71 = VERTEX_POINT ( 'NONE', #226 ) ;
#72 = EDGE_CURVE ( 'NONE', #231, #80, #57, .T. ) ;
#73 = DIRECTION ( 'NONE',  ( -2.968840725205704707E-17, 1.000000000000000000, -0.000000000000000000 ) ) ;
#74 = STYLED_ITEM ( 'NONE', ( #281 ), #47 ) ;
#75 = ORIENTED_EDGE ( 'NONE', *, *, #133, .F. ) ;
#76 = UNCERTAINTY_MEASURE_WITH_UNIT (LENGTH_MEASURE( 1.000000000000000082E-05 ), #33, 'distance_accuracy_value', 'NONE');
#77 = DIRECTION ( 'NONE',  ( -2.968840725205704707E-17, 1.000000000000000000, -0.000000000000000000 ) ) ;
#78 = VERTEX_POINT ( 'NONE', #356 ) ;
#79 = FACE_OUTER_BOUND ( 'NONE', #302, .T. ) ;
#80 = VERTEX_POINT ( 'NONE', #229 ) ;
#81 =( GEOMETRIC_REPRESENTATION_CONTEXT ( 3 ) GLOBAL_UNCERTAINTY_ASSIGNED_CONTEXT ( ( #303 ) ) GLOBAL_UNIT_ASSIGNED_CONTEXT ( ( #27, #141, #174 ) ) REPRESENTATION_CONTEXT ( 'NONE', 'WORKASPACE' ) );
#82 = ADVANCED_FACE ( 'NONE', ( #140 ), #311, .T. ) ;
#83 = VECTOR ( 'NONE', #216, 39.37007874015748143 ) ;
#84 = ORIENTED_EDGE ( 'NONE', *, *, #137, .F. ) ;
#85 = ORIENTED_EDGE ( 'NONE', *, *, #179, .F. ) ;
#86 = EDGE_CURVE ( 'NONE', #215, #78, #115, .T. ) ;
#87 =( NAMED_UNIT ( * ) SI_UNIT ( $, .STERADIAN. ) SOLID_ANGLE_UNIT ( ) );
#88 = PRESENTATION_LAYER_ASSIGNMENT (  '', '', ( #310 ) ) ;
#89 = SURFACE_STYLE_FILL_AREA ( #257 ) ;
#90 = ADVANCED_FACE ( 'NONE', ( #208 ), #320, .T. ) ;
#91 = AXIS2_PLACEMENT_3D ( 'NONE', #29, #198, #139 ) ;
#92 = FILL_AREA_STYLE ('',( #330 ) ) ;
#93 = PLANE ( 'NONE',  #151 ) ;
#94 = PRESENTATION_STYLE_ASSIGNMENT (( #70 ) ) ;
#95 = DIRECTION ( 'NONE',  ( 0.000000000000000000, 0.000000000000000000, -1.000000000000000000 ) ) ;
#96 = DIRECTION ( 'NONE',  ( -1.000000000000000000, 0.000000000000000000, 0.000000000000000000 ) ) ;
#97 = DIRECTION ( 'NONE',  ( -2.968840725205704707E-17, 1.000000000000000000, -0.000000000000000000 ) ) ;
#98 = AXIS2_PLACEMENT_3D ( 'NONE', #223, #274, #251 ) ;
#99 = CARTESIAN_POINT ( 'NONE',  ( 7.582401355855259480E-33, 0.4374999999999998890, 0.000000000000000000 ) ) ;
#100 = DIRECTION ( 'NONE',  ( 0.000000000000000000, 1.000000000000000000, 0.000000000000000000 ) ) ;
#101 = CARTESIAN_POINT ( 'NONE',  ( 0.000000000000000000, 0.000000000000000000, -0.1093500000000000028 ) ) ;
#102 = FILL_AREA_STYLE_COLOUR ( '', #220 ) ;
#103 =( GEOMETRIC_REPRESENTATION_CONTEXT ( 3 ) GLOBAL_UNCERTAINTY_ASSIGNED_CONTEXT ( ( #192 ) ) GLOBAL_UNIT_ASSIGNED_CONTEXT ( ( #1, #119, #87 ) ) REPRESENTATION_CONTEXT ( 'NONE', 'WORKASPACE' ) );
#104 = VECTOR ( 'NONE', #15, 39.37007874015748143 ) ;
#105 = CARTESIAN_POINT ( 'NONE',  ( 0.1249999999999999029, 2.500000000000000000, 1.530808498934191201E-17 ) ) ;
#106 = ORIENTED_EDGE ( 'NONE', *, *, #133, .T. ) ;
#107 = CARTESIAN_POINT ( 'NONE',  ( -0.1249999999999999306, 0.4804980216144644212, 0.000000000000000000 ) ) ;
#108 = VERTEX_POINT ( 'NONE', #336 ) ;
#109 = FILL_AREA_STYLE ('',( #102 ) ) ;
#110 = PRESENTATION_STYLE_ASSIGNMENT (( #135 ) ) ;
#111 = VERTEX_POINT ( 'NONE', #101 ) ;
#112 = EDGE_CURVE ( 'NONE', #160, #71, #252, .T. ) ;
#113 = CARTESIAN_POINT ( 'NONE',  ( 1.339151274867630787E-17, 0.4375000000000000000, 0.1093500000000000028 ) ) ;
#114 = FILL_AREA_STYLE_COLOUR ( '', #132 ) ;
#115 = CIRCLE ( 'NONE', #146, 0.1093500000000000028 ) ;
#116 = DIRECTION ( 'NONE',  ( -0.000000000000000000, -1.000000000000000000, -0.000000000000000000 ) ) ;
#117 = EDGE_LOOP ( 'NONE', ( #348, #324, #84, #85 ) ) ;
#118 = FILL_AREA_STYLE_COLOUR ( '', #138 ) ;
#119 =( NAMED_UNIT ( * ) PLANE_ANGLE_UNIT ( ) SI_UNIT ( $, .RADIAN. ) );
#120 = ADVANCED_FACE ( 'NONE', ( #258 ), #93, .F. ) ;
#121 = DIMENSIONAL_EXPONENTS ( 1.000000000000000000, 0.000000000000000000, 0.000000000000000000, 0.000000000000000000, 0.000000000000000000, 0.000000000000000000, 0.000000000000000000 ) ;
#122 = PRESENTATION_LAYER_ASSIGNMENT (  '', '', ( #259 ) ) ;
#123 =( GEOMETRIC_REPRESENTATION_CONTEXT ( 3 ) GLOBAL_UNCERTAINTY_ASSIGNED_CONTEXT ( ( #49 ) ) GLOBAL_UNIT_ASSIGNED_CONTEXT ( ( #202, #3, #203 ) ) REPRESENTATION_CONTEXT ( 'NONE', 'WORKASPACE' ) );
#124 = DIRECTION ( 'NONE',  ( 0.000000000000000000, 0.000000000000000000, -1.000000000000000000 ) ) ;
#125 =( LENGTH_UNIT ( ) NAMED_UNIT ( * ) SI_UNIT ( $, .METRE. ) );
#126 = CARTESIAN_POINT ( 'NONE',  ( 0.000000000000000000, 0.000000000000000000, 0.000000000000000000 ) ) ;
#127 = MECHANICAL_DESIGN_GEOMETRIC_PRESENTATION_REPRESENTATION (  '', ( #315 ), #218 ) ;
#128 = AXIS2_PLACEMENT_3D ( 'NONE', #21, #194, #173 ) ;
#129 = DIRECTION ( 'NONE',  ( -0.000000000000000000, -1.000000000000000000, -0.000000000000000000 ) ) ;
#130 = FACE_OUTER_BOUND ( 'NONE', #209, .T. ) ;
#131 = LENGTH_MEASURE_WITH_UNIT ( LENGTH_MEASURE( 0.02539999999999999897 ), #297 );
#132 = COLOUR_RGB ( '',0.7921568627450980005, 0.8196078431372548767, 0.9333333333333333481 ) ;
#133 = EDGE_CURVE ( 'NONE', #327, #111, #9, .T. ) ;
#134 = DIRECTION ( 'NONE',  ( -2.968840725205704707E-17, 1.000000000000000000, -0.000000000000000000 ) ) ;
#135 = SURFACE_STYLE_USAGE ( .BOTH. , #53 ) ;
#136 = ORIENTED_EDGE ( 'NONE', *, *, #279, .F. ) ;
#137 = EDGE_CURVE ( 'NONE', #111, #327, #343, .T. ) ;
#138 = COLOUR_RGB ( '',0.7921568627450980005, 0.8196078431372548767, 0.9333333333333333481 ) ;
#139 = DIRECTION ( 'NONE',  ( -1.000000000000000000, 0.000000000000000000, 0.000000000000000000 ) ) ;
#140 = FACE_OUTER_BOUND ( 'NONE', #16, .T. ) ;
#141 =( NAMED_UNIT ( * ) PLANE_ANGLE_UNIT ( ) SI_UNIT ( $, .RADIAN. ) );
#142 = DIRECTION ( 'NONE',  ( 0.000000000000000000, 0.000000000000000000, -1.000000000000000000 ) ) ;
#143 = MECHANICAL_DESIGN_GEOMETRIC_PRESENTATION_REPRESENTATION (  '', ( #74 ), #81 ) ;
#144 = CIRCLE ( 'NONE', #221, 0.1249999999999999306 ) ;
#145 = UNCERTAINTY_MEASURE_WITH_UNIT (LENGTH_MEASURE( 1.000000000000000082E-05 ), #312, 'distance_accuracy_value', 'NONE');
#146 = AXIS2_PLACEMENT_3D ( 'NONE', #263, #97, #238 ) ;
#147 = AXIS2_PLACEMENT_3D ( 'NONE', #167, #25, #58 ) ;
#148 = LENGTH_MEASURE_WITH_UNIT ( LENGTH_MEASURE( 0.02539999999999999897 ), #177 );
#149 = CARTESIAN_POINT ( 'NONE',  ( 0.000000000000000000, 0.4375000000000000000, 0.000000000000000000 ) ) ;
#150 = CARTESIAN_POINT ( 'NONE',  ( 0.000000000000000000, 0.000000000000000000, 0.000000000000000000 ) ) ;
#151 = AXIS2_PLACEMENT_3D ( 'NONE', #66, #204, #313 ) ;
#152 = EDGE_CURVE ( 'NONE', #325, #108, #334, .T. ) ;
#153 =( CONVERSION_BASED_UNIT ( 'INCH', #42 ) LENGTH_UNIT ( ) NAMED_UNIT ( #329 ) );
#154 = CARTESIAN_POINT ( 'NONE',  ( 0.000000000000000000, 0.000000000000000000, 0.000000000000000000 ) ) ;
#155 = ORIENTED_EDGE ( 'NONE', *, *, #210, .F. ) ;
#156 = EDGE_CURVE ( 'NONE', #78, #71, #345, .T. ) ;
#157 =( NAMED_UNIT ( * ) PLANE_ANGLE_UNIT ( ) SI_UNIT ( $, .RADIAN. ) );
#158 = ORIENTED_EDGE ( 'NONE', *, *, #344, .F. ) ;
#159 = DIRECTION ( 'NONE',  ( -1.000000000000000000, 0.000000000000000000, 0.000000000000000000 ) ) ;
#160 = VERTEX_POINT ( 'NONE', #107 ) ;
#161 = CARTESIAN_POINT ( 'NONE',  ( -6.123233995736766036E-17, 2.500000000000000000, 0.000000000000000000 ) ) ;
#162 = ORIENTED_EDGE ( 'NONE', *, *, #183, .T. ) ;
#163 = CYLINDRICAL_SURFACE ( 'NONE', #91, 0.1249999999999999584 ) ;
#164 = AXIS2_PLACEMENT_3D ( 'NONE', #150, #261, #10 ) ;
#165 = FACE_OUTER_BOUND ( 'NONE', #56, .T. ) ;
#166 = DIRECTION ( 'NONE',  ( -1.000000000000000000, 0.000000000000000000, 0.000000000000000000 ) ) ;
#167 = CARTESIAN_POINT ( 'NONE',  ( 7.582401355855259480E-33, 0.4374999999999998890, 0.000000000000000000 ) ) ;
#168 = DIMENSIONAL_EXPONENTS ( 1.000000000000000000, 0.000000000000000000, 0.000000000000000000, 0.000000000000000000, 0.000000000000000000, 0.000000000000000000, 0.000000000000000000 ) ;
#169 = ADVANCED_FACE ( 'NONE', ( #79 ), #298, .F. ) ;
#170 = SURFACE_SIDE_STYLE ('',( #89 ) ) ;
#171 = MECHANICAL_DESIGN_GEOMETRIC_PRESENTATION_REPRESENTATION (  '', ( #259 ), #103 ) ;
#172 = STYLED_ITEM ( 'NONE', ( #110 ), #176 ) ;
#173 = DIRECTION ( 'NONE',  ( -1.000000000000000000, 0.000000000000000000, 0.000000000000000000 ) ) ;
#174 =( NAMED_UNIT ( * ) SI_UNIT ( $, .STERADIAN. ) SOLID_ANGLE_UNIT ( ) );
#175 = PRODUCT_DEFINITION_CONTEXT ( 'detailed design', #178, 'design' ) ;
#176 = ADVANCED_FACE ( 'NONE', ( #130 ), #182, .T. ) ;
#177 =( LENGTH_UNIT ( ) NAMED_UNIT ( * ) SI_UNIT ( $, .METRE. ) );
#178 = APPLICATION_CONTEXT ( 'automotive_design' ) ;
#179 = EDGE_CURVE ( 'NONE', #80, #111, #270, .T. ) ;
#180 = ORIENTED_EDGE ( 'NONE', *, *, #156, .F. ) ;
#181 = VECTOR ( 'NONE', #134, 39.37007874015748143 ) ;
#182 = PLANE ( 'NONE',  #196 ) ;
#183 = EDGE_CURVE ( 'NONE', #160, #108, #247, .T. ) ;
#184 = APPLICATION_PROTOCOL_DEFINITION ( 'draft international standard', 'automotive_design', 1998, #178 ) ;
#185 = EDGE_LOOP ( 'NONE', ( #248, #65 ) ) ;
#186 = CARTESIAN_POINT ( 'NONE',  ( -0.1250000000000000278, 2.500000000000000000, 0.000000000000000000 ) ) ;
#187 = COLOUR_RGB ( '',1.000000000000000000, 0.000000000000000000, 0.000000000000000000 ) ;
#188 = PRESENTATION_LAYER_ASSIGNMENT (  '', '', ( #292 ) ) ;
#189 = ORIENTED_EDGE ( 'NONE', *, *, #14, .T. ) ;
#190 = CARTESIAN_POINT ( 'NONE',  ( 0.1093500000000000028, 0.4374999999999998890, 1.339151274867630787E-17 ) ) ;
#191 = ORIENTED_EDGE ( 'NONE', *, *, #210, .T. ) ;
#192 = UNCERTAINTY_MEASURE_WITH_UNIT (LENGTH_MEASURE( 1.000000000000000082E-05 ), #1, 'distance_accuracy_value', 'NONE');
#193 = EDGE_LOOP ( 'NONE', ( #19, #191, #136, #199 ) ) ;
#194 = DIRECTION ( 'NONE',  ( -2.968840725205704707E-17, 1.000000000000000000, -0.000000000000000000 ) ) ;
#195 = PRESENTATION_STYLE_ASSIGNMENT (( #197 ) ) ;
#196 = AXIS2_PLACEMENT_3D ( 'NONE', #154, #347, #214 ) ;
#197 = SURFACE_STYLE_USAGE ( .BOTH. , #233 ) ;
#198 = DIRECTION ( 'NONE',  ( -2.968840725205704707E-17, 1.000000000000000000, -0.000000000000000000 ) ) ;
#199 = ORIENTED_EDGE ( 'NONE', *, *, #183, .F. ) ;
#200 =( NAMED_UNIT ( * ) SI_UNIT ( $, .STERADIAN. ) SOLID_ANGLE_UNIT ( ) );
#201 = SURFACE_STYLE_USAGE ( .BOTH. , #170 ) ;
#202 =( CONVERSION_BASED_UNIT ( 'INCH', #148 ) LENGTH_UNIT ( ) NAMED_UNIT ( #121 ) );
#203 =( NAMED_UNIT ( * ) SI_UNIT ( $, .STERADIAN. ) SOLID_ANGLE_UNIT ( ) );
#204 = DIRECTION ( 'NONE',  ( 2.968840725205704707E-17, -1.000000000000000000, 0.000000000000000000 ) ) ;
#205 = CARTESIAN_POINT ( 'NONE',  ( 0.1249999999999999445, 2.500000000000000000, 1.530808498934191509E-17 ) ) ;
#206 = CARTESIAN_POINT ( 'NONE',  ( 0.000000000000000000, 0.000000000000000000, 0.000000000000000000 ) ) ;
#207 = PRODUCT_DEFINITION_FORMATION_WITH_SPECIFIED_SOURCE ( 'ANY', '', #353, .NOT_KNOWN. ) ;
#208 = FACE_OUTER_BOUND ( 'NONE', #185, .T. ) ;
#209 = EDGE_LOOP ( 'NONE', ( #64, #106 ) ) ;
#210 = EDGE_CURVE ( 'NONE', #71, #325, #245, .T. ) ;
#211 = DIRECTION ( 'NONE',  ( 0.000000000000000000, 0.000000000000000000, 1.000000000000000000 ) ) ;
#212 =( NAMED_UNIT ( * ) PLANE_ANGLE_UNIT ( ) SI_UNIT ( $, .RADIAN. ) );
#213 =( CONVERSION_BASED_UNIT ( 'INCH', #131 ) LENGTH_UNIT ( ) NAMED_UNIT ( #168 ) );
#214 = DIRECTION ( 'NONE',  ( 0.000000000000000000, 0.000000000000000000, -1.000000000000000000 ) ) ;
#215 = VERTEX_POINT ( 'NONE', #323 ) ;
#216 = DIRECTION ( 'NONE',  ( -2.968840725205704707E-17, 1.000000000000000000, -0.000000000000000000 ) ) ;
#217 = ORIENTED_EDGE ( 'NONE', *, *, #86, .T. ) ;
#218 =( GEOMETRIC_REPRESENTATION_CONTEXT ( 3 ) GLOBAL_UNCERTAINTY_ASSIGNED_CONTEXT ( ( #277 ) ) GLOBAL_UNIT_ASSIGNED_CONTEXT ( ( #153, #212, #5 ) ) REPRESENTATION_CONTEXT ( 'NONE', 'WORKASPACE' ) );
#219 = DIRECTION ( 'NONE',  ( 0.000000000000000000, 0.000000000000000000, -1.000000000000000000 ) ) ;
#220 = COLOUR_RGB ( '',1.000000000000000000, 0.000000000000000000, 0.000000000000000000 ) ;
#221 = AXIS2_PLACEMENT_3D ( 'NONE', #51, #77, #18 ) ;
#222 = EDGE_CURVE ( 'NONE', #71, #160, #144, .T. ) ;
#223 = CARTESIAN_POINT ( 'NONE',  ( 4.819062838834134620E-35, 0.4375000000000000000, 0.000000000000000000 ) ) ;
#224 = ORIENTED_EDGE ( 'NONE', *, *, #112, .F. ) ;
#225 = CARTESIAN_POINT ( 'NONE',  ( 1.339151274867630787E-17, 0.000000000000000000, 0.1093500000000000028 ) ) ;
#226 = CARTESIAN_POINT ( 'NONE',  ( 0.1249999999999999306, 0.4804980216144644212, 1.530808498934190585E-17 ) ) ;
#227 = ADVANCED_FACE ( 'NONE', ( #300 ), #52, .T. ) ;
#228 = DIRECTION ( 'NONE',  ( -0.000000000000000000, -1.000000000000000000, -0.000000000000000000 ) ) ;
#229 = CARTESIAN_POINT ( 'NONE',  ( 0.000000000000000000, 0.4375000000000000000, -0.1093500000000000028 ) ) ;
#230 = FACE_OUTER_BOUND ( 'NONE', #38, .T. ) ;
#231 = VERTEX_POINT ( 'NONE', #113 ) ;
#232 = DIMENSIONAL_EXPONENTS ( 1.000000000000000000, 0.000000000000000000, 0.000000000000000000, 0.000000000000000000, 0.000000000000000000, 0.000000000000000000, 0.000000000000000000 ) ;
#233 = SURFACE_SIDE_STYLE ('',( #256 ) ) ;
#234 = EDGE_CURVE ( 'NONE', #231, #327, #36, .T. ) ;
#235 = CARTESIAN_POINT ( 'NONE',  ( -6.123233995736766036E-17, 2.500000000000000000, 0.000000000000000000 ) ) ;
#236 = CARTESIAN_POINT ( 'NONE',  ( 7.582401355855259480E-33, 0.4374999999999998890, 0.000000000000000000 ) ) ;
#237 = MECHANICAL_DESIGN_GEOMETRIC_PRESENTATION_REPRESENTATION (  '', ( #292 ), #299 ) ;
#238 = DIRECTION ( 'NONE',  ( -1.000000000000000000, 0.000000000000000000, 0.000000000000000000 ) ) ;
#239 = FILL_AREA_STYLE ('',( #342 ) ) ;
#240 = CONICAL_SURFACE ( 'NONE', #309, 0.1093500000000000028, 0.3490658503988668393 ) ;
#241 = PRESENTATION_LAYER_ASSIGNMENT (  '', '', ( #172 ) ) ;
#242 = SURFACE_STYLE_FILL_AREA ( #8 ) ;
#243 = SURFACE_STYLE_USAGE ( .BOTH. , #337 ) ;
#244 =( NAMED_UNIT ( * ) SI_UNIT ( $, .STERADIAN. ) SOLID_ANGLE_UNIT ( ) );
#245 = LINE ( 'NONE', #105, #181 ) ;
#246 = ORIENTED_EDGE ( 'NONE', *, *, #344, .T. ) ;
#247 = LINE ( 'NONE', #186, #83 ) ;
#248 = ORIENTED_EDGE ( 'NONE', *, *, #357, .F. ) ;
#249 = ADVANCED_FACE ( 'NONE', ( #230 ), #24, .T. ) ;
#250 = ORIENTED_EDGE ( 'NONE', *, *, #279, .T. ) ;
#251 = DIRECTION ( 'NONE',  ( -1.000000000000000000, -2.968840725205704707E-17, 0.000000000000000000 ) ) ;
#252 = CIRCLE ( 'NONE', #255, 0.1249999999999999306 ) ;
#253 = ADVANCED_FACE ( 'NONE', ( #165 ), #163, .T. ) ;
#254 = DIRECTION ( 'NONE',  ( -2.968840725205704707E-17, 1.000000000000000000, -0.000000000000000000 ) ) ;
#255 = AXIS2_PLACEMENT_3D ( 'NONE', #11, #73, #40 ) ;
#256 = SURFACE_STYLE_FILL_AREA ( #92 ) ;
#257 = FILL_AREA_STYLE ('',( #114 ) ) ;
#258 = FACE_OUTER_BOUND ( 'NONE', #50, .T. ) ;
#259 = STYLED_ITEM ( 'NONE', ( #195 ), #82 ) ;
#260 = AXIS2_PLACEMENT_3D ( 'NONE', #126, #289, #95 ) ;
#261 = DIRECTION ( 'NONE',  ( -0.000000000000000000, -1.000000000000000000, -0.000000000000000000 ) ) ;
#262 = PRODUCT_RELATED_PRODUCT_CATEGORY ( 'part', '', ( #353 ) ) ;
#263 = CARTESIAN_POINT ( 'NONE',  ( 7.582401355855259480E-33, 0.4374999999999998890, 0.000000000000000000 ) ) ;
#264 = CARTESIAN_POINT ( 'NONE',  ( 0.000000000000000000, 0.000000000000000000, 0.000000000000000000 ) ) ;
#265 = CLOSED_SHELL ( 'NONE', ( #291, #90, #82, #176 ) ) ;
#266 = CARTESIAN_POINT ( 'NONE',  ( 1.339151274867630787E-17, 0.000000000000000000, 0.1093500000000000028 ) ) ;
#267 = PRESENTATION_STYLE_ASSIGNMENT (( #243 ) ) ;
#268 = PRODUCT_CONTEXT ( 'NONE', #54, 'mechanical' ) ;
#269 = DIRECTION ( 'NONE',  ( -0.000000000000000000, -1.000000000000000000, -0.000000000000000000 ) ) ;
#270 = LINE ( 'NONE', #352, #328 ) ;
#271 = ORIENTED_EDGE ( 'NONE', *, *, #72, .T. ) ;
#272 = AXIS2_PLACEMENT_3D ( 'NONE', #319, #45, #339 ) ;
#273 = ORIENTED_EDGE ( 'NONE', *, *, #234, .F. ) ;
#274 = DIRECTION ( 'NONE',  ( -2.968840725205704707E-17, 1.000000000000000000, 0.000000000000000000 ) ) ;
#275 = ORIENTED_EDGE ( 'NONE', *, *, #86, .F. ) ;
#276 = AXIS2_PLACEMENT_3D ( 'NONE', #286, #116, #142 ) ;
#277 = UNCERTAINTY_MEASURE_WITH_UNIT (LENGTH_MEASURE( 1.000000000000000082E-05 ), #153, 'distance_accuracy_value', 'NONE');
#278 = ORIENTED_EDGE ( 'NONE', *, *, #222, .F. ) ;
#279 = EDGE_CURVE ( 'NONE', #108, #325, #46, .T. ) ;
#280 = SURFACE_STYLE_FILL_AREA ( #355 ) ;
#281 = PRESENTATION_STYLE_ASSIGNMENT (( #201 ) ) ;
#282 =( LENGTH_UNIT ( ) NAMED_UNIT ( * ) SI_UNIT ( $, .METRE. ) );
#283 = COLOUR_RGB ( '',1.000000000000000000, 0.000000000000000000, 0.000000000000000000 ) ;
#284 = MECHANICAL_DESIGN_GEOMETRIC_PRESENTATION_REPRESENTATION (  '', ( #172 ), #341 ) ;
#285 = FILL_AREA_STYLE_COLOUR ( '', #63 ) ;
#286 = CARTESIAN_POINT ( 'NONE',  ( 0.000000000000000000, 0.4375000000000000000, 0.000000000000000000 ) ) ;
#287 = MANIFOLD_SOLID_BREP ( 'Revolve - Tool Body (Reduced Cut Diameter)', #350 ) ;
#288 = DIMENSIONAL_EXPONENTS ( 1.000000000000000000, 0.000000000000000000, 0.000000000000000000, 0.000000000000000000, 0.000000000000000000, 0.000000000000000000, 0.000000000000000000 ) ;
#289 = DIRECTION ( 'NONE',  ( -0.000000000000000000, -1.000000000000000000, -0.000000000000000000 ) ) ;
#290 = DIMENSIONAL_EXPONENTS ( 1.000000000000000000, 0.000000000000000000, 0.000000000000000000, 0.000000000000000000, 0.000000000000000000, 0.000000000000000000, 0.000000000000000000 ) ;
#291 = ADVANCED_FACE ( 'NONE', ( #293 ), #39, .T. ) ;
#292 = STYLED_ITEM ( 'NONE', ( #354 ), #287 ) ;
#293 = FACE_OUTER_BOUND ( 'NONE', #117, .T. ) ;
#294 = DIRECTION ( 'NONE',  ( -2.968840725205704707E-17, 1.000000000000000000, -0.000000000000000000 ) ) ;
#295 = DIRECTION ( 'NONE',  ( 0.000000000000000000, -0.000000000000000000, 1.000000000000000000 ) ) ;
#296 = AXIS2_PLACEMENT_3D ( 'NONE', #235, #254, #301 ) ;
#297 =( LENGTH_UNIT ( ) NAMED_UNIT ( * ) SI_UNIT ( $, .METRE. ) );
#298 = PLANE ( 'NONE',  #98 ) ;
#299 =( GEOMETRIC_REPRESENTATION_CONTEXT ( 3 ) GLOBAL_UNCERTAINTY_ASSIGNED_CONTEXT ( ( #76 ) ) GLOBAL_UNIT_ASSIGNED_CONTEXT ( ( #33, #332, #200 ) ) REPRESENTATION_CONTEXT ( 'NONE', 'WORKASPACE' ) );
#300 = FACE_OUTER_BOUND ( 'NONE', #193, .T. ) ;
#301 = DIRECTION ( 'NONE',  ( -1.000000000000000000, 0.000000000000000000, 0.000000000000000000 ) ) ;
#302 = EDGE_LOOP ( 'NONE', ( #275, #158 ) ) ;
#303 = UNCERTAINTY_MEASURE_WITH_UNIT (LENGTH_MEASURE( 1.000000000000000082E-05 ), #27, 'distance_accuracy_value', 'NONE');
#304 = VECTOR ( 'NONE', #228, 39.37007874015748143 ) ;
#305 = LENGTH_MEASURE_WITH_UNIT ( LENGTH_MEASURE( 0.02539999999999999897 ), #37 );
#306 = LENGTH_MEASURE_WITH_UNIT ( LENGTH_MEASURE( 0.02539999999999999897 ), #26 );
#307 = SURFACE_SIDE_STYLE ('',( #280 ) ) ;
#308 = EDGE_LOOP ( 'NONE', ( #180, #246, #189, #278 ) ) ;
#309 = AXIS2_PLACEMENT_3D ( 'NONE', #236, #61, #166 ) ;
#310 = STYLED_ITEM ( 'NONE', ( #94 ), #291 ) ;
#311 = CYLINDRICAL_SURFACE ( 'NONE', #272, 0.1093500000000000028 ) ;
#312 =( CONVERSION_BASED_UNIT ( 'INCH', #335 ) LENGTH_UNIT ( ) NAMED_UNIT ( #290 ) );
#313 = DIRECTION ( 'NONE',  ( 1.000000000000000000, 2.968840725205704707E-17, 0.000000000000000000 ) ) ;
#314 = DIRECTION ( 'NONE',  ( -0.000000000000000000, -1.000000000000000000, -0.000000000000000000 ) ) ;
#315 = STYLED_ITEM ( 'NONE', ( #267 ), #90 ) ;
#316 = CIRCLE ( 'NONE', #4, 0.1093500000000000028 ) ;
#317 = APPLICATION_PROTOCOL_DEFINITION ( 'draft international standard', 'automotive_design', 1998, #54 ) ;
#318 = DIRECTION ( 'NONE',  ( 1.000000000000000000, 0.000000000000000000, 0.000000000000000000 ) ) ;
#319 = CARTESIAN_POINT ( 'NONE',  ( 0.000000000000000000, 0.000000000000000000, 0.000000000000000000 ) ) ;
#320 = PLANE ( 'NONE',  #62 ) ;
#321 = AXIS2_PLACEMENT_3D ( 'NONE', #99, #294, #96 ) ;
#322 = ORIENTED_EDGE ( 'NONE', *, *, #152, .T. ) ;
#323 = CARTESIAN_POINT ( 'NONE',  ( -0.1093500000000000028, 0.4374999999999998890, 0.000000000000000000 ) ) ;
#324 = ORIENTED_EDGE ( 'NONE', *, *, #234, .T. ) ;
#325 = VERTEX_POINT ( 'NONE', #205 ) ;
#326 = SURFACE_STYLE_FILL_AREA ( #109 ) ;
#327 = VERTEX_POINT ( 'NONE', #266 ) ;
#328 = VECTOR ( 'NONE', #269, 39.37007874015748143 ) ;
#329 = DIMENSIONAL_EXPONENTS ( 1.000000000000000000, 0.000000000000000000, 0.000000000000000000, 0.000000000000000000, 0.000000000000000000, 0.000000000000000000, 0.000000000000000000 ) ;
#330 = FILL_AREA_STYLE_COLOUR ( '', #283 ) ;
#331 = UNCERTAINTY_MEASURE_WITH_UNIT (LENGTH_MEASURE( 1.000000000000000082E-05 ), #213, 'distance_accuracy_value', 'NONE');
#332 =( NAMED_UNIT ( * ) PLANE_ANGLE_UNIT ( ) SI_UNIT ( $, .RADIAN. ) );
#333 = LINE ( 'NONE', #2, #340 ) ;
#334 = CIRCLE ( 'NONE', #43, 0.1250000000000000000 ) ;
#335 = LENGTH_MEASURE_WITH_UNIT ( LENGTH_MEASURE( 0.02539999999999999897 ), #6 );
#336 = CARTESIAN_POINT ( 'NONE',  ( -0.1250000000000000555, 2.500000000000000000, 0.000000000000000000 ) ) ;
#337 = SURFACE_SIDE_STYLE ('',( #7 ) ) ;
#338 =( NAMED_UNIT ( * ) PLANE_ANGLE_UNIT ( ) SI_UNIT ( $, .RADIAN. ) );
#339 = DIRECTION ( 'NONE',  ( 0.000000000000000000, 0.000000000000000000, -1.000000000000000000 ) ) ;
#340 = VECTOR ( 'NONE', #60, 39.37007874015748854 ) ;
#341 =( GEOMETRIC_REPRESENTATION_CONTEXT ( 3 ) GLOBAL_UNCERTAINTY_ASSIGNED_CONTEXT ( ( #331 ) ) GLOBAL_UNIT_ASSIGNED_CONTEXT ( ( #213, #157, #244 ) ) REPRESENTATION_CONTEXT ( 'NONE', 'WORKASPACE' ) );
#342 = FILL_AREA_STYLE_COLOUR ( '', #187 ) ;
#343 = CIRCLE ( 'NONE', #351, 0.1093500000000000028 ) ;
#344 = EDGE_CURVE ( 'NONE', #78, #215, #17, .T. ) ;
#345 = LINE ( 'NONE', #190, #104 ) ;
#346 = ORIENTED_EDGE ( 'NONE', *, *, #179, .T. ) ;
#347 = DIRECTION ( 'NONE',  ( 0.000000000000000000, -1.000000000000000000, -0.000000000000000000 ) ) ;
#348 = ORIENTED_EDGE ( 'NONE', *, *, #357, .T. ) ;
#349 = ORIENTED_EDGE ( 'NONE', *, *, #152, .F. ) ;
#350 = CLOSED_SHELL ( 'NONE', ( #227, #249, #169, #28, #253, #120 ) ) ;
#351 = AXIS2_PLACEMENT_3D ( 'NONE', #206, #314, #219 ) ;
#352 = CARTESIAN_POINT ( 'NONE',  ( 0.000000000000000000, 0.000000000000000000, -0.1093500000000000028 ) ) ;
#353 = PRODUCT ( '82955', '82955', '', ( #268 ) ) ;
#354 = PRESENTATION_STYLE_ASSIGNMENT (( #55 ) ) ;
#355 = FILL_AREA_STYLE ('',( #118 ) ) ;
#356 = CARTESIAN_POINT ( 'NONE',  ( 0.1093500000000000028, 0.4374999999999998890, 1.434979886900910686E-17 ) ) ;
#357 = EDGE_CURVE ( 'NONE', #80, #231, #316, .T. ) ;
#358 = AXIS2_PLACEMENT_3D ( 'NONE', #264, #211, #318 ) ;
#359 = ORIENTED_EDGE ( 'NONE', *, *, #156, .T. ) ;
ENDSEC;
END-ISO-10303-21;
